ISO-10303-21;
HEADER;
FILE_DESCRIPTION (( 'STEP AP203' ),
    '1' );
FILE_NAME ('54590.step',
    '2021-09-03T07:51:55',
    ( '' ),
    ( '' ),
    'SwSTEP 2.0',
    'SolidWorks 2019',
    '' );
FILE_SCHEMA (( 'CONFIG_CONTROL_DESIGN' ));
ENDSEC;

DATA;
#1 = EDGE_CURVE ( 'NONE', #109, #319, #317, .T. ) ;
#2 = DIRECTION ( 'NONE',  ( -3.491481338843133355E-15, 1.224646799147353207E-16, -1.000000000000000000 ) ) ;
#3 = AXIS2_PLACEMENT_3D ( 'NONE', #177, #260, #150 ) ;
#4 = DATE_TIME_ROLE ( 'classification_date' ) ;
#5 = COORDINATED_UNIVERSAL_TIME_OFFSET ( 1, 0, .AHEAD. ) ;
#6 = ORIENTED_EDGE ( 'NONE', *, *, #302, .F. ) ;
#7 = ORIENTED_EDGE ( 'NONE', *, *, #318, .F. ) ;
#8 = APPLICATION_CONTEXT ( 'configuration controlled 3d designs of mechanical parts and assemblies' ) ;
#9 = VECTOR ( 'NONE', #131, 1000.000000000000114 ) ;
#10 = PERSON_AND_ORGANIZATION ( #256, #164 ) ;
#11 = EDGE_LOOP ( 'NONE', ( #65, #323 ) ) ;
#12 =( NAMED_UNIT ( * ) PLANE_ANGLE_UNIT ( ) SI_UNIT ( $, .RADIAN. ) );
#13 = EDGE_LOOP ( 'NONE', ( #265, #188, #84, #6 ) ) ;
#14 = APPROVAL_PERSON_ORGANIZATION ( #285, #307, #207 ) ;
#15 = ORIENTED_EDGE ( 'NONE', *, *, #276, .T. ) ;
#16 = AXIS2_PLACEMENT_3D ( 'NONE', #203, #221, #328 ) ;
#17 = FACE_OUTER_BOUND ( 'NONE', #171, .T. ) ;
#18 = CARTESIAN_POINT ( 'NONE',  ( 2.164718430082742680E-13, -7.592810154713590230E-15, 62.00000000000000000 ) ) ;
#19 = EDGE_CURVE ( 'NONE', #40, #325, #41, .T. ) ;
#20 = CARTESIAN_POINT ( 'NONE',  ( 5.454523460309240871E-15, -1.913189287947092749E-16, 1.562237609471669453 ) ) ;
#21 = CARTESIAN_POINT ( 'NONE',  ( 2.164718430082742680E-13, 1.999999999999992673, 62.00000000000000000 ) ) ;
#22 = APPROVAL_PERSON_ORGANIZATION ( #10, #178, #111 ) ;
#23 = LINE ( 'NONE', #118, #219 ) ;
#24 = DIRECTION ( 'NONE',  ( -3.491481338843133355E-15, 1.224646799147353207E-16, -1.000000000000000000 ) ) ;
#25 = FACE_OUTER_BOUND ( 'NONE', #329, .T. ) ;
#26 = LOCAL_TIME ( 9, 51, 55.00000000000000000, #5 ) ;
#27 = AXIS2_PLACEMENT_3D ( 'NONE', #100, #75, #211 ) ;
#28 = FACE_OUTER_BOUND ( 'NONE', #246, .T. ) ;
#29 = ADVANCED_FACE ( 'NONE', ( #223 ), #198, .F. ) ;
#30 = DIRECTION ( 'NONE',  ( -3.491481338843133355E-15, 1.224646799147353207E-16, -1.000000000000000000 ) ) ;
#31 = CC_DESIGN_PERSON_AND_ORGANIZATION_ASSIGNMENT ( #264, #82, ( #336 ) ) ;
#32 = CARTESIAN_POINT ( 'NONE',  ( 2.157060673704251797E-13, -2.000000000000008438, 62.00000000000000000 ) ) ;
#33 =( GEOMETRIC_REPRESENTATION_CONTEXT ( 3 ) GLOBAL_UNCERTAINTY_ASSIGNED_CONTEXT ( ( #105 ) ) GLOBAL_UNIT_ASSIGNED_CONTEXT ( ( #321, #12, #266 ) ) REPRESENTATION_CONTEXT ( 'NONE', 'WORKASPACE' ) );
#34 = DATE_AND_TIME ( #159, #124 ) ;
#35 = DESIGN_CONTEXT ( 'detailed design', #101, 'design' ) ;
#36 = ORIENTED_EDGE ( 'NONE', *, *, #197, .F. ) ;
#37 = CC_DESIGN_APPROVAL ( #270, ( #184 ) ) ;
#38 = DATE_AND_TIME ( #114, #149 ) ;
#39 = ORIENTED_EDGE ( 'NONE', *, *, #233, .F. ) ;
#40 = VERTEX_POINT ( 'NONE', #94 ) ;
#41 = CIRCLE ( 'NONE', #106, 2.599999999999992539 ) ;
#42 = ORIENTED_EDGE ( 'NONE', *, *, #294, .T. ) ;
#43 = VERTEX_POINT ( 'NONE', #21 ) ;
#44 = ADVANCED_FACE ( 'NONE', ( #17 ), #145, .T. ) ;
#45 = VERTEX_POINT ( 'NONE', #123 ) ;
#46 = CIRCLE ( 'NONE', #27, 2.599999999999992539 ) ;
#47 = ORIENTED_EDGE ( 'NONE', *, *, #320, .T. ) ;
#48 = ORIENTED_EDGE ( 'NONE', *, *, #189, .F. ) ;
#49 = ORIENTED_EDGE ( 'NONE', *, *, #318, .T. ) ;
#50 = CARTESIAN_POINT ( 'NONE',  ( 5.454523460309240871E-15, -1.913189287947092749E-16, 1.562237609471669453 ) ) ;
#51 = CARTESIAN_POINT ( 'NONE',  ( 1.111716175933208117E-30, 2.599999999999997424, 3.184081677783115233E-16 ) ) ;
#52 = ADVANCED_FACE ( 'NONE', ( #202 ), #85, .T. ) ;
#53 = CARTESIAN_POINT ( 'NONE',  ( 2.164718430082742680E-13, 1.999999999999992673, 62.00000000000000000 ) ) ;
#54 = CARTESIAN_POINT ( 'NONE',  ( 6.982962677686266711E-14, -2.449293598294706513E-15, 20.00000000000000000 ) ) ;
#55 = EDGE_CURVE ( 'NONE', #88, #40, #23, .T. ) ;
#56 = AXIS2_PLACEMENT_3D ( 'NONE', #167, #331, #119 ) ;
#57 = DIRECTION ( 'NONE',  ( 0.0000000000000000000, 1.000000000000000000, 0.0000000000000000000 ) ) ;
#58 = DIRECTION ( 'NONE',  ( -3.491481338843133355E-15, 1.224646799147353207E-16, -1.000000000000000000 ) ) ;
#59 = APPROVAL_DATE_TIME ( #103, #307 ) ;
#60 = PERSON_AND_ORGANIZATION ( #256, #164 ) ;
#61 = VERTEX_POINT ( 'NONE', #147 ) ;
#62 = PERSON_AND_ORGANIZATION ( #256, #164 ) ;
#63 = PRODUCT_RELATED_PRODUCT_CATEGORY ( 'detail', '', ( #336 ) ) ;
#64 = APPROVAL_DATE_TIME ( #38, #270 ) ;
#65 = ORIENTED_EDGE ( 'NONE', *, *, #71, .F. ) ;
#66 = AXIS2_PLACEMENT_3D ( 'NONE', #50, #305, #251 ) ;
#67 = ORIENTED_EDGE ( 'NONE', *, *, #236, .T. ) ;
#68 = CC_DESIGN_PERSON_AND_ORGANIZATION_ASSIGNMENT ( #296, #281, ( #191 ) ) ;
#69 = DIRECTION ( 'NONE',  ( -3.491481338843133355E-15, 1.224646799147353207E-16, -1.000000000000000000 ) ) ;
#70 = DIRECTION ( 'NONE',  ( 3.491481338843133355E-15, -1.224646799147353207E-16, 1.000000000000000000 ) ) ;
#71 = EDGE_CURVE ( 'NONE', #43, #135, #121, .T. ) ;
#72 = FACE_OUTER_BOUND ( 'NONE', #13, .T. ) ;
#73 = DIRECTION ( 'NONE',  ( 1.903218546456022717E-15, 0.8571673007021097801, 0.5150380749100585964 ) ) ;
#74 = ORIENTED_EDGE ( 'NONE', *, *, #1, .F. ) ;
#75 = DIRECTION ( 'NONE',  ( -3.491481338843133355E-15, 1.224646799147353207E-16, -1.000000000000000000 ) ) ;
#76 = CARTESIAN_POINT ( 'NONE',  ( 2.164718430082742680E-13, -7.592810154713590230E-15, 62.00000000000000000 ) ) ;
#77 = CALENDAR_DATE ( 2021, 3, 9 ) ;
#78 = FACE_OUTER_BOUND ( 'NONE', #252, .T. ) ;
#79 = CYLINDRICAL_SURFACE ( 'NONE', #231, 2.599999999999993872 ) ;
#80 = AXIS2_PLACEMENT_3D ( 'NONE', #313, #2, #229 ) ;
#81 = DIRECTION ( 'NONE',  ( -3.491481338843133355E-15, 1.224646799147353207E-16, -1.000000000000000000 ) ) ;
#82 = PERSON_AND_ORGANIZATION_ROLE ( 'design_owner' ) ;
#83 = COORDINATED_UNIVERSAL_TIME_OFFSET ( 1, 0, .AHEAD. ) ;
#84 = ORIENTED_EDGE ( 'NONE', *, *, #129, .T. ) ;
#85 = CONICAL_SURFACE ( 'NONE', #66, 2.599999999999992539, 1.029744258676649649 ) ;
#86 = DATE_AND_TIME ( #108, #26 ) ;
#87 = ORIENTED_EDGE ( 'NONE', *, *, #197, .T. ) ;
#88 = VERTEX_POINT ( 'NONE', #225 ) ;
#89 = AXIS2_PLACEMENT_3D ( 'NONE', #18, #148, #195 ) ;
#90 = DIRECTION ( 'NONE',  ( 4.275831445896958607E-31, 1.000000000000000000, 1.224646799147353207E-16 ) ) ;
#91 = DIRECTION ( 'NONE',  ( 2.962969145211140604E-31, 1.000000000000000000, 8.340016711426981173E-17 ) ) ;
#92 = DIRECTION ( 'NONE',  ( 1.798245827342160317E-15, -0.8571673007021098911, 0.5150380749100582634 ) ) ;
#93 = AXIS2_PLACEMENT_3D ( 'NONE', #126, #333, #215 ) ;
#94 = CARTESIAN_POINT ( 'NONE',  ( 5.772931628087553676E-15, 2.599999999999992539, 1.562237609471669675 ) ) ;
#95 = CARTESIAN_POINT ( 'NONE',  ( 6.982962677686266711E-14, 1.949687717460407501E-32, 20.00000000000000000 ) ) ;
#96 = LINE ( 'NONE', #154, #283 ) ;
#97 = ADVANCED_FACE ( 'NONE', ( #326 ), #206, .T. ) ;
#98 = CARTESIAN_POINT ( 'NONE',  ( 2.143769542049683754E-13, 2.599999999999992539, 61.39999999999999858 ) ) ;
#99 = EDGE_CURVE ( 'NONE', #137, #61, #134, .T. ) ;
#100 = CARTESIAN_POINT ( 'NONE',  ( 5.454523460309240871E-15, -1.913189287947092749E-16, 1.562237609471669453 ) ) ;
#101 = APPLICATION_CONTEXT ( 'configuration controlled 3d designs of mechanical parts and assemblies' ) ;
#102 = CARTESIAN_POINT ( 'NONE',  ( 2.167167723681037383E-13, -2.000000000000008438, 62.00000000000000000 ) ) ;
#103 = DATE_AND_TIME ( #77, #116 ) ;
#104 = CARTESIAN_POINT ( 'NONE',  ( 2.164718430082742680E-13, -7.592810154713590230E-15, 62.00000000000000000 ) ) ;
#105 = UNCERTAINTY_MEASURE_WITH_UNIT (LENGTH_MEASURE( 1.000000000000000082E-05 ), #321, 'distance_accuracy_value', 'NONE');
#106 = AXIS2_PLACEMENT_3D ( 'NONE', #20, #271, #91 ) ;
#107 = SHAPE_DEFINITION_REPRESENTATION ( #222, #196 ) ;
#108 = CALENDAR_DATE ( 2021, 3, 9 ) ;
#109 = VERTEX_POINT ( 'NONE', #125 ) ;
#110 = EDGE_CURVE ( 'NONE', #88, #325, #306, .T. ) ;
#111 = APPROVAL_ROLE ( '' ) ;
#112 = VECTOR ( 'NONE', #133, 1000.000000000000000 ) ;
#113 = ADVANCED_FACE ( 'NONE', ( #228 ), #200, .T. ) ;
#114 = CALENDAR_DATE ( 2021, 3, 9 ) ;
#115 = ORIENTED_EDGE ( 'NONE', *, *, #99, .F. ) ;
#116 = LOCAL_TIME ( 9, 51, 55.00000000000000000, #176 ) ;
#117 = ORIENTED_EDGE ( 'NONE', *, *, #1, .T. ) ;
#118 = CARTESIAN_POINT ( 'NONE',  ( 5.772931628087552887E-15, 2.599999999999992539, 1.562237609471669675 ) ) ;
#119 = DIRECTION ( 'NONE',  ( 0.0000000000000000000, 1.000000000000000000, 0.0000000000000000000 ) ) ;
#120 = CARTESIAN_POINT ( 'NONE',  ( 2.164718430082742680E-13, 1.499759782661846387E-32, 62.00000000000000000 ) ) ;
#121 = CIRCLE ( 'NONE', #89, 2.000000000000000444 ) ;
#122 = ADVANCED_FACE ( 'NONE', ( #72 ), #169, .T. ) ;
#123 = CARTESIAN_POINT ( 'NONE',  ( 6.982962677686266711E-14, 2.599999999999992539, 20.00000000000000000 ) ) ;
#124 = LOCAL_TIME ( 9, 51, 55.00000000000000000, #192 ) ;
#125 = CARTESIAN_POINT ( 'NONE',  ( 6.982962677686266711E-14, 2.599999999999992539, 20.00000000000000000 ) ) ;
#126 = CARTESIAN_POINT ( 'NONE',  ( 0.0000000000000000000, 0.0000000000000000000, 0.0000000000000000000 ) ) ;
#127 = AXIS2_PLACEMENT_3D ( 'NONE', #237, #180, #179 ) ;
#128 = DIRECTION ( 'NONE',  ( -3.491481338843133355E-15, 1.224646799147353207E-16, -1.000000000000000000 ) ) ;
#129 = EDGE_CURVE ( 'NONE', #137, #109, #151, .T. ) ;
#130 = APPROVAL_STATUS ( 'not_yet_approved' ) ;
#131 = DIRECTION ( 'NONE',  ( -2.382254525458724175E-15, -0.7071067811865451302, -0.7071067811865499042 ) ) ;
#132 = CARTESIAN_POINT ( 'NONE',  ( 2.143769542049683754E-13, -7.519331346764748510E-15, 61.39999999999999858 ) ) ;
#133 = DIRECTION ( 'NONE',  ( -2.468850131082272838E-15, 0.7071067811865453523, -0.7071067811865496822 ) ) ;
#134 = CIRCLE ( 'NONE', #16, 2.600000000000000089 ) ;
#135 = VERTEX_POINT ( 'NONE', #32 ) ;
#136 = PERSON_AND_ORGANIZATION_ROLE ( 'creator' ) ;
#137 = VERTEX_POINT ( 'NONE', #98 ) ;
#138 = APPLICATION_PROTOCOL_DEFINITION ( 'international standard', 'config_control_design', 1994, #101 ) ;
#139 = ORIENTED_EDGE ( 'NONE', *, *, #55, .F. ) ;
#140 = EDGE_LOOP ( 'NONE', ( #36, #47, #218, #322 ) ) ;
#141 = EDGE_LOOP ( 'NONE', ( #15, #158, #292, #7 ) ) ;
#142 = ORIENTED_EDGE ( 'NONE', *, *, #99, .T. ) ;
#143 = LOCAL_TIME ( 9, 51, 55.00000000000000000, #234 ) ;
#144 = AXIS2_PLACEMENT_3D ( 'NONE', #132, #235, #208 ) ;
#145 = PLANE ( 'NONE',  #298 ) ;
#146 = DIRECTION ( 'NONE',  ( -3.491481338843133355E-15, 1.224646799147353207E-16, -1.000000000000000000 ) ) ;
#147 = CARTESIAN_POINT ( 'NONE',  ( 1.424216986586937039E-13, -2.600000000000007194, 61.39999999999999858 ) ) ;
#148 = DIRECTION ( 'NONE',  ( -3.491481338843133355E-15, 1.224646799147353207E-16, -1.000000000000000000 ) ) ;
#149 = LOCAL_TIME ( 9, 51, 55.00000000000000000, #83 ) ;
#150 = DIRECTION ( 'NONE',  ( 0.0000000000000000000, 1.000000000000000000, 0.0000000000000000000 ) ) ;
#151 = LINE ( 'NONE', #51, #152 ) ;
#152 = VECTOR ( 'NONE', #258, 1000.000000000000000 ) ;
#153 = DIRECTION ( 'NONE',  ( 3.491481338843133355E-15, -1.224646799147353207E-16, 1.000000000000000000 ) ) ;
#154 = CARTESIAN_POINT ( 'NONE',  ( 1.111716175933206540E-30, 2.599999999999993872, 3.184081677783110795E-16 ) ) ;
#155 = ADVANCED_FACE ( 'NONE', ( #308 ), #194, .T. ) ;
#156 = LINE ( 'NONE', #53, #112 ) ;
#157 = AXIS2_PLACEMENT_3D ( 'NONE', #249, #174, #220 ) ;
#158 = ORIENTED_EDGE ( 'NONE', *, *, #182, .T. ) ;
#159 = CALENDAR_DATE ( 2021, 3, 9 ) ;
#160 = ORIENTED_EDGE ( 'NONE', *, *, #110, .T. ) ;
#161 = CC_DESIGN_APPROVAL ( #178, ( #230 ) ) ;
#162 = SECURITY_CLASSIFICATION_LEVEL ( 'unclassified' ) ;
#163 = APPROVAL_DATE_TIME ( #34, #178 ) ;
#164 = ORGANIZATION ( 'UNSPECIFIED', 'UNSPECIFIED', '' ) ;
#165 = APPROVAL_PERSON_ORGANIZATION ( #293, #270, #291 ) ;
#166 = DIRECTION ( 'NONE',  ( -4.275831445896958607E-31, -1.000000000000000000, -1.224646799147353207E-16 ) ) ;
#167 = CARTESIAN_POINT ( 'NONE',  ( 2.164718430082742680E-13, -7.592810154713590230E-15, 62.00000000000000000 ) ) ;
#168 = VECTOR ( 'NONE', #24, 1000.000000000000000 ) ;
#169 = CYLINDRICAL_SURFACE ( 'NONE', #250, 2.599999999999997424 ) ;
#170 = EDGE_CURVE ( 'NONE', #61, #137, #212, .T. ) ;
#171 = EDGE_LOOP ( 'NONE', ( #217, #48 ) ) ;
#172 = CC_DESIGN_PERSON_AND_ORGANIZATION_ASSIGNMENT ( #60, #240, ( #230 ) ) ;
#173 = CC_DESIGN_SECURITY_CLASSIFICATION ( #191, ( #184 ) ) ;
#174 = DIRECTION ( 'NONE',  ( -3.491481338843133355E-15, 1.224646799147353207E-16, -1.000000000000000000 ) ) ;
#175 = LINE ( 'NONE', #282, #168 ) ;
#176 = COORDINATED_UNIVERSAL_TIME_OFFSET ( 1, 0, .AHEAD. ) ;
#177 = CARTESIAN_POINT ( 'NONE',  ( 6.982962677686266711E-14, -2.449293598294706513E-15, 20.00000000000000000 ) ) ;
#178 = APPROVAL ( #287, 'UNSPECIFIED' ) ;
#179 = DIRECTION ( 'NONE',  ( -4.275831445896958607E-31, -1.000000000000000000, -1.224646799147353207E-16 ) ) ;
#180 = DIRECTION ( 'NONE',  ( 3.491481338843133355E-15, -1.224646799147353207E-16, 1.000000000000000000 ) ) ;
#181 = ADVANCED_FACE ( 'NONE', ( #28 ), #334, .T. ) ;
#182 = EDGE_CURVE ( 'NONE', #243, #325, #312, .T. ) ;
#183 = FACE_OUTER_BOUND ( 'NONE', #141, .T. ) ;
#184 = PRODUCT_DEFINITION_FORMATION_WITH_SPECIFIED_SOURCE ( 'ANY', '', #336, .NOT_KNOWN. ) ;
#185 = ORIENTED_EDGE ( 'NONE', *, *, #236, .F. ) ;
#186 = PERSON_AND_ORGANIZATION ( #256, #164 ) ;
#187 = VECTOR ( 'NONE', #286, 1000.000000000000000 ) ;
#188 = ORIENTED_EDGE ( 'NONE', *, *, #170, .T. ) ;
#189 = EDGE_CURVE ( 'NONE', #243, #45, #245, .T. ) ;
#190 = DATE_TIME_ROLE ( 'creation_date' ) ;
#191 = SECURITY_CLASSIFICATION ( '', '', #162 ) ;
#192 = COORDINATED_UNIVERSAL_TIME_OFFSET ( 1, 0, .AHEAD. ) ;
#193 = ORIENTED_EDGE ( 'NONE', *, *, #189, .T. ) ;
#194 = CONICAL_SURFACE ( 'NONE', #289, 2.000000000000000444, 0.7853981633974450594 ) ;
#195 = DIRECTION ( 'NONE',  ( 0.0000000000000000000, 1.000000000000000000, 0.0000000000000000000 ) ) ;
#196 = ADVANCED_BREP_SHAPE_REPRESENTATION ( '54590', ( #227, #226, #314 ), #33 ) ;
#197 = EDGE_CURVE ( 'NONE', #135, #61, #232, .T. ) ;
#198 = PLANE ( 'NONE',  #224 ) ;
#199 = ADVANCED_FACE ( 'NONE', ( #25 ), #79, .T. ) ;
#200 = CYLINDRICAL_SURFACE ( 'NONE', #259, 2.599999999999997424 ) ;
#201 = CLOSED_SHELL ( 'NONE', ( #155, #113, #290, #122, #97, #29 ) ) ;
#202 = FACE_OUTER_BOUND ( 'NONE', #301, .T. ) ;
#203 = CARTESIAN_POINT ( 'NONE',  ( 2.143769542049683754E-13, -7.519331346764748510E-15, 61.39999999999999858 ) ) ;
#204 = CC_DESIGN_APPROVAL ( #307, ( #191 ) ) ;
#205 = CARTESIAN_POINT ( 'NONE',  ( 1.424216986586937796E-13, -2.599999999999997868, 20.00000000000000000 ) ) ;
#206 = CONICAL_SURFACE ( 'NONE', #56, 2.000000000000000444, 0.7853981633974450594 ) ;
#207 = APPROVAL_ROLE ( '' ) ;
#208 = DIRECTION ( 'NONE',  ( 0.0000000000000000000, 1.000000000000000000, 0.0000000000000000000 ) ) ;
#209 = CC_DESIGN_PERSON_AND_ORGANIZATION_ASSIGNMENT ( #62, #216, ( #184 ) ) ;
#210 = CARTESIAN_POINT ( 'NONE',  ( 3.796048328636423129E-14, -2.599999999999998312, 20.00000000000000000 ) ) ;
#211 = DIRECTION ( 'NONE',  ( 2.962969145211140604E-31, 1.000000000000000000, 8.340016711426981173E-17 ) ) ;
#212 = CIRCLE ( 'NONE', #144, 2.600000000000000089 ) ;
#213 = DIRECTION ( 'NONE',  ( -3.491481338843133355E-15, 1.224646799147353207E-16, -1.000000000000000000 ) ) ;
#214 = APPROVAL_STATUS ( 'not_yet_approved' ) ;
#215 = DIRECTION ( 'NONE',  ( 4.275831445896958607E-31, 1.000000000000000000, 1.224646799147353207E-16 ) ) ;
#216 = PERSON_AND_ORGANIZATION_ROLE ( 'design_supplier' ) ;
#217 = ORIENTED_EDGE ( 'NONE', *, *, #276, .F. ) ;
#218 = ORIENTED_EDGE ( 'NONE', *, *, #233, .T. ) ;
#219 = VECTOR ( 'NONE', #73, 999.9999999999998863 ) ;
#220 = DIRECTION ( 'NONE',  ( 0.0000000000000000000, 1.000000000000000000, 0.0000000000000000000 ) ) ;
#221 = DIRECTION ( 'NONE',  ( -3.491481338843133355E-15, 1.224646799147353207E-16, -1.000000000000000000 ) ) ;
#222 = PRODUCT_DEFINITION_SHAPE ( 'NONE', 'NONE',  #230 ) ;
#223 = FACE_OUTER_BOUND ( 'NONE', #11, .T. ) ;
#224 = AXIS2_PLACEMENT_3D ( 'NONE', #120, #253, #90 ) ;
#225 = CARTESIAN_POINT ( 'NONE',  ( 0.0000000000000000000, 0.0000000000000000000, 0.0000000000000000000 ) ) ;
#226 = MANIFOLD_SOLID_BREP ( 'Corps-Déplacer/Copier1[2]', #309 ) ;
#227 = MANIFOLD_SOLID_BREP ( 'Corps-Déplacer/Copier1[1]', #201 ) ;
#228 = FACE_OUTER_BOUND ( 'NONE', #316, .T. ) ;
#229 = DIRECTION ( 'NONE',  ( 0.0000000000000000000, 1.000000000000000000, 0.0000000000000000000 ) ) ;
#230 = PRODUCT_DEFINITION ( 'UNKNOWN', '', #184, #35 ) ;
#231 = AXIS2_PLACEMENT_3D ( 'NONE', #261, #128, #280 ) ;
#232 = LINE ( 'NONE', #102, #9 ) ;
#233 = EDGE_CURVE ( 'NONE', #43, #137, #156, .T. ) ;
#234 = COORDINATED_UNIVERSAL_TIME_OFFSET ( 1, 0, .AHEAD. ) ;
#235 = DIRECTION ( 'NONE',  ( -3.491481338843133355E-15, 1.224646799147353207E-16, -1.000000000000000000 ) ) ;
#236 = EDGE_CURVE ( 'NONE', #325, #40, #46, .T. ) ;
#237 = CARTESIAN_POINT ( 'NONE',  ( 6.982962677686266711E-14, 1.949687717460407501E-32, 20.00000000000000000 ) ) ;
#238 = CIRCLE ( 'NONE', #254, 2.599999999999995204 ) ;
#239 = CALENDAR_DATE ( 2021, 3, 9 ) ;
#240 = PERSON_AND_ORGANIZATION_ROLE ( 'creator' ) ;
#241 = ORIENTED_EDGE ( 'NONE', *, *, #129, .F. ) ;
#242 = CARTESIAN_POINT ( 'NONE',  ( 0.0000000000000000000, 0.0000000000000000000, 0.0000000000000000000 ) ) ;
#243 = VERTEX_POINT ( 'NONE', #210 ) ;
#244 = MECHANICAL_CONTEXT ( 'NONE', #8, 'mechanical' ) ;
#245 = CIRCLE ( 'NONE', #3, 2.599999999999995204 ) ;
#246 = EDGE_LOOP ( 'NONE', ( #139, #160, #67 ) ) ;
#247 = DIRECTION ( 'NONE',  ( 1.000000000000000000, 0.0000000000000000000, 0.0000000000000000000 ) ) ;
#248 = ORIENTED_EDGE ( 'NONE', *, *, #71, .T. ) ;
#249 = CARTESIAN_POINT ( 'NONE',  ( 6.982962677686266711E-14, -2.449293598294706513E-15, 20.00000000000000000 ) ) ;
#250 = AXIS2_PLACEMENT_3D ( 'NONE', #274, #146, #284 ) ;
#251 = DIRECTION ( 'NONE',  ( -2.962969145211140604E-31, -1.000000000000000000, -8.340016711426981173E-17 ) ) ;
#252 = EDGE_LOOP ( 'NONE', ( #117, #299 ) ) ;
#253 = DIRECTION ( 'NONE',  ( -3.491481338843133355E-15, 1.224646799147353207E-16, -1.000000000000000000 ) ) ;
#254 = AXIS2_PLACEMENT_3D ( 'NONE', #54, #58, #57 ) ;
#255 = CARTESIAN_POINT ( 'NONE',  ( 5.454523460309240082E-15, -2.599999999999992539, 1.562237609471669231 ) ) ;
#256 = PERSON ( 'UNSPECIFIED', 'UNSPECIFIED', 'UNSPECIFIED', ('UNSPECIFIED'), ('UNSPECIFIED'), ('UNSPECIFIED') ) ;
#257 = DIRECTION ( 'NONE',  ( 0.0000000000000000000, 1.000000000000000000, 0.0000000000000000000 ) ) ;
#258 = DIRECTION ( 'NONE',  ( -3.491481338843133355E-15, 1.224646799147353207E-16, -1.000000000000000000 ) ) ;
#259 = AXIS2_PLACEMENT_3D ( 'NONE', #300, #69, #303 ) ;
#260 = DIRECTION ( 'NONE',  ( -3.491481338843133355E-15, 1.224646799147353207E-16, -1.000000000000000000 ) ) ;
#261 = CARTESIAN_POINT ( 'NONE',  ( 0.0000000000000000000, 0.0000000000000000000, 0.0000000000000000000 ) ) ;
#262 = DIRECTION ( 'NONE',  ( -2.962969145211140604E-31, -1.000000000000000000, -8.340016711426981173E-17 ) ) ;
#263 = VECTOR ( 'NONE', #92, 1000.000000000000000 ) ;
#264 = PERSON_AND_ORGANIZATION ( #256, #164 ) ;
#265 = ORIENTED_EDGE ( 'NONE', *, *, #294, .F. ) ;
#266 =( NAMED_UNIT ( * ) SI_UNIT ( $, .STERADIAN. ) SOLID_ANGLE_UNIT ( ) );
#267 = CC_DESIGN_PERSON_AND_ORGANIZATION_ASSIGNMENT ( #186, #136, ( #184 ) ) ;
#268 = DIRECTION ( 'NONE',  ( 0.0000000000000000000, 0.0000000000000000000, 1.000000000000000000 ) ) ;
#269 = APPLICATION_PROTOCOL_DEFINITION ( 'international standard', 'config_control_design', 1994, #8 ) ;
#270 = APPROVAL ( #214, 'UNSPECIFIED' ) ;
#271 = DIRECTION ( 'NONE',  ( -3.491481338843133355E-15, 1.224646799147353207E-16, -1.000000000000000000 ) ) ;
#272 = ORIENTED_EDGE ( 'NONE', *, *, #19, .T. ) ;
#273 = CIRCLE ( 'NONE', #80, 2.599999999999995204 ) ;
#274 = CARTESIAN_POINT ( 'NONE',  ( 0.0000000000000000000, 0.0000000000000000000, 0.0000000000000000000 ) ) ;
#275 = ORIENTED_EDGE ( 'NONE', *, *, #110, .F. ) ;
#276 = EDGE_CURVE ( 'NONE', #45, #243, #273, .T. ) ;
#277 = ORIENTED_EDGE ( 'NONE', *, *, #182, .F. ) ;
#278 = CIRCLE ( 'NONE', #324, 2.000000000000000444 ) ;
#279 = CYLINDRICAL_SURFACE ( 'NONE', #93, 2.599999999999993872 ) ;
#280 = DIRECTION ( 'NONE',  ( 4.275831445896958607E-31, 1.000000000000000000, 1.224646799147353207E-16 ) ) ;
#281 = PERSON_AND_ORGANIZATION_ROLE ( 'classification_officer' ) ;
#282 = CARTESIAN_POINT ( 'NONE',  ( 3.184081677783104386E-16, -2.599999999999997424, -3.184081677783125586E-16 ) ) ;
#283 = VECTOR ( 'NONE', #30, 1000.000000000000000 ) ;
#284 = DIRECTION ( 'NONE',  ( 4.275831445896958607E-31, 1.000000000000000000, 1.224646799147353207E-16 ) ) ;
#285 = PERSON_AND_ORGANIZATION ( #256, #164 ) ;
#286 = DIRECTION ( 'NONE',  ( -3.491481338843133355E-15, 1.224646799147353207E-16, -1.000000000000000000 ) ) ;
#287 = APPROVAL_STATUS ( 'not_yet_approved' ) ;
#288 = ORIENTED_EDGE ( 'NONE', *, *, #55, .T. ) ;
#289 = AXIS2_PLACEMENT_3D ( 'NONE', #76, #81, #337 ) ;
#290 = ADVANCED_FACE ( 'NONE', ( #78 ), #332, .F. ) ;
#291 = APPROVAL_ROLE ( '' ) ;
#292 = ORIENTED_EDGE ( 'NONE', *, *, #19, .F. ) ;
#293 = PERSON_AND_ORGANIZATION ( #256, #164 ) ;
#294 = EDGE_CURVE ( 'NONE', #61, #319, #175, .T. ) ;
#295 = EDGE_LOOP ( 'NONE', ( #248, #87, #115, #39 ) ) ;
#296 = PERSON_AND_ORGANIZATION ( #256, #164 ) ;
#297 = CC_DESIGN_DATE_AND_TIME_ASSIGNMENT ( #311, #4, ( #191 ) ) ;
#298 = AXIS2_PLACEMENT_3D ( 'NONE', #95, #70, #166 ) ;
#299 = ORIENTED_EDGE ( 'NONE', *, *, #302, .T. ) ;
#300 = CARTESIAN_POINT ( 'NONE',  ( 0.0000000000000000000, 0.0000000000000000000, 0.0000000000000000000 ) ) ;
#301 = EDGE_LOOP ( 'NONE', ( #275, #288, #272 ) ) ;
#302 = EDGE_CURVE ( 'NONE', #319, #109, #238, .T. ) ;
#303 = DIRECTION ( 'NONE',  ( 4.275831445896958607E-31, 1.000000000000000000, 1.224646799147353207E-16 ) ) ;
#304 = AXIS2_PLACEMENT_3D ( 'NONE', #335, #153, #262 ) ;
#305 = DIRECTION ( 'NONE',  ( 3.491481338843133355E-15, -1.224646799147353207E-16, 1.000000000000000000 ) ) ;
#306 = LINE ( 'NONE', #255, #263 ) ;
#307 = APPROVAL ( #130, 'UNSPECIFIED' ) ;
#308 = FACE_OUTER_BOUND ( 'NONE', #295, .T. ) ;
#309 = CLOSED_SHELL ( 'NONE', ( #330, #52, #181, #199, #44 ) ) ;
#310 = CARTESIAN_POINT ( 'NONE',  ( 3.184081677783099948E-16, -2.599999999999993872, -3.184081677783121642E-16 ) ) ;
#311 = DATE_AND_TIME ( #239, #143 ) ;
#312 = LINE ( 'NONE', #310, #187 ) ;
#313 = CARTESIAN_POINT ( 'NONE',  ( 6.982962677686266711E-14, -2.449293598294706513E-15, 20.00000000000000000 ) ) ;
#314 = AXIS2_PLACEMENT_3D ( 'NONE', #242, #268, #247 ) ;
#315 = CARTESIAN_POINT ( 'NONE',  ( 5.454523460309240082E-15, -2.599999999999992539, 1.562237609471669231 ) ) ;
#316 = EDGE_LOOP ( 'NONE', ( #142, #42, #74, #241 ) ) ;
#317 = CIRCLE ( 'NONE', #157, 2.599999999999995204 ) ;
#318 = EDGE_CURVE ( 'NONE', #45, #40, #96, .T. ) ;
#319 = VERTEX_POINT ( 'NONE', #205 ) ;
#320 = EDGE_CURVE ( 'NONE', #135, #43, #278, .T. ) ;
#321 =( LENGTH_UNIT ( ) NAMED_UNIT ( * ) SI_UNIT ( .MILLI., .METRE. ) );
#322 = ORIENTED_EDGE ( 'NONE', *, *, #170, .F. ) ;
#323 = ORIENTED_EDGE ( 'NONE', *, *, #320, .F. ) ;
#324 = AXIS2_PLACEMENT_3D ( 'NONE', #104, #213, #257 ) ;
#325 = VERTEX_POINT ( 'NONE', #315 ) ;
#326 = FACE_OUTER_BOUND ( 'NONE', #140, .T. ) ;
#327 = CC_DESIGN_DATE_AND_TIME_ASSIGNMENT ( #86, #190, ( #230 ) ) ;
#328 = DIRECTION ( 'NONE',  ( 0.0000000000000000000, 1.000000000000000000, 0.0000000000000000000 ) ) ;
#329 = EDGE_LOOP ( 'NONE', ( #277, #193, #49, #185 ) ) ;
#330 = ADVANCED_FACE ( 'NONE', ( #183 ), #279, .T. ) ;
#331 = DIRECTION ( 'NONE',  ( -3.491481338843133355E-15, 1.224646799147353207E-16, -1.000000000000000000 ) ) ;
#332 = PLANE ( 'NONE',  #127 ) ;
#333 = DIRECTION ( 'NONE',  ( -3.491481338843133355E-15, 1.224646799147353207E-16, -1.000000000000000000 ) ) ;
#334 = CONICAL_SURFACE ( 'NONE', #304, 2.599999999999992539, 1.029744258676649649 ) ;
#335 = CARTESIAN_POINT ( 'NONE',  ( 5.454523460309240871E-15, -1.913189287947092749E-16, 1.562237609471669453 ) ) ;
#336 = PRODUCT ( '54590', '54590', '', ( #244 ) ) ;
#337 = DIRECTION ( 'NONE',  ( 0.0000000000000000000, 1.000000000000000000, 0.0000000000000000000 ) ) ;
ENDSEC;
END-ISO-10303-21;
