ISO-10303-21;
HEADER;
FILE_DESCRIPTION (( 'STEP AP203' ),
    '1' );
FILE_NAME ('54589.step',
    '2021-09-03T07:51:51',
    ( '' ),
    ( '' ),
    'SwSTEP 2.0',
    'SolidWorks 2019',
    '' );
FILE_SCHEMA (( 'CONFIG_CONTROL_DESIGN' ));
ENDSEC;

DATA;
#1 = VERTEX_POINT ( 'NONE', #289 ) ;
#2 = DIRECTION ( 'NONE',  ( 0.0000000000000000000, 1.000000000000000000, 0.0000000000000000000 ) ) ;
#3 = ORIENTED_EDGE ( 'NONE', *, *, #256, .F. ) ;
#4 = CARTESIAN_POINT ( 'NONE',  ( 6.982962677686266711E-14, -2.449293598294706513E-15, 20.00000000000000000 ) ) ;
#5 = CARTESIAN_POINT ( 'NONE',  ( 3.122849337825732177E-16, -2.549999999999993605, -3.122849337825753871E-16 ) ) ;
#6 = CARTESIAN_POINT ( 'NONE',  ( 0.0000000000000000000, 0.0000000000000000000, 0.0000000000000000000 ) ) ;
#7 = AXIS2_PLACEMENT_3D ( 'NONE', #33, #301, #267 ) ;
#8 = DIRECTION ( 'NONE',  ( 4.275831445896958607E-31, 1.000000000000000000, 1.224646799147353207E-16 ) ) ;
#9 = PRODUCT_DEFINITION_FORMATION_WITH_SPECIFIED_SOURCE ( 'ANY', '', #218, .NOT_KNOWN. ) ;
#10 = CARTESIAN_POINT ( 'NONE',  ( 0.0000000000000000000, 0.0000000000000000000, 0.0000000000000000000 ) ) ;
#11 = ADVANCED_FACE ( 'NONE', ( #262 ), #49, .T. ) ;
#12 =( NAMED_UNIT ( * ) SI_UNIT ( $, .STERADIAN. ) SOLID_ANGLE_UNIT ( ) );
#13 = EDGE_CURVE ( 'NONE', #127, #284, #190, .T. ) ;
#14 = APPLICATION_PROTOCOL_DEFINITION ( 'international standard', 'config_control_design', 1994, #213 ) ;
#15 = CARTESIAN_POINT ( 'NONE',  ( 2.143769542049683754E-13, -7.519331346764748510E-15, 61.39999999999999858 ) ) ;
#16 = APPROVAL_ROLE ( '' ) ;
#17 = EDGE_LOOP ( 'NONE', ( #283, #232 ) ) ;
#18 = AXIS2_PLACEMENT_3D ( 'NONE', #323, #87, #89 ) ;
#19 = DATE_AND_TIME ( #133, #60 ) ;
#20 = ORIENTED_EDGE ( 'NONE', *, *, #261, .T. ) ;
#21 = EDGE_CURVE ( 'NONE', #186, #72, #177, .T. ) ;
#22 = EDGE_LOOP ( 'NONE', ( #80, #204, #288, #188 ) ) ;
#23 = CARTESIAN_POINT ( 'NONE',  ( 6.982962677686266711E-14, 1.912193722893861060E-32, 20.00000000000000000 ) ) ;
#24 = EDGE_CURVE ( 'NONE', #291, #260, #211, .T. ) ;
#25 = DIRECTION ( 'NONE',  ( 1.798245827342160317E-15, -0.8571673007021098911, 0.5150380749100582634 ) ) ;
#26 = DATE_TIME_ROLE ( 'creation_date' ) ;
#27 = ORIENTED_EDGE ( 'NONE', *, *, #78, .F. ) ;
#28 = DIRECTION ( 'NONE',  ( 3.491481338843133355E-15, -1.224646799147353207E-16, 1.000000000000000000 ) ) ;
#29 = CLOSED_SHELL ( 'NONE', ( #156, #135, #88, #253, #11 ) ) ;
#30 = DIRECTION ( 'NONE',  ( -3.491481338843133355E-15, 1.224646799147353207E-16, -1.000000000000000000 ) ) ;
#31 = ADVANCED_FACE ( 'NONE', ( #293 ), #164, .F. ) ;
#32 = DIRECTION ( 'NONE',  ( 1.903218546456022717E-15, 0.8571673007021097801, 0.5150380749100585964 ) ) ;
#33 = CARTESIAN_POINT ( 'NONE',  ( 2.164718430082742680E-13, -7.592810154713590230E-15, 62.00000000000000000 ) ) ;
#34 = VECTOR ( 'NONE', #25, 1000.000000000000000 ) ;
#35 = DIRECTION ( 'NONE',  ( -3.021066579430967174E-31, -1.000000000000000000, -8.503546450866726699E-17 ) ) ;
#36 = FACE_OUTER_BOUND ( 'NONE', #118, .T. ) ;
#37 = DIRECTION ( 'NONE',  ( 0.0000000000000000000, 1.000000000000000000, 0.0000000000000000000 ) ) ;
#38 = CARTESIAN_POINT ( 'NONE',  ( 0.0000000000000000000, 0.0000000000000000000, 0.0000000000000000000 ) ) ;
#39 = AXIS2_PLACEMENT_3D ( 'NONE', #117, #276, #282 ) ;
#40 = DIRECTION ( 'NONE',  ( -4.275831445896958607E-31, -1.000000000000000000, -1.224646799147353207E-16 ) ) ;
#41 = CARTESIAN_POINT ( 'NONE',  ( 6.982962677686266711E-14, 1.912193722893861060E-32, 20.00000000000000000 ) ) ;
#42 = ORIENTED_EDGE ( 'NONE', *, *, #69, .F. ) ;
#43 = EDGE_CURVE ( 'NONE', #72, #186, #82, .T. ) ;
#44 = EDGE_LOOP ( 'NONE', ( #155, #125 ) ) ;
#45 = ADVANCED_BREP_SHAPE_REPRESENTATION ( '54589', ( #181, #297, #230 ), #322 ) ;
#46 = AXIS2_PLACEMENT_3D ( 'NONE', #41, #180, #40 ) ;
#47 = PERSON_AND_ORGANIZATION ( #99, #202 ) ;
#48 = ORIENTED_EDGE ( 'NONE', *, *, #169, .T. ) ;
#49 = PLANE ( 'NONE',  #160 ) ;
#50 = APPROVAL ( #265, 'UNSPECIFIED' ) ;
#51 = EDGE_LOOP ( 'NONE', ( #106, #83, #239 ) ) ;
#52 = CC_DESIGN_APPROVAL ( #50, ( #9 ) ) ;
#53 = APPROVAL_DATE_TIME ( #332, #176 ) ;
#54 = CARTESIAN_POINT ( 'NONE',  ( 2.164718430082742680E-13, 1.949999999999992628, 62.00000000000000000 ) ) ;
#55 = CARTESIAN_POINT ( 'NONE',  ( 5.661913712162791405E-15, 2.549999999999992273, 1.532194578520291284 ) ) ;
#56 = UNCERTAINTY_MEASURE_WITH_UNIT (LENGTH_MEASURE( 1.000000000000000082E-05 ), #145, 'distance_accuracy_value', 'NONE');
#57 = CARTESIAN_POINT ( 'NONE',  ( 1.090337018703723402E-30, 2.549999999999997602, 3.122849337825747954E-16 ) ) ;
#58 = EDGE_CURVE ( 'NONE', #291, #1, #59, .T. ) ;
#59 = CIRCLE ( 'NONE', #7, 1.950000000000000178 ) ;
#60 = LOCAL_TIME ( 9, 51, 51.00000000000000000, #312 ) ;
#61 = DIRECTION ( 'NONE',  ( 0.0000000000000000000, 1.000000000000000000, 0.0000000000000000000 ) ) ;
#62 = FACE_OUTER_BOUND ( 'NONE', #22, .T. ) ;
#63 = DIRECTION ( 'NONE',  ( -3.021066579430967174E-31, -1.000000000000000000, -8.503546450866726699E-17 ) ) ;
#64 = AXIS2_PLACEMENT_3D ( 'NONE', #269, #166, #61 ) ;
#65 = PERSON_AND_ORGANIZATION ( #99, #202 ) ;
#66 = LOCAL_TIME ( 9, 51, 51.00000000000000000, #76 ) ;
#67 = DIRECTION ( 'NONE',  ( -3.491481338843133355E-15, 1.224646799147353207E-16, -1.000000000000000000 ) ) ;
#68 = VERTEX_POINT ( 'NONE', #143 ) ;
#69 = EDGE_CURVE ( 'NONE', #184, #284, #298, .T. ) ;
#70 = PERSON_AND_ORGANIZATION_ROLE ( 'design_owner' ) ;
#71 = AXIS2_PLACEMENT_3D ( 'NONE', #134, #165, #8 ) ;
#72 = VERTEX_POINT ( 'NONE', #302 ) ;
#73 = PERSON_AND_ORGANIZATION ( #99, #202 ) ;
#74 = APPROVAL_DATE_TIME ( #157, #200 ) ;
#75 = EDGE_LOOP ( 'NONE', ( #235, #334 ) ) ;
#76 = COORDINATED_UNIVERSAL_TIME_OFFSET ( 1, 0, .AHEAD. ) ;
#77 = EDGE_LOOP ( 'NONE', ( #42, #158, #310, #27 ) ) ;
#78 = EDGE_CURVE ( 'NONE', #284, #258, #201, .T. ) ;
#79 = COORDINATED_UNIVERSAL_TIME_OFFSET ( 1, 0, .AHEAD. ) ;
#80 = ORIENTED_EDGE ( 'NONE', *, *, #91, .T. ) ;
#81 = EDGE_LOOP ( 'NONE', ( #234, #212, #159 ) ) ;
#82 = CIRCLE ( 'NONE', #64, 2.549999999999994937 ) ;
#83 = ORIENTED_EDGE ( 'NONE', *, *, #13, .T. ) ;
#84 = LINE ( 'NONE', #57, #142 ) ;
#85 = DIRECTION ( 'NONE',  ( 3.021066579430967174E-31, 1.000000000000000000, 8.503546450866726699E-17 ) ) ;
#86 = VECTOR ( 'NONE', #317, 1000.000000000000000 ) ;
#87 = DIRECTION ( 'NONE',  ( -3.491481338843133355E-15, 1.224646799147353207E-16, -1.000000000000000000 ) ) ;
#88 = ADVANCED_FACE ( 'NONE', ( #250 ), #318, .T. ) ;
#89 = DIRECTION ( 'NONE',  ( 4.275831445896958607E-31, 1.000000000000000000, 1.224646799147353207E-16 ) ) ;
#90 = VECTOR ( 'NONE', #107, 1000.000000000000000 ) ;
#91 = EDGE_CURVE ( 'NONE', #227, #184, #214, .T. ) ;
#92 = CARTESIAN_POINT ( 'NONE',  ( 0.0000000000000000000, 0.0000000000000000000, 0.0000000000000000000 ) ) ;
#93 = DIRECTION ( 'NONE',  ( -3.491481338843133355E-15, 1.224646799147353207E-16, -1.000000000000000000 ) ) ;
#94 = AXIS2_PLACEMENT_3D ( 'NONE', #110, #222, #321 ) ;
#95 = EDGE_CURVE ( 'NONE', #184, #227, #172, .T. ) ;
#96 = COORDINATED_UNIVERSAL_TIME_OFFSET ( 1, 0, .AHEAD. ) ;
#97 = PERSON_AND_ORGANIZATION ( #99, #202 ) ;
#98 = ORIENTED_EDGE ( 'NONE', *, *, #115, .T. ) ;
#99 = PERSON ( 'UNSPECIFIED', 'UNSPECIFIED', 'UNSPECIFIED', ('UNSPECIFIED'), ('UNSPECIFIED'), ('UNSPECIFIED') ) ;
#100 = PERSON_AND_ORGANIZATION_ROLE ( 'classification_officer' ) ;
#101 = ORIENTED_EDGE ( 'NONE', *, *, #128, .T. ) ;
#102 = AXIS2_PLACEMENT_3D ( 'NONE', #170, #273, #197 ) ;
#103 = CARTESIAN_POINT ( 'NONE',  ( 5.349628778380215673E-15, -2.549999999999992273, 1.532194578520290840 ) ) ;
#104 = PERSON_AND_ORGANIZATION_ROLE ( 'creator' ) ;
#105 = ORIENTED_EDGE ( 'NONE', *, *, #169, .F. ) ;
#106 = ORIENTED_EDGE ( 'NONE', *, *, #216, .F. ) ;
#107 = DIRECTION ( 'NONE',  ( -3.491481338843133355E-15, 1.224646799147353207E-16, -1.000000000000000000 ) ) ;
#108 = FACE_OUTER_BOUND ( 'NONE', #81, .T. ) ;
#109 = CC_DESIGN_PERSON_AND_ORGANIZATION_ASSIGNMENT ( #47, #104, ( #228 ) ) ;
#110 = CARTESIAN_POINT ( 'NONE',  ( 2.164718430082742680E-13, -7.592810154713590230E-15, 62.00000000000000000 ) ) ;
#111 = PRODUCT_DEFINITION_SHAPE ( 'NONE', 'NONE',  #228 ) ;
#112 = FACE_OUTER_BOUND ( 'NONE', #257, .T. ) ;
#113 = DIRECTION ( 'NONE',  ( 0.0000000000000000000, 1.000000000000000000, 0.0000000000000000000 ) ) ;
#114 = PLANE ( 'NONE',  #46 ) ;
#115 = EDGE_CURVE ( 'NONE', #68, #72, #320, .T. ) ;
#116 = AXIS2_PLACEMENT_3D ( 'NONE', #132, #241, #2 ) ;
#117 = CARTESIAN_POINT ( 'NONE',  ( 2.164718430082742680E-13, -7.592810154713590230E-15, 62.00000000000000000 ) ) ;
#118 = EDGE_LOOP ( 'NONE', ( #206, #98, #316, #105 ) ) ;
#119 = MECHANICAL_CONTEXT ( 'NONE', #213, 'mechanical' ) ;
#120 = LINE ( 'NONE', #330, #285 ) ;
#121 = DIRECTION ( 'NONE',  ( -3.491481338843133355E-15, 1.224646799147353207E-16, -1.000000000000000000 ) ) ;
#122 = CIRCLE ( 'NONE', #152, 2.549999999999999822 ) ;
#123 = CC_DESIGN_SECURITY_CLASSIFICATION ( #305, ( #9 ) ) ;
#124 = APPROVAL_ROLE ( '' ) ;
#125 = ORIENTED_EDGE ( 'NONE', *, *, #261, .F. ) ;
#126 = PERSON_AND_ORGANIZATION ( #99, #202 ) ;
#127 = VERTEX_POINT ( 'NONE', #6 ) ;
#128 = EDGE_CURVE ( 'NONE', #1, #68, #140, .T. ) ;
#129 = DIRECTION ( 'NONE',  ( 3.491481338843133355E-15, -1.224646799147353207E-16, 1.000000000000000000 ) ) ;
#130 = CIRCLE ( 'NONE', #146, 2.549999999999999822 ) ;
#131 = PERSON_AND_ORGANIZATION_ROLE ( 'design_supplier' ) ;
#132 = CARTESIAN_POINT ( 'NONE',  ( 6.982962677686266711E-14, -2.449293598294706513E-15, 20.00000000000000000 ) ) ;
#133 = CALENDAR_DATE ( 2021, 3, 9 ) ;
#134 = CARTESIAN_POINT ( 'NONE',  ( 2.164718430082742680E-13, 1.462265788095299673E-32, 62.00000000000000000 ) ) ;
#135 = ADVANCED_FACE ( 'NONE', ( #108 ), #225, .T. ) ;
#136 = CARTESIAN_POINT ( 'NONE',  ( 3.122849337825736614E-16, -2.549999999999997602, -3.122849337825758308E-16 ) ) ;
#137 = AXIS2_PLACEMENT_3D ( 'NONE', #174, #281, #251 ) ;
#138 = CC_DESIGN_APPROVAL ( #176, ( #228 ) ) ;
#139 = DIRECTION ( 'NONE',  ( -3.491481338843133355E-15, 1.224646799147353207E-16, -1.000000000000000000 ) ) ;
#140 = LINE ( 'NONE', #168, #249 ) ;
#141 = DIRECTION ( 'NONE',  ( 4.275831445896959482E-31, 1.000000000000000000, 1.224646799147353207E-16 ) ) ;
#142 = VECTOR ( 'NONE', #248, 1000.000000000000000 ) ;
#143 = CARTESIAN_POINT ( 'NONE',  ( 1.424155754246979810E-13, -2.550000000000006928, 61.39999999999999858 ) ) ;
#144 = DIRECTION ( 'NONE',  ( -3.491481338843133355E-15, 1.224646799147353207E-16, -1.000000000000000000 ) ) ;
#145 =( LENGTH_UNIT ( ) NAMED_UNIT ( * ) SI_UNIT ( .MILLI., .METRE. ) );
#146 = AXIS2_PLACEMENT_3D ( 'NONE', #254, #144, #37 ) ;
#147 = CC_DESIGN_APPROVAL ( #200, ( #305 ) ) ;
#148 = DIRECTION ( 'NONE',  ( 1.000000000000000000, 0.0000000000000000000, 0.0000000000000000000 ) ) ;
#149 = CC_DESIGN_PERSON_AND_ORGANIZATION_ASSIGNMENT ( #97, #131, ( #9 ) ) ;
#150 = CARTESIAN_POINT ( 'NONE',  ( 5.349628778380216462E-15, -1.876397186255802461E-16, 1.532194578520291062 ) ) ;
#151 = CALENDAR_DATE ( 2021, 3, 9 ) ;
#152 = AXIS2_PLACEMENT_3D ( 'NONE', #15, #121, #223 ) ;
#153 = DIRECTION ( 'NONE',  ( -4.275831445896958607E-31, -1.000000000000000000, -1.224646799147353207E-16 ) ) ;
#154 = COORDINATED_UNIVERSAL_TIME_OFFSET ( 1, 0, .AHEAD. ) ;
#155 = ORIENTED_EDGE ( 'NONE', *, *, #58, .F. ) ;
#156 = ADVANCED_FACE ( 'NONE', ( #62 ), #215, .T. ) ;
#157 = DATE_AND_TIME ( #151, #238 ) ;
#158 = ORIENTED_EDGE ( 'NONE', *, *, #95, .T. ) ;
#159 = ORIENTED_EDGE ( 'NONE', *, *, #278, .T. ) ;
#160 = AXIS2_PLACEMENT_3D ( 'NONE', #23, #129, #153 ) ;
#161 = APPROVAL_PERSON_ORGANIZATION ( #126, #200, #309 ) ;
#162 = ADVANCED_FACE ( 'NONE', ( #171 ), #270, .T. ) ;
#163 = SECURITY_CLASSIFICATION_LEVEL ( 'unclassified' ) ;
#164 = PLANE ( 'NONE',  #71 ) ;
#165 = DIRECTION ( 'NONE',  ( -3.491481338843133355E-15, 1.224646799147353207E-16, -1.000000000000000000 ) ) ;
#166 = DIRECTION ( 'NONE',  ( -3.491481338843133355E-15, 1.224646799147353207E-16, -1.000000000000000000 ) ) ;
#167 = CIRCLE ( 'NONE', #244, 2.549999999999992273 ) ;
#168 = CARTESIAN_POINT ( 'NONE',  ( 2.167106491341079902E-13, -1.950000000000007727, 62.00000000000000000 ) ) ;
#169 = EDGE_CURVE ( 'NONE', #260, #186, #84, .T. ) ;
#170 = CARTESIAN_POINT ( 'NONE',  ( 2.164718430082742680E-13, -7.592810154713590230E-15, 62.00000000000000000 ) ) ;
#171 = FACE_OUTER_BOUND ( 'NONE', #207, .T. ) ;
#172 = CIRCLE ( 'NONE', #331, 2.549999999999994937 ) ;
#173 = DIRECTION ( 'NONE',  ( -3.491481338843133355E-15, 1.224646799147353207E-16, -1.000000000000000000 ) ) ;
#174 = CARTESIAN_POINT ( 'NONE',  ( 0.0000000000000000000, 0.0000000000000000000, 0.0000000000000000000 ) ) ;
#175 = CYLINDRICAL_SURFACE ( 'NONE', #137, 2.549999999999997602 ) ;
#176 = APPROVAL ( #308, 'UNSPECIFIED' ) ;
#177 = CIRCLE ( 'NONE', #116, 2.549999999999994937 ) ;
#178 = DIRECTION ( 'NONE',  ( 3.021066579430967174E-31, 1.000000000000000000, 8.503546450866726699E-17 ) ) ;
#179 = PRODUCT_RELATED_PRODUCT_CATEGORY ( 'detail', '', ( #218 ) ) ;
#180 = DIRECTION ( 'NONE',  ( 3.491481338843133355E-15, -1.224646799147353207E-16, 1.000000000000000000 ) ) ;
#181 = MANIFOLD_SOLID_BREP ( 'Corps-Déplacer/Copier1[1]', #220 ) ;
#182 = CALENDAR_DATE ( 2021, 3, 9 ) ;
#183 = DATE_AND_TIME ( #208, #307 ) ;
#184 = VERTEX_POINT ( 'NONE', #296 ) ;
#185 = PERSON_AND_ORGANIZATION ( #99, #202 ) ;
#186 = VERTEX_POINT ( 'NONE', #325 ) ;
#187 = SHAPE_DEFINITION_REPRESENTATION ( #111, #45 ) ;
#188 = ORIENTED_EDGE ( 'NONE', *, *, #300, .F. ) ;
#189 = APPLICATION_CONTEXT ( 'configuration controlled 3d designs of mechanical parts and assemblies' ) ;
#190 = LINE ( 'NONE', #103, #34 ) ;
#191 = LINE ( 'NONE', #55, #268 ) ;
#192 = DESIGN_CONTEXT ( 'detailed design', #189, 'design' ) ;
#193 = DIRECTION ( 'NONE',  ( -3.491481338843133355E-15, 1.224646799147353207E-16, -1.000000000000000000 ) ) ;
#194 = CARTESIAN_POINT ( 'NONE',  ( 6.982962677686266711E-14, -2.449293598294706513E-15, 20.00000000000000000 ) ) ;
#195 = AXIS2_PLACEMENT_3D ( 'NONE', #217, #28, #63 ) ;
#196 = FACE_OUTER_BOUND ( 'NONE', #209, .T. ) ;
#197 = DIRECTION ( 'NONE',  ( 0.0000000000000000000, 1.000000000000000000, 0.0000000000000000000 ) ) ;
#198 = CC_DESIGN_DATE_AND_TIME_ASSIGNMENT ( #19, #26, ( #228 ) ) ;
#199 = APPLICATION_PROTOCOL_DEFINITION ( 'international standard', 'config_control_design', 1994, #189 ) ;
#200 = APPROVAL ( #259, 'UNSPECIFIED' ) ;
#201 = CIRCLE ( 'NONE', #263, 2.549999999999992273 ) ;
#202 = ORGANIZATION ( 'UNSPECIFIED', 'UNSPECIFIED', '' ) ;
#203 = DATE_TIME_ROLE ( 'classification_date' ) ;
#204 = ORIENTED_EDGE ( 'NONE', *, *, #69, .T. ) ;
#205 = DATE_AND_TIME ( #182, #327 ) ;
#206 = ORIENTED_EDGE ( 'NONE', *, *, #329, .T. ) ;
#207 = EDGE_LOOP ( 'NONE', ( #264, #20, #319, #3 ) ) ;
#208 = CALENDAR_DATE ( 2021, 3, 9 ) ;
#209 = EDGE_LOOP ( 'NONE', ( #314, #101, #266, #224 ) ) ;
#210 = CC_DESIGN_PERSON_AND_ORGANIZATION_ASSIGNMENT ( #185, #337, ( #9 ) ) ;
#211 = LINE ( 'NONE', #54, #86 ) ;
#212 = ORIENTED_EDGE ( 'NONE', *, *, #216, .T. ) ;
#213 = APPLICATION_CONTEXT ( 'configuration controlled 3d designs of mechanical parts and assemblies' ) ;
#214 = CIRCLE ( 'NONE', #237, 2.549999999999994937 ) ;
#215 = CYLINDRICAL_SURFACE ( 'NONE', #292, 2.549999999999993605 ) ;
#216 = EDGE_CURVE ( 'NONE', #127, #258, #191, .T. ) ;
#217 = CARTESIAN_POINT ( 'NONE',  ( 5.349628778380216462E-15, -1.876397186255802461E-16, 1.532194578520291062 ) ) ;
#218 = PRODUCT ( '54589', '54589', '', ( #119 ) ) ;
#219 = CYLINDRICAL_SURFACE ( 'NONE', #18, 2.549999999999997602 ) ;
#220 = CLOSED_SHELL ( 'NONE', ( #236, #313, #272, #233, #162, #31 ) ) ;
#221 = CARTESIAN_POINT ( 'NONE',  ( 5.349628778380216462E-15, -1.876397186255802461E-16, 1.532194578520291062 ) ) ;
#222 = DIRECTION ( 'NONE',  ( -3.491481338843133355E-15, 1.224646799147353207E-16, -1.000000000000000000 ) ) ;
#223 = DIRECTION ( 'NONE',  ( 0.0000000000000000000, 1.000000000000000000, 0.0000000000000000000 ) ) ;
#224 = ORIENTED_EDGE ( 'NONE', *, *, #24, .F. ) ;
#225 = CONICAL_SURFACE ( 'NONE', #336, 2.549999999999992273, 1.029744258676649649 ) ;
#226 = CARTESIAN_POINT ( 'NONE',  ( 5.349628778380215673E-15, -2.549999999999992273, 1.532194578520290840 ) ) ;
#227 = VERTEX_POINT ( 'NONE', #246 ) ;
#228 = PRODUCT_DEFINITION ( 'UNKNOWN', '', #9, #192 ) ;
#229 = CYLINDRICAL_SURFACE ( 'NONE', #304, 2.549999999999993605 ) ;
#230 = AXIS2_PLACEMENT_3D ( 'NONE', #38, #303, #148 ) ;
#231 = FACE_OUTER_BOUND ( 'NONE', #17, .T. ) ;
#232 = ORIENTED_EDGE ( 'NONE', *, *, #43, .T. ) ;
#233 = ADVANCED_FACE ( 'NONE', ( #112 ), #219, .T. ) ;
#234 = ORIENTED_EDGE ( 'NONE', *, *, #13, .F. ) ;
#235 = ORIENTED_EDGE ( 'NONE', *, *, #91, .F. ) ;
#236 = ADVANCED_FACE ( 'NONE', ( #196 ), #280, .T. ) ;
#237 = AXIS2_PLACEMENT_3D ( 'NONE', #4, #30, #113 ) ;
#238 = LOCAL_TIME ( 9, 51, 51.00000000000000000, #79 ) ;
#239 = ORIENTED_EDGE ( 'NONE', *, *, #78, .T. ) ;
#240 = PERSON_AND_ORGANIZATION ( #99, #202 ) ;
#241 = DIRECTION ( 'NONE',  ( -3.491481338843133355E-15, 1.224646799147353207E-16, -1.000000000000000000 ) ) ;
#242 = ORIENTED_EDGE ( 'NONE', *, *, #115, .F. ) ;
#243 = DIRECTION ( 'NONE',  ( 3.491481338843133355E-15, -1.224646799147353207E-16, 1.000000000000000000 ) ) ;
#244 = AXIS2_PLACEMENT_3D ( 'NONE', #150, #67, #178 ) ;
#245 = DIRECTION ( 'NONE',  ( -2.382254525458724175E-15, -0.7071067811865452413, -0.7071067811865497932 ) ) ;
#246 = CARTESIAN_POINT ( 'NONE',  ( 6.982962677686266711E-14, 2.549999999999992273, 20.00000000000000000 ) ) ;
#247 = CC_DESIGN_PERSON_AND_ORGANIZATION_ASSIGNMENT ( #240, #100, ( #305 ) ) ;
#248 = DIRECTION ( 'NONE',  ( -3.491481338843133355E-15, 1.224646799147353207E-16, -1.000000000000000000 ) ) ;
#249 = VECTOR ( 'NONE', #245, 1000.000000000000000 ) ;
#250 = FACE_OUTER_BOUND ( 'NONE', #51, .T. ) ;
#251 = DIRECTION ( 'NONE',  ( 4.275831445896958607E-31, 1.000000000000000000, 1.224646799147353207E-16 ) ) ;
#252 = CARTESIAN_POINT ( 'NONE',  ( 2.143769542049683754E-13, 2.549999999999992273, 61.39999999999999858 ) ) ;
#253 = ADVANCED_FACE ( 'NONE', ( #255 ), #229, .T. ) ;
#254 = CARTESIAN_POINT ( 'NONE',  ( 2.143769542049683754E-13, -7.519331346764748510E-15, 61.39999999999999858 ) ) ;
#255 = FACE_OUTER_BOUND ( 'NONE', #77, .T. ) ;
#256 = EDGE_CURVE ( 'NONE', #68, #260, #122, .T. ) ;
#257 = EDGE_LOOP ( 'NONE', ( #242, #335, #48, #333 ) ) ;
#258 = VERTEX_POINT ( 'NONE', #277 ) ;
#259 = APPROVAL_STATUS ( 'not_yet_approved' ) ;
#260 = VERTEX_POINT ( 'NONE', #252 ) ;
#261 = EDGE_CURVE ( 'NONE', #1, #291, #311, .T. ) ;
#262 = FACE_OUTER_BOUND ( 'NONE', #75, .T. ) ;
#263 = AXIS2_PLACEMENT_3D ( 'NONE', #221, #193, #85 ) ;
#264 = ORIENTED_EDGE ( 'NONE', *, *, #128, .F. ) ;
#265 = APPROVAL_STATUS ( 'not_yet_approved' ) ;
#266 = ORIENTED_EDGE ( 'NONE', *, *, #329, .F. ) ;
#267 = DIRECTION ( 'NONE',  ( 0.0000000000000000000, 1.000000000000000000, 0.0000000000000000000 ) ) ;
#268 = VECTOR ( 'NONE', #32, 999.9999999999998863 ) ;
#269 = CARTESIAN_POINT ( 'NONE',  ( 6.982962677686266711E-14, -2.449293598294706513E-15, 20.00000000000000000 ) ) ;
#270 = CONICAL_SURFACE ( 'NONE', #94, 1.950000000000000178, 0.7853981633974452814 ) ;
#271 = CARTESIAN_POINT ( 'NONE',  ( 5.349628778380216462E-15, -1.876397186255802461E-16, 1.532194578520291062 ) ) ;
#272 = ADVANCED_FACE ( 'NONE', ( #231 ), #114, .F. ) ;
#273 = DIRECTION ( 'NONE',  ( -3.491481338843133355E-15, 1.224646799147353207E-16, -1.000000000000000000 ) ) ;
#274 = DIRECTION ( 'NONE',  ( -3.491481338843133355E-15, 1.224646799147353207E-16, -1.000000000000000000 ) ) ;
#275 = VECTOR ( 'NONE', #295, 1000.000000000000000 ) ;
#276 = DIRECTION ( 'NONE',  ( -3.491481338843133355E-15, 1.224646799147353207E-16, -1.000000000000000000 ) ) ;
#277 = CARTESIAN_POINT ( 'NONE',  ( 5.661913712162791405E-15, 2.549999999999992273, 1.532194578520291284 ) ) ;
#278 = EDGE_CURVE ( 'NONE', #258, #284, #167, .T. ) ;
#279 = DIRECTION ( 'NONE',  ( 4.275831445896959482E-31, 1.000000000000000000, 1.224646799147353207E-16 ) ) ;
#280 = CONICAL_SURFACE ( 'NONE', #102, 1.950000000000000178, 0.7853981633974452814 ) ;
#281 = DIRECTION ( 'NONE',  ( -3.491481338843133355E-15, 1.224646799147353207E-16, -1.000000000000000000 ) ) ;
#282 = DIRECTION ( 'NONE',  ( 0.0000000000000000000, 1.000000000000000000, 0.0000000000000000000 ) ) ;
#283 = ORIENTED_EDGE ( 'NONE', *, *, #21, .T. ) ;
#284 = VERTEX_POINT ( 'NONE', #226 ) ;
#285 = VECTOR ( 'NONE', #93, 1000.000000000000000 ) ;
#286 = APPROVAL_PERSON_ORGANIZATION ( #65, #176, #16 ) ;
#287 = CALENDAR_DATE ( 2021, 3, 9 ) ;
#288 = ORIENTED_EDGE ( 'NONE', *, *, #278, .F. ) ;
#289 = CARTESIAN_POINT ( 'NONE',  ( 2.156999441364294821E-13, -1.950000000000007727, 62.00000000000000000 ) ) ;
#290 = CC_DESIGN_PERSON_AND_ORGANIZATION_ASSIGNMENT ( #328, #70, ( #218 ) ) ;
#291 = VERTEX_POINT ( 'NONE', #326 ) ;
#292 = AXIS2_PLACEMENT_3D ( 'NONE', #10, #274, #141 ) ;
#293 = FACE_OUTER_BOUND ( 'NONE', #44, .T. ) ;
#294 = CC_DESIGN_DATE_AND_TIME_ASSIGNMENT ( #183, #203, ( #305 ) ) ;
#295 = DIRECTION ( 'NONE',  ( -3.491481338843133355E-15, 1.224646799147353207E-16, -1.000000000000000000 ) ) ;
#296 = CARTESIAN_POINT ( 'NONE',  ( 3.790191271140398241E-14, -2.549999999999998046, 20.00000000000000000 ) ) ;
#297 = MANIFOLD_SOLID_BREP ( 'Corps-Déplacer/Copier1[2]', #29 ) ;
#298 = LINE ( 'NONE', #5, #275 ) ;
#299 = APPROVAL_PERSON_ORGANIZATION ( #73, #50, #124 ) ;
#300 = EDGE_CURVE ( 'NONE', #227, #258, #120, .T. ) ;
#301 = DIRECTION ( 'NONE',  ( -3.491481338843133355E-15, 1.224646799147353207E-16, -1.000000000000000000 ) ) ;
#302 = CARTESIAN_POINT ( 'NONE',  ( 1.424155754246980820E-13, -2.549999999999997602, 20.00000000000000000 ) ) ;
#303 = DIRECTION ( 'NONE',  ( 0.0000000000000000000, 0.0000000000000000000, 1.000000000000000000 ) ) ;
#304 = AXIS2_PLACEMENT_3D ( 'NONE', #92, #173, #279 ) ;
#305 = SECURITY_CLASSIFICATION ( '', '', #163 ) ;
#306 =( NAMED_UNIT ( * ) PLANE_ANGLE_UNIT ( ) SI_UNIT ( $, .RADIAN. ) );
#307 = LOCAL_TIME ( 9, 51, 51.00000000000000000, #96 ) ;
#308 = APPROVAL_STATUS ( 'not_yet_approved' ) ;
#309 = APPROVAL_ROLE ( '' ) ;
#310 = ORIENTED_EDGE ( 'NONE', *, *, #300, .T. ) ;
#311 = CIRCLE ( 'NONE', #39, 1.950000000000000178 ) ;
#312 = COORDINATED_UNIVERSAL_TIME_OFFSET ( 1, 0, .AHEAD. ) ;
#313 = ADVANCED_FACE ( 'NONE', ( #36 ), #175, .T. ) ;
#314 = ORIENTED_EDGE ( 'NONE', *, *, #58, .T. ) ;
#315 = APPROVAL_DATE_TIME ( #205, #50 ) ;
#316 = ORIENTED_EDGE ( 'NONE', *, *, #21, .F. ) ;
#317 = DIRECTION ( 'NONE',  ( -2.468850131082272443E-15, 0.7071067811865454633, -0.7071067811865495711 ) ) ;
#318 = CONICAL_SURFACE ( 'NONE', #195, 2.549999999999992273, 1.029744258676649649 ) ;
#319 = ORIENTED_EDGE ( 'NONE', *, *, #24, .T. ) ;
#320 = LINE ( 'NONE', #136, #90 ) ;
#321 = DIRECTION ( 'NONE',  ( 0.0000000000000000000, 1.000000000000000000, 0.0000000000000000000 ) ) ;
#322 =( GEOMETRIC_REPRESENTATION_CONTEXT ( 3 ) GLOBAL_UNCERTAINTY_ASSIGNED_CONTEXT ( ( #56 ) ) GLOBAL_UNIT_ASSIGNED_CONTEXT ( ( #145, #306, #12 ) ) REPRESENTATION_CONTEXT ( 'NONE', 'WORKASPACE' ) );
#323 = CARTESIAN_POINT ( 'NONE',  ( 0.0000000000000000000, 0.0000000000000000000, 0.0000000000000000000 ) ) ;
#324 = DIRECTION ( 'NONE',  ( 0.0000000000000000000, 1.000000000000000000, 0.0000000000000000000 ) ) ;
#325 = CARTESIAN_POINT ( 'NONE',  ( 6.982962677686266711E-14, 2.549999999999992273, 20.00000000000000000 ) ) ;
#326 = CARTESIAN_POINT ( 'NONE',  ( 2.164718430082742680E-13, 1.949999999999992628, 62.00000000000000000 ) ) ;
#327 = LOCAL_TIME ( 9, 51, 51.00000000000000000, #154 ) ;
#328 = PERSON_AND_ORGANIZATION ( #99, #202 ) ;
#329 = EDGE_CURVE ( 'NONE', #260, #68, #130, .T. ) ;
#330 = CARTESIAN_POINT ( 'NONE',  ( 1.090337018703721826E-30, 2.549999999999993605, 3.122849337825743024E-16 ) ) ;
#331 = AXIS2_PLACEMENT_3D ( 'NONE', #194, #139, #324 ) ;
#332 = DATE_AND_TIME ( #287, #66 ) ;
#333 = ORIENTED_EDGE ( 'NONE', *, *, #43, .F. ) ;
#334 = ORIENTED_EDGE ( 'NONE', *, *, #95, .F. ) ;
#335 = ORIENTED_EDGE ( 'NONE', *, *, #256, .T. ) ;
#336 = AXIS2_PLACEMENT_3D ( 'NONE', #271, #243, #35 ) ;
#337 = PERSON_AND_ORGANIZATION_ROLE ( 'creator' ) ;
ENDSEC;
END-ISO-10303-21;
