ISO-10303-21;
HEADER;
FILE_DESCRIPTION (( 'STEP AP203' ),
    '1' );
FILE_NAME ('54588.step',
    '2021-09-03T07:51:47',
    ( '' ),
    ( '' ),
    'SwSTEP 2.0',
    'SolidWorks 2019',
    '' );
FILE_SCHEMA (( 'CONFIG_CONTROL_DESIGN' ));
ENDSEC;

DATA;
#1 = CARTESIAN_POINT ( 'NONE',  ( 0.0000000000000000000, 0.0000000000000000000, 0.0000000000000000000 ) ) ;
#2 = ORIENTED_EDGE ( 'NONE', *, *, #140, .T. ) ;
#3 = AXIS2_PLACEMENT_3D ( 'NONE', #319, #266, #30 ) ;
#4 = LINE ( 'NONE', #292, #55 ) ;
#5 = VECTOR ( 'NONE', #243, 1000.000000000000000 ) ;
#6 = VERTEX_POINT ( 'NONE', #306 ) ;
#7 = FACE_OUTER_BOUND ( 'NONE', #112, .T. ) ;
#8 = EDGE_LOOP ( 'NONE', ( #40, #151, #59 ) ) ;
#9 = DATE_TIME_ROLE ( 'creation_date' ) ;
#10 = CARTESIAN_POINT ( 'NONE',  ( 0.0000000000000000000, 0.0000000000000000000, 0.0000000000000000000 ) ) ;
#11 = APPROVAL_STATUS ( 'not_yet_approved' ) ;
#12 = EDGE_LOOP ( 'NONE', ( #75, #91, #118, #235 ) ) ;
#13 = EDGE_CURVE ( 'NONE', #6, #119, #278, .T. ) ;
#14 = VERTEX_POINT ( 'NONE', #22 ) ;
#15 = APPLICATION_CONTEXT ( 'configuration controlled 3d designs of mechanical parts and assemblies' ) ;
#16 = SHAPE_DEFINITION_REPRESENTATION ( #27, #113 ) ;
#17 = CARTESIAN_POINT ( 'NONE',  ( 0.0000000000000000000, 0.0000000000000000000, 0.0000000000000000000 ) ) ;
#18 = CYLINDRICAL_SURFACE ( 'NONE', #62, 2.499999999999993783 ) ;
#19 = ADVANCED_FACE ( 'NONE', ( #152 ), #234, .F. ) ;
#20 = ORIENTED_EDGE ( 'NONE', *, *, #140, .F. ) ;
#21 = AXIS2_PLACEMENT_3D ( 'NONE', #264, #56, #162 ) ;
#22 = CARTESIAN_POINT ( 'NONE',  ( 2.156938209024337087E-13, -1.900000000000008127, 62.00000000000000000 ) ) ;
#23 = CARTESIAN_POINT ( 'NONE',  ( 2.167045259001122673E-13, -1.900000000000008127, 62.00000000000000000 ) ) ;
#24 = CARTESIAN_POINT ( 'NONE',  ( 2.164718430082742680E-13, -7.592810154713590230E-15, 62.00000000000000000 ) ) ;
#25 = EDGE_CURVE ( 'NONE', #180, #189, #149, .T. ) ;
#26 = DIRECTION ( 'NONE',  ( 3.491481338843133355E-15, -1.224646799147353207E-16, 1.000000000000000000 ) ) ;
#27 = PRODUCT_DEFINITION_SHAPE ( 'NONE', 'NONE',  #178 ) ;
#28 = CARTESIAN_POINT ( 'NONE',  ( 0.0000000000000000000, 0.0000000000000000000, 0.0000000000000000000 ) ) ;
#29 = EDGE_CURVE ( 'NONE', #14, #180, #98, .T. ) ;
#30 = DIRECTION ( 'NONE',  ( 0.0000000000000000000, 1.000000000000000000, 0.0000000000000000000 ) ) ;
#31 = VECTOR ( 'NONE', #304, 1000.000000000000000 ) ;
#32 = CARTESIAN_POINT ( 'NONE',  ( 5.244734096451192841E-15, -1.839605084564512173E-16, 1.502151547568912893 ) ) ;
#33 = ORIENTED_EDGE ( 'NONE', *, *, #25, .T. ) ;
#34 =( NAMED_UNIT ( * ) PLANE_ANGLE_UNIT ( ) SI_UNIT ( $, .RADIAN. ) );
#35 = ORIENTED_EDGE ( 'NONE', *, *, #65, .T. ) ;
#36 = DIRECTION ( 'NONE',  ( 3.081487911019586123E-31, 1.000000000000000000, 8.673617379884060124E-17 ) ) ;
#37 = APPLICATION_PROTOCOL_DEFINITION ( 'international standard', 'config_control_design', 1994, #334 ) ;
#38 = ORGANIZATION ( 'UNSPECIFIED', 'UNSPECIFIED', '' ) ;
#39 = DATE_AND_TIME ( #114, #142 ) ;
#40 = ORIENTED_EDGE ( 'NONE', *, *, #312, .F. ) ;
#41 = ORIENTED_EDGE ( 'NONE', *, *, #251, .F. ) ;
#42 = AXIS2_PLACEMENT_3D ( 'NONE', #307, #70, #233 ) ;
#43 = APPROVAL_PERSON_ORGANIZATION ( #273, #57, #174 ) ;
#44 = CIRCLE ( 'NONE', #253, 2.499999999999992895 ) ;
#45 = DIRECTION ( 'NONE',  ( 0.0000000000000000000, 1.000000000000000000, 0.0000000000000000000 ) ) ;
#46 = APPROVAL_STATUS ( 'not_yet_approved' ) ;
#47 = LINE ( 'NONE', #52, #259 ) ;
#48 = PLANE ( 'NONE',  #42 ) ;
#49 = CIRCLE ( 'NONE', #301, 1.900000000000000355 ) ;
#50 = CC_DESIGN_APPROVAL ( #170, ( #178 ) ) ;
#51 = COORDINATED_UNIVERSAL_TIME_OFFSET ( 1, 0, .AHEAD. ) ;
#52 = CARTESIAN_POINT ( 'NONE',  ( 1.068957861474237112E-30, 2.499999999999993783, 3.061616997868375746E-16 ) ) ;
#53 = DIRECTION ( 'NONE',  ( 0.0000000000000000000, 1.000000000000000000, 0.0000000000000000000 ) ) ;
#54 = CARTESIAN_POINT ( 'NONE',  ( 6.982962677686266711E-14, -2.449293598294706513E-15, 20.00000000000000000 ) ) ;
#55 = VECTOR ( 'NONE', #164, 999.9999999999998863 ) ;
#56 = DIRECTION ( 'NONE',  ( -3.491481338843133355E-15, 1.224646799147353207E-16, -1.000000000000000000 ) ) ;
#57 = APPROVAL ( #298, 'UNSPECIFIED' ) ;
#58 = DIRECTION ( 'NONE',  ( 0.0000000000000000000, 1.000000000000000000, 0.0000000000000000000 ) ) ;
#59 = ORIENTED_EDGE ( 'NONE', *, *, #251, .T. ) ;
#60 = DIRECTION ( 'NONE',  ( 4.275831445896959482E-31, 1.000000000000000000, 1.224646799147353454E-16 ) ) ;
#61 = ORIENTED_EDGE ( 'NONE', *, *, #88, .T. ) ;
#62 = AXIS2_PLACEMENT_3D ( 'NONE', #17, #204, #205 ) ;
#63 = ORIENTED_EDGE ( 'NONE', *, *, #159, .T. ) ;
#64 = PERSON_AND_ORGANIZATION ( #310, #38 ) ;
#65 = EDGE_CURVE ( 'NONE', #124, #105, #222, .T. ) ;
#66 = DATE_AND_TIME ( #250, #283 ) ;
#67 = AXIS2_PLACEMENT_3D ( 'NONE', #123, #281, #206 ) ;
#68 = CALENDAR_DATE ( 2021, 3, 9 ) ;
#69 = ORIENTED_EDGE ( 'NONE', *, *, #223, .F. ) ;
#70 = DIRECTION ( 'NONE',  ( -3.491481338843133355E-15, 1.224646799147353207E-16, -1.000000000000000000 ) ) ;
#71 = AXIS2_PLACEMENT_3D ( 'NONE', #309, #327, #254 ) ;
#72 = ADVANCED_FACE ( 'NONE', ( #154 ), #80, .T. ) ;
#73 = CARTESIAN_POINT ( 'NONE',  ( 6.982962677686266711E-14, 2.499999999999992895, 20.00000000000000000 ) ) ;
#74 = CARTESIAN_POINT ( 'NONE',  ( 6.982962677686266711E-14, 1.874699728327314620E-32, 20.00000000000000000 ) ) ;
#75 = ORIENTED_EDGE ( 'NONE', *, *, #25, .F. ) ;
#76 = ORIENTED_EDGE ( 'NONE', *, *, #312, .T. ) ;
#77 = DIRECTION ( 'NONE',  ( -3.491481338843133355E-15, 1.224646799147353207E-16, -1.000000000000000000 ) ) ;
#78 = CARTESIAN_POINT ( 'NONE',  ( 5.550895796238031501E-15, 2.499999999999992895, 1.502151547568913115 ) ) ;
#79 = ADVANCED_FACE ( 'NONE', ( #121 ), #18, .T. ) ;
#80 = CONICAL_SURFACE ( 'NONE', #141, 2.499999999999992895, 1.029744258676649649 ) ;
#81 = DIRECTION ( 'NONE',  ( -3.491481338843133355E-15, 1.224646799147353207E-16, -1.000000000000000000 ) ) ;
#82 = DIRECTION ( 'NONE',  ( -3.491481338843133355E-15, 1.224646799147353207E-16, -1.000000000000000000 ) ) ;
#83 = FACE_OUTER_BOUND ( 'NONE', #12, .T. ) ;
#84 = CC_DESIGN_SECURITY_CLASSIFICATION ( #107, ( #196 ) ) ;
#85 = PERSON_AND_ORGANIZATION_ROLE ( 'design_owner' ) ;
#86 = PERSON_AND_ORGANIZATION_ROLE ( 'creator' ) ;
#87 = PERSON_AND_ORGANIZATION ( #310, #38 ) ;
#88 = EDGE_CURVE ( 'NONE', #109, #189, #214, .T. ) ;
#89 = APPLICATION_PROTOCOL_DEFINITION ( 'international standard', 'config_control_design', 1994, #15 ) ;
#90 = EDGE_LOOP ( 'NONE', ( #146, #272 ) ) ;
#91 = ORIENTED_EDGE ( 'NONE', *, *, #261, .T. ) ;
#92 = DIRECTION ( 'NONE',  ( -4.275831445896958607E-31, -1.000000000000000000, -1.224646799147353207E-16 ) ) ;
#93 = ADVANCED_FACE ( 'NONE', ( #229 ), #48, .F. ) ;
#94 = DIRECTION ( 'NONE',  ( -3.081487911019586123E-31, -1.000000000000000000, -8.673617379884060124E-17 ) ) ;
#95 = VECTOR ( 'NONE', #256, 1000.000000000000000 ) ;
#96 = LOCAL_TIME ( 9, 51, 47.00000000000000000, #197 ) ;
#97 = ORIENTED_EDGE ( 'NONE', *, *, #199, .T. ) ;
#98 = LINE ( 'NONE', #23, #31 ) ;
#99 = ADVANCED_FACE ( 'NONE', ( #305 ), #329, .T. ) ;
#100 = CARTESIAN_POINT ( 'NONE',  ( 2.164718430082742680E-13, 1.899999999999992806, 62.00000000000000000 ) ) ;
#101 = AXIS2_PLACEMENT_3D ( 'NONE', #28, #77, #268 ) ;
#102 = CARTESIAN_POINT ( 'NONE',  ( 5.244734096451192841E-15, -1.839605084564512173E-16, 1.502151547568912893 ) ) ;
#103 = DIRECTION ( 'NONE',  ( 0.0000000000000000000, 1.000000000000000000, 0.0000000000000000000 ) ) ;
#104 = DIRECTION ( 'NONE',  ( 0.0000000000000000000, 1.000000000000000000, 0.0000000000000000000 ) ) ;
#105 = VERTEX_POINT ( 'NONE', #260 ) ;
#106 = AXIS2_PLACEMENT_3D ( 'NONE', #1, #81, #60 ) ;
#107 = SECURITY_CLASSIFICATION ( '', '', #166 ) ;
#108 = CARTESIAN_POINT ( 'NONE',  ( 2.143769542049683754E-13, -7.519331346764748510E-15, 61.39999999999999858 ) ) ;
#109 = VERTEX_POINT ( 'NONE', #73 ) ;
#110 = DIRECTION ( 'NONE',  ( -3.491481338843133355E-15, 1.224646799147353207E-16, -1.000000000000000000 ) ) ;
#111 = APPROVAL ( #46, 'UNSPECIFIED' ) ;
#112 = EDGE_LOOP ( 'NONE', ( #20, #35, #246, #217 ) ) ;
#113 = ADVANCED_BREP_SHAPE_REPRESENTATION ( '54588', ( #270, #279, #335 ), #150 ) ;
#114 = CALENDAR_DATE ( 2021, 3, 9 ) ;
#115 = CC_DESIGN_DATE_AND_TIME_ASSIGNMENT ( #323, #9, ( #178 ) ) ;
#116 = DIRECTION ( 'NONE',  ( 1.000000000000000000, 0.0000000000000000000, 0.0000000000000000000 ) ) ;
#117 =( LENGTH_UNIT ( ) NAMED_UNIT ( * ) SI_UNIT ( .MILLI., .METRE. ) );
#118 = ORIENTED_EDGE ( 'NONE', *, *, #277, .T. ) ;
#119 = VERTEX_POINT ( 'NONE', #177 ) ;
#120 = LOCAL_TIME ( 9, 51, 47.00000000000000000, #191 ) ;
#121 = FACE_OUTER_BOUND ( 'NONE', #228, .T. ) ;
#122 = EDGE_CURVE ( 'NONE', #105, #198, #47, .T. ) ;
#123 = CARTESIAN_POINT ( 'NONE',  ( 6.982962677686266711E-14, -2.449293598294706513E-15, 20.00000000000000000 ) ) ;
#124 = VERTEX_POINT ( 'NONE', #126 ) ;
#125 = ORIENTED_EDGE ( 'NONE', *, *, #13, .F. ) ;
#126 = CARTESIAN_POINT ( 'NONE',  ( 3.784334213644373353E-14, -2.499999999999997780, 20.00000000000000000 ) ) ;
#127 = FACE_OUTER_BOUND ( 'NONE', #207, .T. ) ;
#128 = VECTOR ( 'NONE', #161, 1000.000000000000000 ) ;
#129 = DIRECTION ( 'NONE',  ( -3.081487911019586123E-31, -1.000000000000000000, -8.673617379884060124E-17 ) ) ;
#130 = ADVANCED_FACE ( 'NONE', ( #7 ), #316, .T. ) ;
#131 = DIRECTION ( 'NONE',  ( 3.081487911019586123E-31, 1.000000000000000000, 8.673617379884060124E-17 ) ) ;
#132 = ORIENTED_EDGE ( 'NONE', *, *, #294, .F. ) ;
#133 = CARTESIAN_POINT ( 'NONE',  ( 1.424094521907022329E-13, -2.500000000000007550, 61.39999999999999858 ) ) ;
#134 = CONICAL_SURFACE ( 'NONE', #209, 2.499999999999992895, 1.029744258676649649 ) ;
#135 = CARTESIAN_POINT ( 'NONE',  ( 3.061616997868365392E-16, -2.499999999999993783, -3.061616997868386592E-16 ) ) ;
#136 = ADVANCED_FACE ( 'NONE', ( #83 ), #237, .T. ) ;
#137 = ORIENTED_EDGE ( 'NONE', *, *, #299, .T. ) ;
#138 = ORIENTED_EDGE ( 'NONE', *, *, #199, .F. ) ;
#139 = MECHANICAL_CONTEXT ( 'NONE', #334, 'mechanical' ) ;
#140 = EDGE_CURVE ( 'NONE', #124, #318, #185, .T. ) ;
#141 = AXIS2_PLACEMENT_3D ( 'NONE', #156, #203, #94 ) ;
#142 = LOCAL_TIME ( 9, 51, 47.00000000000000000, #320 ) ;
#143 = APPROVAL_DATE_TIME ( #300, #170 ) ;
#144 = LINE ( 'NONE', #247, #275 ) ;
#145 = APPROVAL_DATE_TIME ( #39, #57 ) ;
#146 = ORIENTED_EDGE ( 'NONE', *, *, #159, .F. ) ;
#147 = CIRCLE ( 'NONE', #322, 2.499999999999992895 ) ;
#148 = ADVANCED_FACE ( 'NONE', ( #216 ), #165, .T. ) ;
#149 = LINE ( 'NONE', #230, #95 ) ;
#150 =( GEOMETRIC_REPRESENTATION_CONTEXT ( 3 ) GLOBAL_UNCERTAINTY_ASSIGNED_CONTEXT ( ( #218 ) ) GLOBAL_UNIT_ASSIGNED_CONTEXT ( ( #117, #34, #271 ) ) REPRESENTATION_CONTEXT ( 'NONE', 'WORKASPACE' ) );
#151 = ORIENTED_EDGE ( 'NONE', *, *, #294, .T. ) ;
#152 = FACE_OUTER_BOUND ( 'NONE', #175, .T. ) ;
#153 = CC_DESIGN_DATE_AND_TIME_ASSIGNMENT ( #66, #324, ( #107 ) ) ;
#154 = FACE_OUTER_BOUND ( 'NONE', #326, .T. ) ;
#155 = CIRCLE ( 'NONE', #3, 1.900000000000000355 ) ;
#156 = CARTESIAN_POINT ( 'NONE',  ( 5.244734096451192841E-15, -1.839605084564512173E-16, 1.502151547568912893 ) ) ;
#157 = CARTESIAN_POINT ( 'NONE',  ( 0.0000000000000000000, 0.0000000000000000000, 0.0000000000000000000 ) ) ;
#158 = CARTESIAN_POINT ( 'NONE',  ( 5.244734096451192841E-15, -1.839605084564512173E-16, 1.502151547568912893 ) ) ;
#159 = EDGE_CURVE ( 'NONE', #105, #124, #315, .T. ) ;
#160 = APPROVAL_PERSON_ORGANIZATION ( #195, #111, #200 ) ;
#161 = DIRECTION ( 'NONE',  ( -3.491481338843133355E-15, 1.224646799147353207E-16, -1.000000000000000000 ) ) ;
#162 = DIRECTION ( 'NONE',  ( 0.0000000000000000000, 1.000000000000000000, 0.0000000000000000000 ) ) ;
#163 = ORIENTED_EDGE ( 'NONE', *, *, #277, .F. ) ;
#164 = DIRECTION ( 'NONE',  ( 1.903218546456022717E-15, 0.8571673007021097801, 0.5150380749100585964 ) ) ;
#165 = CONICAL_SURFACE ( 'NONE', #187, 1.900000000000000355, 0.7853981633974452814 ) ;
#166 = SECURITY_CLASSIFICATION_LEVEL ( 'unclassified' ) ;
#167 = EDGE_LOOP ( 'NONE', ( #291, #328, #201, #331 ) ) ;
#168 = PERSON_AND_ORGANIZATION_ROLE ( 'classification_officer' ) ;
#169 = DESIGN_CONTEXT ( 'detailed design', #15, 'design' ) ;
#170 = APPROVAL ( #11, 'UNSPECIFIED' ) ;
#171 = CIRCLE ( 'NONE', #21, 2.500000000000000000 ) ;
#172 = CC_DESIGN_APPROVAL ( #57, ( #196 ) ) ;
#173 = DIRECTION ( 'NONE',  ( 1.798245827342160317E-15, -0.8571673007021098911, 0.5150380749100582634 ) ) ;
#174 = APPROVAL_ROLE ( '' ) ;
#175 = EDGE_LOOP ( 'NONE', ( #61, #242 ) ) ;
#176 = DIRECTION ( 'NONE',  ( -3.491481338843133355E-15, 1.224646799147353207E-16, -1.000000000000000000 ) ) ;
#177 = CARTESIAN_POINT ( 'NONE',  ( 2.143769542049683754E-13, 2.499999999999992895, 61.39999999999999858 ) ) ;
#178 = PRODUCT_DEFINITION ( 'UNKNOWN', '', #196, #169 ) ;
#179 = VERTEX_POINT ( 'NONE', #210 ) ;
#180 = VERTEX_POINT ( 'NONE', #133 ) ;
#181 = CLOSED_SHELL ( 'NONE', ( #79, #257, #72, #130, #289 ) ) ;
#182 = DIRECTION ( 'NONE',  ( -2.468850131082272443E-15, 0.7071067811865454633, -0.7071067811865495711 ) ) ;
#183 = PRODUCT_RELATED_PRODUCT_CATEGORY ( 'detail', '', ( #314 ) ) ;
#184 = EDGE_CURVE ( 'NONE', #119, #180, #171, .T. ) ;
#185 = LINE ( 'NONE', #135, #128 ) ;
#186 = FACE_OUTER_BOUND ( 'NONE', #90, .T. ) ;
#187 = AXIS2_PLACEMENT_3D ( 'NONE', #286, #245, #53 ) ;
#188 = CARTESIAN_POINT ( 'NONE',  ( 6.982962677686266711E-14, -2.449293598294706513E-15, 20.00000000000000000 ) ) ;
#189 = VERTEX_POINT ( 'NONE', #263 ) ;
#190 = FACE_OUTER_BOUND ( 'NONE', #8, .T. ) ;
#191 = COORDINATED_UNIVERSAL_TIME_OFFSET ( 1, 0, .AHEAD. ) ;
#192 = AXIS2_PLACEMENT_3D ( 'NONE', #108, #239, #58 ) ;
#193 = PERSON_AND_ORGANIZATION ( #310, #38 ) ;
#194 = COORDINATED_UNIVERSAL_TIME_OFFSET ( 1, 0, .AHEAD. ) ;
#195 = PERSON_AND_ORGANIZATION ( #310, #38 ) ;
#196 = PRODUCT_DEFINITION_FORMATION_WITH_SPECIFIED_SOURCE ( 'ANY', '', #314, .NOT_KNOWN. ) ;
#197 = COORDINATED_UNIVERSAL_TIME_OFFSET ( 1, 0, .AHEAD. ) ;
#198 = VERTEX_POINT ( 'NONE', #78 ) ;
#199 = EDGE_CURVE ( 'NONE', #6, #14, #49, .T. ) ;
#200 = APPROVAL_ROLE ( '' ) ;
#201 = ORIENTED_EDGE ( 'NONE', *, *, #13, .T. ) ;
#202 = APPROVAL_DATE_TIME ( #255, #111 ) ;
#203 = DIRECTION ( 'NONE',  ( 3.491481338843133355E-15, -1.224646799147353207E-16, 1.000000000000000000 ) ) ;
#204 = DIRECTION ( 'NONE',  ( -3.491481338843133355E-15, 1.224646799147353207E-16, -1.000000000000000000 ) ) ;
#205 = DIRECTION ( 'NONE',  ( 4.275831445896959482E-31, 1.000000000000000000, 1.224646799147353454E-16 ) ) ;
#206 = DIRECTION ( 'NONE',  ( 0.0000000000000000000, 1.000000000000000000, 0.0000000000000000000 ) ) ;
#207 = EDGE_LOOP ( 'NONE', ( #293, #33, #333, #163 ) ) ;
#208 = CIRCLE ( 'NONE', #296, 2.499999999999995115 ) ;
#209 = AXIS2_PLACEMENT_3D ( 'NONE', #158, #26, #129 ) ;
#210 = CARTESIAN_POINT ( 'NONE',  ( 0.0000000000000000000, 0.0000000000000000000, 0.0000000000000000000 ) ) ;
#211 = DIRECTION ( 'NONE',  ( -3.491481338843133355E-15, 1.224646799147353207E-16, -1.000000000000000000 ) ) ;
#212 = DIRECTION ( 'NONE',  ( -4.275831445896958607E-31, -1.000000000000000000, -1.224646799147353207E-16 ) ) ;
#213 = CC_DESIGN_PERSON_AND_ORGANIZATION_ASSIGNMENT ( #64, #168, ( #107 ) ) ;
#214 = CIRCLE ( 'NONE', #67, 2.499999999999995115 ) ;
#215 = CC_DESIGN_APPROVAL ( #111, ( #107 ) ) ;
#216 = FACE_OUTER_BOUND ( 'NONE', #167, .T. ) ;
#217 = ORIENTED_EDGE ( 'NONE', *, *, #299, .F. ) ;
#218 = UNCERTAINTY_MEASURE_WITH_UNIT (LENGTH_MEASURE( 1.000000000000000082E-05 ), #117, 'distance_accuracy_value', 'NONE');
#219 = LINE ( 'NONE', #313, #5 ) ;
#220 = EDGE_LOOP ( 'NONE', ( #97, #280, #303, #125 ) ) ;
#221 = APPROVAL_ROLE ( '' ) ;
#222 = CIRCLE ( 'NONE', #71, 2.499999999999995115 ) ;
#223 = EDGE_CURVE ( 'NONE', #14, #6, #155, .T. ) ;
#224 = CARTESIAN_POINT ( 'NONE',  ( 5.244734096451192053E-15, -2.499999999999992895, 1.502151547568912671 ) ) ;
#225 = PERSON_AND_ORGANIZATION ( #310, #38 ) ;
#226 = CALENDAR_DATE ( 2021, 3, 9 ) ;
#227 = CLOSED_SHELL ( 'NONE', ( #99, #236, #19, #136, #148, #93 ) ) ;
#228 = EDGE_LOOP ( 'NONE', ( #63, #2, #41, #258 ) ) ;
#229 = FACE_OUTER_BOUND ( 'NONE', #269, .T. ) ;
#230 = CARTESIAN_POINT ( 'NONE',  ( 3.061616997868369829E-16, -2.499999999999997780, -3.061616997868390537E-16 ) ) ;
#231 = CC_DESIGN_PERSON_AND_ORGANIZATION_ASSIGNMENT ( #325, #85, ( #314 ) ) ;
#232 = APPROVAL_PERSON_ORGANIZATION ( #225, #170, #221 ) ;
#233 = DIRECTION ( 'NONE',  ( 4.275831445896958607E-31, 1.000000000000000000, 1.224646799147353207E-16 ) ) ;
#234 = PLANE ( 'NONE',  #248 ) ;
#235 = ORIENTED_EDGE ( 'NONE', *, *, #240, .F. ) ;
#236 = ADVANCED_FACE ( 'NONE', ( #127 ), #311, .T. ) ;
#237 = CYLINDRICAL_SURFACE ( 'NONE', #287, 2.499999999999997780 ) ;
#238 = LOCAL_TIME ( 9, 51, 47.00000000000000000, #51 ) ;
#239 = DIRECTION ( 'NONE',  ( -3.491481338843133355E-15, 1.224646799147353207E-16, -1.000000000000000000 ) ) ;
#240 = EDGE_CURVE ( 'NONE', #189, #109, #208, .T. ) ;
#241 = DIRECTION ( 'NONE',  ( 3.491481338843133355E-15, -1.224646799147353207E-16, 1.000000000000000000 ) ) ;
#242 = ORIENTED_EDGE ( 'NONE', *, *, #240, .T. ) ;
#243 = DIRECTION ( 'NONE',  ( -3.491481338843133355E-15, 1.224646799147353207E-16, -1.000000000000000000 ) ) ;
#244 = CIRCLE ( 'NONE', #192, 2.500000000000000000 ) ;
#245 = DIRECTION ( 'NONE',  ( -3.491481338843133355E-15, 1.224646799147353207E-16, -1.000000000000000000 ) ) ;
#246 = ORIENTED_EDGE ( 'NONE', *, *, #122, .T. ) ;
#247 = CARTESIAN_POINT ( 'NONE',  ( 5.244734096451192053E-15, -2.499999999999992895, 1.502151547568912671 ) ) ;
#248 = AXIS2_PLACEMENT_3D ( 'NONE', #74, #332, #92 ) ;
#249 = AXIS2_PLACEMENT_3D ( 'NONE', #267, #241, #212 ) ;
#250 = CALENDAR_DATE ( 2021, 3, 9 ) ;
#251 = EDGE_CURVE ( 'NONE', #198, #318, #147, .T. ) ;
#252 = PERSON_AND_ORGANIZATION ( #310, #38 ) ;
#253 = AXIS2_PLACEMENT_3D ( 'NONE', #32, #110, #36 ) ;
#254 = DIRECTION ( 'NONE',  ( 0.0000000000000000000, 1.000000000000000000, 0.0000000000000000000 ) ) ;
#255 = DATE_AND_TIME ( #282, #238 ) ;
#256 = DIRECTION ( 'NONE',  ( -3.491481338843133355E-15, 1.224646799147353207E-16, -1.000000000000000000 ) ) ;
#257 = ADVANCED_FACE ( 'NONE', ( #190 ), #134, .T. ) ;
#258 = ORIENTED_EDGE ( 'NONE', *, *, #122, .F. ) ;
#259 = VECTOR ( 'NONE', #262, 1000.000000000000000 ) ;
#260 = CARTESIAN_POINT ( 'NONE',  ( 6.982962677686266711E-14, 2.499999999999992895, 20.00000000000000000 ) ) ;
#261 = EDGE_CURVE ( 'NONE', #180, #119, #244, .T. ) ;
#262 = DIRECTION ( 'NONE',  ( -3.491481338843133355E-15, 1.224646799147353207E-16, -1.000000000000000000 ) ) ;
#263 = CARTESIAN_POINT ( 'NONE',  ( 1.424094521907023086E-13, -2.499999999999997780, 20.00000000000000000 ) ) ;
#264 = CARTESIAN_POINT ( 'NONE',  ( 2.143769542049683754E-13, -7.519331346764748510E-15, 61.39999999999999858 ) ) ;
#265 = CC_DESIGN_PERSON_AND_ORGANIZATION_ASSIGNMENT ( #87, #302, ( #178 ) ) ;
#266 = DIRECTION ( 'NONE',  ( -3.491481338843133355E-15, 1.224646799147353207E-16, -1.000000000000000000 ) ) ;
#267 = CARTESIAN_POINT ( 'NONE',  ( 6.982962677686266711E-14, 1.874699728327314620E-32, 20.00000000000000000 ) ) ;
#268 = DIRECTION ( 'NONE',  ( 4.275831445896959482E-31, 1.000000000000000000, 1.224646799147353454E-16 ) ) ;
#269 = EDGE_LOOP ( 'NONE', ( #138, #69 ) ) ;
#270 = MANIFOLD_SOLID_BREP ( 'Corps-Déplacer/Copier1[1]', #227 ) ;
#271 =( NAMED_UNIT ( * ) SI_UNIT ( $, .STERADIAN. ) SOLID_ANGLE_UNIT ( ) );
#272 = ORIENTED_EDGE ( 'NONE', *, *, #65, .F. ) ;
#273 = PERSON_AND_ORGANIZATION ( #310, #38 ) ;
#274 = CC_DESIGN_PERSON_AND_ORGANIZATION_ASSIGNMENT ( #252, #295, ( #196 ) ) ;
#275 = VECTOR ( 'NONE', #173, 1000.000000000000000 ) ;
#276 = VECTOR ( 'NONE', #182, 1000.000000000000000 ) ;
#277 = EDGE_CURVE ( 'NONE', #119, #109, #219, .T. ) ;
#278 = LINE ( 'NONE', #100, #276 ) ;
#279 = MANIFOLD_SOLID_BREP ( 'Corps-Déplacer/Copier1[2]', #181 ) ;
#280 = ORIENTED_EDGE ( 'NONE', *, *, #29, .T. ) ;
#281 = DIRECTION ( 'NONE',  ( -3.491481338843133355E-15, 1.224646799147353207E-16, -1.000000000000000000 ) ) ;
#282 = CALENDAR_DATE ( 2021, 3, 9 ) ;
#283 = LOCAL_TIME ( 9, 51, 47.00000000000000000, #194 ) ;
#284 = CARTESIAN_POINT ( 'NONE',  ( 2.164718430082742680E-13, -7.592810154713590230E-15, 62.00000000000000000 ) ) ;
#285 = DIRECTION ( 'NONE',  ( -3.491481338843133355E-15, 1.224646799147353207E-16, -1.000000000000000000 ) ) ;
#286 = CARTESIAN_POINT ( 'NONE',  ( 2.164718430082742680E-13, -7.592810154713590230E-15, 62.00000000000000000 ) ) ;
#287 = AXIS2_PLACEMENT_3D ( 'NONE', #157, #285, #337 ) ;
#288 = PLANE ( 'NONE',  #249 ) ;
#289 = ADVANCED_FACE ( 'NONE', ( #186 ), #288, .T. ) ;
#290 = DIRECTION ( 'NONE',  ( -3.491481338843133355E-15, 1.224646799147353207E-16, -1.000000000000000000 ) ) ;
#291 = ORIENTED_EDGE ( 'NONE', *, *, #29, .F. ) ;
#292 = CARTESIAN_POINT ( 'NONE',  ( 5.550895796238031501E-15, 2.499999999999992895, 1.502151547568913115 ) ) ;
#293 = ORIENTED_EDGE ( 'NONE', *, *, #184, .T. ) ;
#294 = EDGE_CURVE ( 'NONE', #179, #198, #4, .T. ) ;
#295 = PERSON_AND_ORGANIZATION_ROLE ( 'design_supplier' ) ;
#296 = AXIS2_PLACEMENT_3D ( 'NONE', #54, #336, #103 ) ;
#297 = DIRECTION ( 'NONE',  ( 0.0000000000000000000, 0.0000000000000000000, 1.000000000000000000 ) ) ;
#298 = APPROVAL_STATUS ( 'not_yet_approved' ) ;
#299 = EDGE_CURVE ( 'NONE', #318, #198, #44, .T. ) ;
#300 = DATE_AND_TIME ( #226, #96 ) ;
#301 = AXIS2_PLACEMENT_3D ( 'NONE', #24, #82, #317 ) ;
#302 = PERSON_AND_ORGANIZATION_ROLE ( 'creator' ) ;
#303 = ORIENTED_EDGE ( 'NONE', *, *, #184, .F. ) ;
#304 = DIRECTION ( 'NONE',  ( -2.382254525458724175E-15, -0.7071067811865452413, -0.7071067811865497932 ) ) ;
#305 = FACE_OUTER_BOUND ( 'NONE', #220, .T. ) ;
#306 = CARTESIAN_POINT ( 'NONE',  ( 2.164718430082742680E-13, 1.899999999999992806, 62.00000000000000000 ) ) ;
#307 = CARTESIAN_POINT ( 'NONE',  ( 2.164718430082742680E-13, 1.424771793528753506E-32, 62.00000000000000000 ) ) ;
#308 = AXIS2_PLACEMENT_3D ( 'NONE', #188, #290, #104 ) ;
#309 = CARTESIAN_POINT ( 'NONE',  ( 6.982962677686266711E-14, -2.449293598294706513E-15, 20.00000000000000000 ) ) ;
#310 = PERSON ( 'UNSPECIFIED', 'UNSPECIFIED', 'UNSPECIFIED', ('UNSPECIFIED'), ('UNSPECIFIED'), ('UNSPECIFIED') ) ;
#311 = CYLINDRICAL_SURFACE ( 'NONE', #101, 2.499999999999997780 ) ;
#312 = EDGE_CURVE ( 'NONE', #179, #318, #144, .T. ) ;
#313 = CARTESIAN_POINT ( 'NONE',  ( 1.068957861474238863E-30, 2.499999999999997780, 3.061616997868380676E-16 ) ) ;
#314 = PRODUCT ( '54588', '54588', '', ( #139 ) ) ;
#315 = CIRCLE ( 'NONE', #308, 2.499999999999995115 ) ;
#316 = CYLINDRICAL_SURFACE ( 'NONE', #106, 2.499999999999993783 ) ;
#317 = DIRECTION ( 'NONE',  ( 0.0000000000000000000, 1.000000000000000000, 0.0000000000000000000 ) ) ;
#318 = VERTEX_POINT ( 'NONE', #224 ) ;
#319 = CARTESIAN_POINT ( 'NONE',  ( 2.164718430082742680E-13, -7.592810154713590230E-15, 62.00000000000000000 ) ) ;
#320 = COORDINATED_UNIVERSAL_TIME_OFFSET ( 1, 0, .AHEAD. ) ;
#321 = AXIS2_PLACEMENT_3D ( 'NONE', #284, #176, #45 ) ;
#322 = AXIS2_PLACEMENT_3D ( 'NONE', #102, #211, #131 ) ;
#323 = DATE_AND_TIME ( #68, #120 ) ;
#324 = DATE_TIME_ROLE ( 'classification_date' ) ;
#325 = PERSON_AND_ORGANIZATION ( #310, #38 ) ;
#326 = EDGE_LOOP ( 'NONE', ( #132, #76, #137 ) ) ;
#327 = DIRECTION ( 'NONE',  ( -3.491481338843133355E-15, 1.224646799147353207E-16, -1.000000000000000000 ) ) ;
#328 = ORIENTED_EDGE ( 'NONE', *, *, #223, .T. ) ;
#329 = CONICAL_SURFACE ( 'NONE', #321, 1.900000000000000355, 0.7853981633974452814 ) ;
#330 = CC_DESIGN_PERSON_AND_ORGANIZATION_ASSIGNMENT ( #193, #86, ( #196 ) ) ;
#331 = ORIENTED_EDGE ( 'NONE', *, *, #261, .F. ) ;
#332 = DIRECTION ( 'NONE',  ( 3.491481338843133355E-15, -1.224646799147353207E-16, 1.000000000000000000 ) ) ;
#333 = ORIENTED_EDGE ( 'NONE', *, *, #88, .F. ) ;
#334 = APPLICATION_CONTEXT ( 'configuration controlled 3d designs of mechanical parts and assemblies' ) ;
#335 = AXIS2_PLACEMENT_3D ( 'NONE', #10, #297, #116 ) ;
#336 = DIRECTION ( 'NONE',  ( -3.491481338843133355E-15, 1.224646799147353207E-16, -1.000000000000000000 ) ) ;
#337 = DIRECTION ( 'NONE',  ( 4.275831445896959482E-31, 1.000000000000000000, 1.224646799147353454E-16 ) ) ;
ENDSEC;
END-ISO-10303-21;
