ISO-10303-21;
HEADER;
FILE_DESCRIPTION (( 'STEP AP203' ),
    '1' );
FILE_NAME ('54587.step',
    '2021-09-03T07:51:43',
    ( '' ),
    ( '' ),
    'SwSTEP 2.0',
    'SolidWorks 2019',
    '' );
FILE_SCHEMA (( 'CONFIG_CONTROL_DESIGN' ));
ENDSEC;

DATA;
#1 = CARTESIAN_POINT ( 'NONE',  ( 6.982962677686266711E-14, -2.449293598294706513E-15, 20.00000000000000000 ) ) ;
#2 = APPROVAL_DATE_TIME ( #333, #110 ) ;
#3 = DIRECTION ( 'NONE',  ( -3.491481338843133355E-15, 1.224646799147353207E-16, -1.000000000000000000 ) ) ;
#4 = DIRECTION ( 'NONE',  ( 1.903218546456022717E-15, 0.8571673007021097801, 0.5150380749100585964 ) ) ;
#5 = AXIS2_PLACEMENT_3D ( 'NONE', #314, #105, #212 ) ;
#6 = AXIS2_PLACEMENT_3D ( 'NONE', #166, #249, #17 ) ;
#7 = DIRECTION ( 'NONE',  ( -3.491481338843133355E-15, 1.224646799147353207E-16, -1.000000000000000000 ) ) ;
#8 = EDGE_CURVE ( 'NONE', #97, #148, #306, .T. ) ;
#9 = CARTESIAN_POINT ( 'NONE',  ( 5.192286755486680242E-15, -2.474999999999992983, 1.487130032093223697 ) ) ;
#10 = FACE_OUTER_BOUND ( 'NONE', #297, .T. ) ;
#11 = AXIS2_PLACEMENT_3D ( 'NONE', #276, #16, #74 ) ;
#12 = APPROVAL ( #335, 'UNSPECIFIED' ) ;
#13 = EDGE_CURVE ( 'NONE', #280, #284, #133, .T. ) ;
#14 = DIRECTION ( 'NONE',  ( 3.112614051534935398E-31, 1.000000000000000000, 8.761229676650565558E-17 ) ) ;
#15 = LINE ( 'NONE', #118, #37 ) ;
#16 = DIRECTION ( 'NONE',  ( 3.491481338843133355E-15, -1.224646799147353207E-16, 1.000000000000000000 ) ) ;
#17 = DIRECTION ( 'NONE',  ( 1.000000000000000000, 0.0000000000000000000, 0.0000000000000000000 ) ) ;
#18 = AXIS2_PLACEMENT_3D ( 'NONE', #265, #250, #198 ) ;
#19 = ORIENTED_EDGE ( 'NONE', *, *, #154, .F. ) ;
#20 = EDGE_CURVE ( 'NONE', #284, #148, #259, .T. ) ;
#21 = DIRECTION ( 'NONE',  ( -3.491481338843133355E-15, 1.224646799147353207E-16, -1.000000000000000000 ) ) ;
#22 = ADVANCED_BREP_SHAPE_REPRESENTATION ( '54587', ( #152, #268, #6 ), #34 ) ;
#23 = PERSON_AND_ORGANIZATION_ROLE ( 'design_supplier' ) ;
#24 = CARTESIAN_POINT ( 'NONE',  ( 2.167137107511058390E-13, -1.975000000000008527, 62.00000000000000000 ) ) ;
#25 = DATE_AND_TIME ( #310, #218 ) ;
#26 = ORIENTED_EDGE ( 'NONE', *, *, #154, .T. ) ;
#27 = CC_DESIGN_PERSON_AND_ORGANIZATION_ASSIGNMENT ( #202, #106, ( #87 ) ) ;
#28 = CYLINDRICAL_SURFACE ( 'NONE', #50, 2.474999999999997868 ) ;
#29 = SHAPE_DEFINITION_REPRESENTATION ( #52, #22 ) ;
#30 = DIRECTION ( 'NONE',  ( -3.491481338843133355E-15, 1.224646799147353207E-16, -1.000000000000000000 ) ) ;
#31 = AXIS2_PLACEMENT_3D ( 'NONE', #203, #222, #308 ) ;
#32 = CARTESIAN_POINT ( 'NONE',  ( 1.425809646406465250E-13, -2.475000000000007638, 61.50000000000000000 ) ) ;
#33 = PRODUCT_DEFINITION ( 'UNKNOWN', '', #94, #108 ) ;
#34 =( GEOMETRIC_REPRESENTATION_CONTEXT ( 3 ) GLOBAL_UNCERTAINTY_ASSIGNED_CONTEXT ( ( #78 ) ) GLOBAL_UNIT_ASSIGNED_CONTEXT ( ( #171, #324, #60 ) ) REPRESENTATION_CONTEXT ( 'NONE', 'WORKASPACE' ) );
#35 = FACE_OUTER_BOUND ( 'NONE', #91, .T. ) ;
#36 = FACE_OUTER_BOUND ( 'NONE', #145, .T. ) ;
#37 = VECTOR ( 'NONE', #323, 1000.000000000000000 ) ;
#38 = FACE_OUTER_BOUND ( 'NONE', #196, .T. ) ;
#39 = EDGE_LOOP ( 'NONE', ( #66, #170, #261, #102 ) ) ;
#40 = CARTESIAN_POINT ( 'NONE',  ( 2.164718430082742680E-13, 1.974999999999992761, 62.00000000000000000 ) ) ;
#41 = ORIENTED_EDGE ( 'NONE', *, *, #289, .T. ) ;
#42 = CC_DESIGN_PERSON_AND_ORGANIZATION_ASSIGNMENT ( #287, #208, ( #33 ) ) ;
#43 = COORDINATED_UNIVERSAL_TIME_OFFSET ( 1, 0, .AHEAD. ) ;
#44 = CONICAL_SURFACE ( 'NONE', #197, 2.474999999999992983, 1.029744258676649649 ) ;
#45 = CARTESIAN_POINT ( 'NONE',  ( 2.147261023388527077E-13, -7.531577814756222656E-15, 61.50000000000000000 ) ) ;
#46 = ORIENTED_EDGE ( 'NONE', *, *, #176, .T. ) ;
#47 = COORDINATED_UNIVERSAL_TIME_OFFSET ( 1, 0, .AHEAD. ) ;
#48 = ORIENTED_EDGE ( 'NONE', *, *, #160, .T. ) ;
#49 = VECTOR ( 'NONE', #103, 1000.000000000000000 ) ;
#50 = AXIS2_PLACEMENT_3D ( 'NONE', #321, #107, #216 ) ;
#51 = DIRECTION ( 'NONE',  ( 0.0000000000000000000, 1.000000000000000000, 0.0000000000000000000 ) ) ;
#52 = PRODUCT_DEFINITION_SHAPE ( 'NONE', 'NONE',  #33 ) ;
#53 = PERSON_AND_ORGANIZATION ( #89, #191 ) ;
#54 = DIRECTION ( 'NONE',  ( 3.491481338843133355E-15, -1.224646799147353207E-16, 1.000000000000000000 ) ) ;
#55 = CARTESIAN_POINT ( 'NONE',  ( 2.164718430082742680E-13, -7.592810154713590230E-15, 62.00000000000000000 ) ) ;
#56 = ADVANCED_FACE ( 'NONE', ( #126 ), #337, .T. ) ;
#57 = CARTESIAN_POINT ( 'NONE',  ( 6.982962677686266711E-14, 2.474999999999992983, 20.00000000000000000 ) ) ;
#58 = AXIS2_PLACEMENT_3D ( 'NONE', #303, #121, #116 ) ;
#59 = CARTESIAN_POINT ( 'NONE',  ( 5.192286755486680242E-15, -2.474999999999992983, 1.487130032093223697 ) ) ;
#60 =( NAMED_UNIT ( * ) SI_UNIT ( $, .STERADIAN. ) SOLID_ANGLE_UNIT ( ) );
#61 = ORIENTED_EDGE ( 'NONE', *, *, #176, .F. ) ;
#62 = APPROVAL ( #229, 'UNSPECIFIED' ) ;
#63 = AXIS2_PLACEMENT_3D ( 'NONE', #1, #7, #292 ) ;
#64 = DIRECTION ( 'NONE',  ( -3.491481338843133355E-15, 1.224646799147353207E-16, -1.000000000000000000 ) ) ;
#65 = VERTEX_POINT ( 'NONE', #59 ) ;
#66 = ORIENTED_EDGE ( 'NONE', *, *, #20, .F. ) ;
#67 = DIRECTION ( 'NONE',  ( 4.275831445896958607E-31, 1.000000000000000000, 1.224646799147353207E-16 ) ) ;
#68 = EDGE_LOOP ( 'NONE', ( #46, #328 ) ) ;
#69 = CIRCLE ( 'NONE', #162, 2.475000000000000089 ) ;
#70 = ORIENTED_EDGE ( 'NONE', *, *, #309, .F. ) ;
#71 = CALENDAR_DATE ( 2021, 3, 9 ) ;
#72 = ADVANCED_FACE ( 'NONE', ( #157 ), #81, .T. ) ;
#73 = VERTEX_POINT ( 'NONE', #181 ) ;
#74 = DIRECTION ( 'NONE',  ( -4.275831445896958607E-31, -1.000000000000000000, -1.224646799147353207E-16 ) ) ;
#75 = APPLICATION_PROTOCOL_DEFINITION ( 'international standard', 'config_control_design', 1994, #253 ) ;
#76 = CC_DESIGN_SECURITY_CLASSIFICATION ( #87, ( #94 ) ) ;
#77 = DIRECTION ( 'NONE',  ( -3.491481338843133355E-15, 1.224646799147353207E-16, -1.000000000000000000 ) ) ;
#78 = UNCERTAINTY_MEASURE_WITH_UNIT (LENGTH_MEASURE( 1.000000000000000082E-05 ), #171, 'distance_accuracy_value', 'NONE');
#79 = DATE_AND_TIME ( #211, #299 ) ;
#80 = FACE_OUTER_BOUND ( 'NONE', #39, .T. ) ;
#81 = CONICAL_SURFACE ( 'NONE', #273, 1.975000000000000533, 0.7853981633974473908 ) ;
#82 = AXIS2_PLACEMENT_3D ( 'NONE', #88, #139, #92 ) ;
#83 = EDGE_CURVE ( 'NONE', #119, #122, #207, .T. ) ;
#84 = DIRECTION ( 'NONE',  ( 3.112614051534935398E-31, 1.000000000000000000, 8.761229676650565558E-17 ) ) ;
#85 = DIRECTION ( 'NONE',  ( -3.491481338843133355E-15, 1.224646799147353207E-16, -1.000000000000000000 ) ) ;
#86 = CLOSED_SHELL ( 'NONE', ( #72, #326, #114, #96, #90, #271 ) ) ;
#87 = SECURITY_CLASSIFICATION ( '', '', #180 ) ;
#88 = CARTESIAN_POINT ( 'NONE',  ( 5.192286755486681031E-15, -1.821209033718867399E-16, 1.487130032093223919 ) ) ;
#89 = PERSON ( 'UNSPECIFIED', 'UNSPECIFIED', 'UNSPECIFIED', ('UNSPECIFIED'), ('UNSPECIFIED'), ('UNSPECIFIED') ) ;
#90 = ADVANCED_FACE ( 'NONE', ( #80 ), #182, .T. ) ;
#91 = EDGE_LOOP ( 'NONE', ( #255, #304, #230, #19 ) ) ;
#92 = DIRECTION ( 'NONE',  ( -3.112614051534935398E-31, -1.000000000000000000, -8.761229676650565558E-17 ) ) ;
#93 = ORIENTED_EDGE ( 'NONE', *, *, #136, .F. ) ;
#94 = PRODUCT_DEFINITION_FORMATION_WITH_SPECIFIED_SOURCE ( 'ANY', '', #109, .NOT_KNOWN. ) ;
#95 = CYLINDRICAL_SURFACE ( 'NONE', #274, 2.474999999999997868 ) ;
#96 = ADVANCED_FACE ( 'NONE', ( #266 ), #28, .T. ) ;
#97 = VERTEX_POINT ( 'NONE', #163 ) ;
#98 = ORIENTED_EDGE ( 'NONE', *, *, #220, .F. ) ;
#99 = ORIENTED_EDGE ( 'NONE', *, *, #189, .T. ) ;
#100 = PERSON_AND_ORGANIZATION ( #89, #191 ) ;
#101 = LOCAL_TIME ( 9, 51, 43.00000000000000000, #47 ) ;
#102 = ORIENTED_EDGE ( 'NONE', *, *, #160, .F. ) ;
#103 = DIRECTION ( 'NONE',  ( 1.798245827342160317E-15, -0.8571673007021098911, 0.5150380749100582634 ) ) ;
#104 = APPROVAL_DATE_TIME ( #316, #62 ) ;
#105 = DIRECTION ( 'NONE',  ( -3.491481338843133355E-15, 1.224646799147353207E-16, -1.000000000000000000 ) ) ;
#106 = PERSON_AND_ORGANIZATION_ROLE ( 'classification_officer' ) ;
#107 = DIRECTION ( 'NONE',  ( -3.491481338843133355E-15, 1.224646799147353207E-16, -1.000000000000000000 ) ) ;
#108 = DESIGN_CONTEXT ( 'detailed design', #253, 'design' ) ;
#109 = PRODUCT ( '54587', '54587', '', ( #247 ) ) ;
#110 = APPROVAL ( #184, 'UNSPECIFIED' ) ;
#111 = CARTESIAN_POINT ( 'NONE',  ( 2.164718430082742680E-13, -7.592810154713590230E-15, 62.00000000000000000 ) ) ;
#112 = CARTESIAN_POINT ( 'NONE',  ( 5.495386838275651154E-15, 2.474999999999992983, 1.487130032093224141 ) ) ;
#113 = LINE ( 'NONE', #200, #159 ) ;
#114 = ADVANCED_FACE ( 'NONE', ( #270 ), #132, .F. ) ;
#115 = AXIS2_PLACEMENT_3D ( 'NONE', #327, #64, #14 ) ;
#116 = DIRECTION ( 'NONE',  ( 4.275831445896958607E-31, 1.000000000000000000, 1.224646799147353207E-16 ) ) ;
#117 = DIRECTION ( 'NONE',  ( -3.491481338843133355E-15, 1.224646799147353207E-16, -1.000000000000000000 ) ) ;
#118 = CARTESIAN_POINT ( 'NONE',  ( 1.058268282859494755E-30, 2.474999999999994316, 3.031000827889691860E-16 ) ) ;
#119 = VERTEX_POINT ( 'NONE', #215 ) ;
#120 = CIRCLE ( 'NONE', #5, 2.474999999999995648 ) ;
#121 = DIRECTION ( 'NONE',  ( -3.491481338843133355E-15, 1.224646799147353207E-16, -1.000000000000000000 ) ) ;
#122 = VERTEX_POINT ( 'NONE', #185 ) ;
#123 = PERSON_AND_ORGANIZATION ( #89, #191 ) ;
#124 = ORIENTED_EDGE ( 'NONE', *, *, #8, .T. ) ;
#125 = PERSON_AND_ORGANIZATION_ROLE ( 'design_owner' ) ;
#126 = FACE_OUTER_BOUND ( 'NONE', #205, .T. ) ;
#127 = EDGE_CURVE ( 'NONE', #149, #179, #195, .T. ) ;
#128 = DIRECTION ( 'NONE',  ( 0.0000000000000000000, 1.000000000000000000, 0.0000000000000000000 ) ) ;
#129 = LINE ( 'NONE', #9, #49 ) ;
#130 = APPROVAL_ROLE ( '' ) ;
#131 = EDGE_CURVE ( 'NONE', #179, #149, #120, .T. ) ;
#132 = PLANE ( 'NONE',  #214 ) ;
#133 = CIRCLE ( 'NONE', #31, 1.975000000000000533 ) ;
#134 = AXIS2_PLACEMENT_3D ( 'NONE', #285, #85, #128 ) ;
#135 = CARTESIAN_POINT ( 'NONE',  ( 5.192286755486681031E-15, -1.821209033718867399E-16, 1.487130032093223919 ) ) ;
#136 = EDGE_CURVE ( 'NONE', #119, #65, #129, .T. ) ;
#137 = LOCAL_TIME ( 9, 51, 43.00000000000000000, #43 ) ;
#138 = CYLINDRICAL_SURFACE ( 'NONE', #322, 2.474999999999994316 ) ;
#139 = DIRECTION ( 'NONE',  ( 3.491481338843133355E-15, -1.224646799147353207E-16, 1.000000000000000000 ) ) ;
#140 = APPLICATION_PROTOCOL_DEFINITION ( 'international standard', 'config_control_design', 1994, #235 ) ;
#141 = AXIS2_PLACEMENT_3D ( 'NONE', #55, #30, #186 ) ;
#142 = CC_DESIGN_PERSON_AND_ORGANIZATION_ASSIGNMENT ( #123, #23, ( #94 ) ) ;
#143 = DIRECTION ( 'NONE',  ( -3.491481338843133355E-15, 1.224646799147353207E-16, -1.000000000000000000 ) ) ;
#144 = ORIENTED_EDGE ( 'NONE', *, *, #83, .T. ) ;
#145 = EDGE_LOOP ( 'NONE', ( #93, #144, #320 ) ) ;
#146 = ORIENTED_EDGE ( 'NONE', *, *, #232, .F. ) ;
#147 = EDGE_CURVE ( 'NONE', #284, #280, #315, .T. ) ;
#148 = VERTEX_POINT ( 'NONE', #32 ) ;
#149 = VERTEX_POINT ( 'NONE', #153 ) ;
#150 = DATE_TIME_ROLE ( 'creation_date' ) ;
#151 = CIRCLE ( 'NONE', #307, 2.474999999999992983 ) ;
#152 = MANIFOLD_SOLID_BREP ( 'Corps-Déplacer/Copier1[1]', #86 ) ;
#153 = CARTESIAN_POINT ( 'NONE',  ( 3.781405684896360593E-14, -2.474999999999997868, 20.00000000000000000 ) ) ;
#154 = EDGE_CURVE ( 'NONE', #65, #122, #151, .T. ) ;
#155 = COORDINATED_UNIVERSAL_TIME_OFFSET ( 1, 0, .AHEAD. ) ;
#156 = DIRECTION ( 'NONE',  ( 4.275831445896958607E-31, 1.000000000000000000, 1.224646799147352961E-16 ) ) ;
#157 = FACE_OUTER_BOUND ( 'NONE', #331, .T. ) ;
#158 = VECTOR ( 'NONE', #300, 1000.000000000000000 ) ;
#159 = VECTOR ( 'NONE', #223, 1000.000000000000000 ) ;
#160 = EDGE_CURVE ( 'NONE', #148, #97, #69, .T. ) ;
#161 = CARTESIAN_POINT ( 'NONE',  ( 3.031000827889681506E-16, -2.474999999999994316, -3.031000827889702214E-16 ) ) ;
#162 = AXIS2_PLACEMENT_3D ( 'NONE', #188, #234, #244 ) ;
#163 = CARTESIAN_POINT ( 'NONE',  ( 2.147261023388527077E-13, 2.474999999999992983, 61.50000000000000000 ) ) ;
#164 = ORIENTED_EDGE ( 'NONE', *, *, #131, .F. ) ;
#165 = CARTESIAN_POINT ( 'NONE',  ( 3.031000827889686437E-16, -2.474999999999997868, -3.031000827889707144E-16 ) ) ;
#166 = CARTESIAN_POINT ( 'NONE',  ( 0.0000000000000000000, 0.0000000000000000000, 0.0000000000000000000 ) ) ;
#167 = ADVANCED_FACE ( 'NONE', ( #317 ), #44, .T. ) ;
#168 = LOCAL_TIME ( 9, 51, 43.00000000000000000, #260 ) ;
#169 = DIRECTION ( 'NONE',  ( -3.491481338843133355E-15, 1.224646799147353207E-16, -1.000000000000000000 ) ) ;
#170 = ORIENTED_EDGE ( 'NONE', *, *, #147, .T. ) ;
#171 =( LENGTH_UNIT ( ) NAMED_UNIT ( * ) SI_UNIT ( .MILLI., .METRE. ) );
#172 = EDGE_LOOP ( 'NONE', ( #325, #48, #201, #98 ) ) ;
#173 = CARTESIAN_POINT ( 'NONE',  ( 1.058268282859496331E-30, 2.474999999999997868, 3.031000827889696790E-16 ) ) ;
#174 = ORIENTED_EDGE ( 'NONE', *, *, #13, .T. ) ;
#175 = AXIS2_PLACEMENT_3D ( 'NONE', #45, #21, #311 ) ;
#176 = EDGE_CURVE ( 'NONE', #73, #251, #286, .T. ) ;
#177 = ORIENTED_EDGE ( 'NONE', *, *, #8, .F. ) ;
#178 = APPROVAL_DATE_TIME ( #25, #12 ) ;
#179 = VERTEX_POINT ( 'NONE', #57 ) ;
#180 = SECURITY_CLASSIFICATION_LEVEL ( 'unclassified' ) ;
#181 = CARTESIAN_POINT ( 'NONE',  ( 6.982962677686266711E-14, 2.474999999999992983, 20.00000000000000000 ) ) ;
#182 = CONICAL_SURFACE ( 'NONE', #141, 1.975000000000000533, 0.7853981633974473908 ) ;
#183 = CC_DESIGN_APPROVAL ( #12, ( #87 ) ) ;
#184 = APPROVAL_STATUS ( 'not_yet_approved' ) ;
#185 = CARTESIAN_POINT ( 'NONE',  ( 5.495386838275651154E-15, 2.474999999999992983, 1.487130032093224141 ) ) ;
#186 = DIRECTION ( 'NONE',  ( 0.0000000000000000000, 1.000000000000000000, 0.0000000000000000000 ) ) ;
#187 = CIRCLE ( 'NONE', #115, 2.474999999999992983 ) ;
#188 = CARTESIAN_POINT ( 'NONE',  ( 2.147261023388527077E-13, -7.531577814756222656E-15, 61.50000000000000000 ) ) ;
#189 = EDGE_CURVE ( 'NONE', #149, #65, #239, .T. ) ;
#190 = DIRECTION ( 'NONE',  ( 3.491481338843133355E-15, -1.224646799147353207E-16, 1.000000000000000000 ) ) ;
#191 = ORGANIZATION ( 'UNSPECIFIED', 'UNSPECIFIED', '' ) ;
#192 = DIRECTION ( 'NONE',  ( 4.275831445896958607E-31, 1.000000000000000000, 1.224646799147352961E-16 ) ) ;
#193 = EDGE_LOOP ( 'NONE', ( #277, #302, #26 ) ) ;
#194 = CARTESIAN_POINT ( 'NONE',  ( 0.0000000000000000000, 0.0000000000000000000, 0.0000000000000000000 ) ) ;
#195 = CIRCLE ( 'NONE', #254, 2.474999999999995648 ) ;
#196 = EDGE_LOOP ( 'NONE', ( #225, #334 ) ) ;
#197 = AXIS2_PLACEMENT_3D ( 'NONE', #290, #54, #237 ) ;
#198 = DIRECTION ( 'NONE',  ( 0.0000000000000000000, 1.000000000000000000, 0.0000000000000000000 ) ) ;
#199 = EDGE_LOOP ( 'NONE', ( #124, #41, #61, #256 ) ) ;
#200 = CARTESIAN_POINT ( 'NONE',  ( 2.164718430082742680E-13, 1.974999999999992761, 62.00000000000000000 ) ) ;
#201 = ORIENTED_EDGE ( 'NONE', *, *, #252, .T. ) ;
#202 = PERSON_AND_ORGANIZATION ( #89, #191 ) ;
#203 = CARTESIAN_POINT ( 'NONE',  ( 2.164718430082742680E-13, -7.592810154713590230E-15, 62.00000000000000000 ) ) ;
#204 = APPROVAL_ROLE ( '' ) ;
#205 = EDGE_LOOP ( 'NONE', ( #164, #227 ) ) ;
#206 = CC_DESIGN_PERSON_AND_ORGANIZATION_ASSIGNMENT ( #305, #313, ( #94 ) ) ;
#207 = LINE ( 'NONE', #112, #231 ) ;
#208 = PERSON_AND_ORGANIZATION_ROLE ( 'creator' ) ;
#209 = DIRECTION ( 'NONE',  ( -3.491481338843133355E-15, 1.224646799147353207E-16, -1.000000000000000000 ) ) ;
#210 = CIRCLE ( 'NONE', #18, 2.474999999999995648 ) ;
#211 = CALENDAR_DATE ( 2021, 3, 9 ) ;
#212 = DIRECTION ( 'NONE',  ( 0.0000000000000000000, 1.000000000000000000, 0.0000000000000000000 ) ) ;
#213 = ADVANCED_FACE ( 'NONE', ( #35 ), #138, .T. ) ;
#214 = AXIS2_PLACEMENT_3D ( 'NONE', #312, #190, #294 ) ;
#215 = CARTESIAN_POINT ( 'NONE',  ( 0.0000000000000000000, 0.0000000000000000000, 0.0000000000000000000 ) ) ;
#216 = DIRECTION ( 'NONE',  ( 4.275831445896958607E-31, 1.000000000000000000, 1.224646799147353207E-16 ) ) ;
#217 = CARTESIAN_POINT ( 'NONE',  ( 0.0000000000000000000, 0.0000000000000000000, 0.0000000000000000000 ) ) ;
#218 = LOCAL_TIME ( 9, 51, 43.00000000000000000, #155 ) ;
#219 = CARTESIAN_POINT ( 'NONE',  ( 1.425809646406466007E-13, -2.474999999999997868, 20.00000000000000000 ) ) ;
#220 = EDGE_CURVE ( 'NONE', #251, #73, #210, .T. ) ;
#221 = DIRECTION ( 'NONE',  ( -3.491481338843133355E-15, 1.224646799147353207E-16, -1.000000000000000000 ) ) ;
#222 = DIRECTION ( 'NONE',  ( -3.491481338843133355E-15, 1.224646799147353207E-16, -1.000000000000000000 ) ) ;
#223 = DIRECTION ( 'NONE',  ( -2.468850131082267710E-15, 0.7071067811865470176, -0.7071067811865481278 ) ) ;
#224 = CC_DESIGN_APPROVAL ( #110, ( #33 ) ) ;
#225 = ORIENTED_EDGE ( 'NONE', *, *, #13, .F. ) ;
#226 = CC_DESIGN_PERSON_AND_ORGANIZATION_ASSIGNMENT ( #298, #125, ( #109 ) ) ;
#227 = ORIENTED_EDGE ( 'NONE', *, *, #127, .F. ) ;
#228 = ORIENTED_EDGE ( 'NONE', *, *, #131, .T. ) ;
#229 = APPROVAL_STATUS ( 'not_yet_approved' ) ;
#230 = ORIENTED_EDGE ( 'NONE', *, *, #258, .T. ) ;
#231 = VECTOR ( 'NONE', #4, 999.9999999999998863 ) ;
#232 = EDGE_CURVE ( 'NONE', #122, #65, #187, .T. ) ;
#233 = VECTOR ( 'NONE', #117, 1000.000000000000000 ) ;
#234 = DIRECTION ( 'NONE',  ( -3.491481338843133355E-15, 1.224646799147353207E-16, -1.000000000000000000 ) ) ;
#235 = APPLICATION_CONTEXT ( 'configuration controlled 3d designs of mechanical parts and assemblies' ) ;
#236 = DATE_AND_TIME ( #71, #137 ) ;
#237 = DIRECTION ( 'NONE',  ( -3.112614051534935398E-31, -1.000000000000000000, -8.761229676650565558E-17 ) ) ;
#238 = COORDINATED_UNIVERSAL_TIME_OFFSET ( 1, 0, .AHEAD. ) ;
#239 = LINE ( 'NONE', #161, #336 ) ;
#240 = CLOSED_SHELL ( 'NONE', ( #291, #283, #167, #213, #56 ) ) ;
#241 = AXIS2_PLACEMENT_3D ( 'NONE', #194, #143, #192 ) ;
#242 = CC_DESIGN_DATE_AND_TIME_ASSIGNMENT ( #236, #282, ( #87 ) ) ;
#243 = VECTOR ( 'NONE', #169, 1000.000000000000000 ) ;
#244 = DIRECTION ( 'NONE',  ( 0.0000000000000000000, 1.000000000000000000, 0.0000000000000000000 ) ) ;
#245 = CARTESIAN_POINT ( 'NONE',  ( 0.0000000000000000000, 0.0000000000000000000, 0.0000000000000000000 ) ) ;
#246 = PLANE ( 'NONE',  #58 ) ;
#247 = MECHANICAL_CONTEXT ( 'NONE', #235, 'mechanical' ) ;
#248 = CC_DESIGN_DATE_AND_TIME_ASSIGNMENT ( #79, #150, ( #33 ) ) ;
#249 = DIRECTION ( 'NONE',  ( 0.0000000000000000000, 0.0000000000000000000, 1.000000000000000000 ) ) ;
#250 = DIRECTION ( 'NONE',  ( -3.491481338843133355E-15, 1.224646799147353207E-16, -1.000000000000000000 ) ) ;
#251 = VERTEX_POINT ( 'NONE', #219 ) ;
#252 = EDGE_CURVE ( 'NONE', #97, #73, #272, .T. ) ;
#253 = APPLICATION_CONTEXT ( 'configuration controlled 3d designs of mechanical parts and assemblies' ) ;
#254 = AXIS2_PLACEMENT_3D ( 'NONE', #288, #3, #319 ) ;
#255 = ORIENTED_EDGE ( 'NONE', *, *, #189, .F. ) ;
#256 = ORIENTED_EDGE ( 'NONE', *, *, #252, .F. ) ;
#257 = APPROVAL_ROLE ( '' ) ;
#258 = EDGE_CURVE ( 'NONE', #179, #122, #15, .T. ) ;
#259 = LINE ( 'NONE', #24, #158 ) ;
#260 = COORDINATED_UNIVERSAL_TIME_OFFSET ( 1, 0, .AHEAD. ) ;
#261 = ORIENTED_EDGE ( 'NONE', *, *, #309, .T. ) ;
#262 = CALENDAR_DATE ( 2021, 3, 9 ) ;
#263 = DIRECTION ( 'NONE',  ( -3.491481338843133355E-15, 1.224646799147353207E-16, -1.000000000000000000 ) ) ;
#264 = CALENDAR_DATE ( 2021, 3, 9 ) ;
#265 = CARTESIAN_POINT ( 'NONE',  ( 6.982962677686266711E-14, -2.449293598294706513E-15, 20.00000000000000000 ) ) ;
#266 = FACE_OUTER_BOUND ( 'NONE', #172, .T. ) ;
#267 = CONICAL_SURFACE ( 'NONE', #82, 2.474999999999992983, 1.029744258676649649 ) ;
#268 = MANIFOLD_SOLID_BREP ( 'Corps-Déplacer/Copier1[2]', #240 ) ;
#269 = DIRECTION ( 'NONE',  ( -3.491481338843133355E-15, 1.224646799147353207E-16, -1.000000000000000000 ) ) ;
#270 = FACE_OUTER_BOUND ( 'NONE', #68, .T. ) ;
#271 = ADVANCED_FACE ( 'NONE', ( #38 ), #246, .F. ) ;
#272 = LINE ( 'NONE', #173, #233 ) ;
#273 = AXIS2_PLACEMENT_3D ( 'NONE', #111, #209, #51 ) ;
#274 = AXIS2_PLACEMENT_3D ( 'NONE', #217, #221, #67 ) ;
#275 = CARTESIAN_POINT ( 'NONE',  ( 2.158714565863737489E-13, -1.975000000000008527, 62.00000000000000000 ) ) ;
#276 = CARTESIAN_POINT ( 'NONE',  ( 6.982962677686266711E-14, 1.855952731044041537E-32, 20.00000000000000000 ) ) ;
#277 = ORIENTED_EDGE ( 'NONE', *, *, #83, .F. ) ;
#278 = PERSON_AND_ORGANIZATION ( #89, #191 ) ;
#279 = APPROVAL_PERSON_ORGANIZATION ( #53, #12, #204 ) ;
#280 = VERTEX_POINT ( 'NONE', #40 ) ;
#281 = ORIENTED_EDGE ( 'NONE', *, *, #258, .F. ) ;
#282 = DATE_TIME_ROLE ( 'classification_date' ) ;
#283 = ADVANCED_FACE ( 'NONE', ( #36 ), #267, .T. ) ;
#284 = VERTEX_POINT ( 'NONE', #275 ) ;
#285 = CARTESIAN_POINT ( 'NONE',  ( 2.164718430082742680E-13, -7.592810154713590230E-15, 62.00000000000000000 ) ) ;
#286 = CIRCLE ( 'NONE', #63, 2.474999999999995648 ) ;
#287 = PERSON_AND_ORGANIZATION ( #89, #191 ) ;
#288 = CARTESIAN_POINT ( 'NONE',  ( 6.982962677686266711E-14, -2.449293598294706513E-15, 20.00000000000000000 ) ) ;
#289 = EDGE_CURVE ( 'NONE', #148, #251, #296, .T. ) ;
#290 = CARTESIAN_POINT ( 'NONE',  ( 5.192286755486681031E-15, -1.821209033718867399E-16, 1.487130032093223919 ) ) ;
#291 = ADVANCED_FACE ( 'NONE', ( #10 ), #301, .T. ) ;
#292 = DIRECTION ( 'NONE',  ( 0.0000000000000000000, 1.000000000000000000, 0.0000000000000000000 ) ) ;
#293 = APPROVAL_PERSON_ORGANIZATION ( #278, #62, #257 ) ;
#294 = DIRECTION ( 'NONE',  ( -4.275831445896958607E-31, -1.000000000000000000, -1.224646799147353207E-16 ) ) ;
#295 = PRODUCT_RELATED_PRODUCT_CATEGORY ( 'detail', '', ( #109 ) ) ;
#296 = LINE ( 'NONE', #165, #243 ) ;
#297 = EDGE_LOOP ( 'NONE', ( #228, #99, #146, #281 ) ) ;
#298 = PERSON_AND_ORGANIZATION ( #89, #191 ) ;
#299 = LOCAL_TIME ( 9, 51, 43.00000000000000000, #238 ) ;
#300 = DIRECTION ( 'NONE',  ( -2.382254525458719047E-15, -0.7071067811865467956, -0.7071067811865483499 ) ) ;
#301 = CYLINDRICAL_SURFACE ( 'NONE', #241, 2.474999999999994316 ) ;
#302 = ORIENTED_EDGE ( 'NONE', *, *, #136, .T. ) ;
#303 = CARTESIAN_POINT ( 'NONE',  ( 2.164718430082742680E-13, 1.481012785378573303E-32, 62.00000000000000000 ) ) ;
#304 = ORIENTED_EDGE ( 'NONE', *, *, #127, .T. ) ;
#305 = PERSON_AND_ORGANIZATION ( #89, #191 ) ;
#306 = CIRCLE ( 'NONE', #175, 2.475000000000000089 ) ;
#307 = AXIS2_PLACEMENT_3D ( 'NONE', #135, #263, #84 ) ;
#308 = DIRECTION ( 'NONE',  ( 0.0000000000000000000, 1.000000000000000000, 0.0000000000000000000 ) ) ;
#309 = EDGE_CURVE ( 'NONE', #280, #97, #113, .T. ) ;
#310 = CALENDAR_DATE ( 2021, 3, 9 ) ;
#311 = DIRECTION ( 'NONE',  ( 0.0000000000000000000, 1.000000000000000000, 0.0000000000000000000 ) ) ;
#312 = CARTESIAN_POINT ( 'NONE',  ( 6.982962677686266711E-14, 1.855952731044041537E-32, 20.00000000000000000 ) ) ;
#313 = PERSON_AND_ORGANIZATION_ROLE ( 'creator' ) ;
#314 = CARTESIAN_POINT ( 'NONE',  ( 6.982962677686266711E-14, -2.449293598294706513E-15, 20.00000000000000000 ) ) ;
#315 = CIRCLE ( 'NONE', #134, 1.975000000000000533 ) ;
#316 = DATE_AND_TIME ( #262, #101 ) ;
#317 = FACE_OUTER_BOUND ( 'NONE', #193, .T. ) ;
#318 = APPROVAL_PERSON_ORGANIZATION ( #100, #110, #130 ) ;
#319 = DIRECTION ( 'NONE',  ( 0.0000000000000000000, 1.000000000000000000, 0.0000000000000000000 ) ) ;
#320 = ORIENTED_EDGE ( 'NONE', *, *, #232, .T. ) ;
#321 = CARTESIAN_POINT ( 'NONE',  ( 0.0000000000000000000, 0.0000000000000000000, 0.0000000000000000000 ) ) ;
#322 = AXIS2_PLACEMENT_3D ( 'NONE', #245, #77, #156 ) ;
#323 = DIRECTION ( 'NONE',  ( -3.491481338843133355E-15, 1.224646799147353207E-16, -1.000000000000000000 ) ) ;
#324 =( NAMED_UNIT ( * ) PLANE_ANGLE_UNIT ( ) SI_UNIT ( $, .RADIAN. ) );
#325 = ORIENTED_EDGE ( 'NONE', *, *, #289, .F. ) ;
#326 = ADVANCED_FACE ( 'NONE', ( #329 ), #95, .T. ) ;
#327 = CARTESIAN_POINT ( 'NONE',  ( 5.192286755486681031E-15, -1.821209033718867399E-16, 1.487130032093223919 ) ) ;
#328 = ORIENTED_EDGE ( 'NONE', *, *, #220, .T. ) ;
#329 = FACE_OUTER_BOUND ( 'NONE', #199, .T. ) ;
#330 = CC_DESIGN_APPROVAL ( #62, ( #94 ) ) ;
#331 = EDGE_LOOP ( 'NONE', ( #174, #332, #177, #70 ) ) ;
#332 = ORIENTED_EDGE ( 'NONE', *, *, #20, .T. ) ;
#333 = DATE_AND_TIME ( #264, #168 ) ;
#334 = ORIENTED_EDGE ( 'NONE', *, *, #147, .F. ) ;
#335 = APPROVAL_STATUS ( 'not_yet_approved' ) ;
#336 = VECTOR ( 'NONE', #269, 1000.000000000000000 ) ;
#337 = PLANE ( 'NONE',  #11 ) ;
ENDSEC;
END-ISO-10303-21;
