ISO-10303-21;
HEADER;
FILE_DESCRIPTION (( 'STEP AP203' ),
    '1' );
FILE_NAME ('54586.step',
    '2021-09-03T07:51:39',
    ( '' ),
    ( '' ),
    'SwSTEP 2.0',
    'SolidWorks 2019',
    '' );
FILE_SCHEMA (( 'CONFIG_CONTROL_DESIGN' ));
ENDSEC;

DATA;
#1 = PERSON_AND_ORGANIZATION_ROLE ( 'classification_officer' ) ;
#2 = PRODUCT_DEFINITION ( 'UNKNOWN', '', #24, #107 ) ;
#3 = CONICAL_SURFACE ( 'NONE', #175, 1.950000000000000622, 0.7853981633974476129 ) ;
#4 = CALENDAR_DATE ( 2021, 3, 9 ) ;
#5 = VERTEX_POINT ( 'NONE', #43 ) ;
#6 = APPLICATION_PROTOCOL_DEFINITION ( 'international standard', 'config_control_design', 1994, #239 ) ;
#7 = EDGE_LOOP ( 'NONE', ( #258, #135, #189, #194 ) ) ;
#8 = ORIENTED_EDGE ( 'NONE', *, *, #180, .T. ) ;
#9 = CARTESIAN_POINT ( 'NONE',  ( 2.164718430082742680E-13, 1.949999999999993072, 62.00000000000000000 ) ) ;
#10 = CARTESIAN_POINT ( 'NONE',  ( 5.139839414522169221E-15, -1.802812982873222132E-16, 1.472108516617534724 ) ) ;
#11 = CARTESIAN_POINT ( 'NONE',  ( 5.139839414522169221E-15, -1.802812982873222132E-16, 1.472108516617534724 ) ) ;
#12 = AXIS2_PLACEMENT_3D ( 'NONE', #309, #202, #148 ) ;
#13 = LINE ( 'NONE', #294, #50 ) ;
#14 = CC_DESIGN_APPROVAL ( #319, ( #125 ) ) ;
#15 = ORIENTED_EDGE ( 'NONE', *, *, #261, .T. ) ;
#16 = EDGE_LOOP ( 'NONE', ( #58, #8, #143, #198 ) ) ;
#17 = CARTESIAN_POINT ( 'NONE',  ( 2.164718430082742680E-13, 1.949999999999993072, 62.00000000000000000 ) ) ;
#18 = AXIS2_PLACEMENT_3D ( 'NONE', #63, #147, #141 ) ;
#19 = CALENDAR_DATE ( 2021, 3, 9 ) ;
#20 = CARTESIAN_POINT ( 'NONE',  ( 6.982962677686266711E-14, -2.449293598294706513E-15, 20.00000000000000000 ) ) ;
#21 = CARTESIAN_POINT ( 'NONE',  ( 5.139839414522168432E-15, -2.449999999999993072, 1.472108516617534502 ) ) ;
#22 = PLANE ( 'NONE',  #322 ) ;
#23 = VECTOR ( 'NONE', #196, 999.9999999999998863 ) ;
#24 = PRODUCT_DEFINITION_FORMATION_WITH_SPECIFIED_SOURCE ( 'ANY', '', #154, .NOT_KNOWN. ) ;
#25 = FACE_OUTER_BOUND ( 'NONE', #163, .T. ) ;
#26 = FACE_OUTER_BOUND ( 'NONE', #289, .T. ) ;
#27 = APPROVAL_DATE_TIME ( #128, #218 ) ;
#28 = EDGE_LOOP ( 'NONE', ( #82, #263 ) ) ;
#29 = CONICAL_SURFACE ( 'NONE', #182, 1.950000000000000622, 0.7853981633974476129 ) ;
#30 = MANIFOLD_SOLID_BREP ( 'Corps-Déplacer/Copier1[2]', #118 ) ;
#31 = APPROVAL_STATUS ( 'not_yet_approved' ) ;
#32 = VERTEX_POINT ( 'NONE', #201 ) ;
#33 = ADVANCED_FACE ( 'NONE', ( #139 ), #29, .T. ) ;
#34 = AXIS2_PLACEMENT_3D ( 'NONE', #278, #223, #152 ) ;
#35 = EDGE_CURVE ( 'NONE', #234, #237, #13, .T. ) ;
#36 = ORIENTED_EDGE ( 'NONE', *, *, #304, .T. ) ;
#37 = DIRECTION ( 'NONE',  ( -3.491481338843133355E-15, 1.224646799147353207E-16, -1.000000000000000000 ) ) ;
#38 = PERSON_AND_ORGANIZATION ( #297, #231 ) ;
#39 = LINE ( 'NONE', #323, #23 ) ;
#40 = AXIS2_PLACEMENT_3D ( 'NONE', #102, #179, #46 ) ;
#41 = DIRECTION ( 'NONE',  ( 4.275831445896958607E-31, 1.000000000000000000, 1.224646799147353207E-16 ) ) ;
#42 = CARTESIAN_POINT ( 'NONE',  ( 0.0000000000000000000, 0.0000000000000000000, 0.0000000000000000000 ) ) ;
#43 = CARTESIAN_POINT ( 'NONE',  ( 1.425779030236487519E-13, -2.449999999999998401, 20.00000000000000000 ) ) ;
#44 = CARTESIAN_POINT ( 'NONE',  ( 6.982962677686266711E-14, 1.837205733760768454E-32, 20.00000000000000000 ) ) ;
#45 = CIRCLE ( 'NONE', #170, 2.449999999999995737 ) ;
#46 = DIRECTION ( 'NONE',  ( 0.0000000000000000000, 1.000000000000000000, 0.0000000000000000000 ) ) ;
#47 = DIRECTION ( 'NONE',  ( -3.491481338843133355E-15, 1.224646799147353207E-16, -1.000000000000000000 ) ) ;
#48 = EDGE_CURVE ( 'NONE', #173, #32, #39, .T. ) ;
#49 = DIRECTION ( 'NONE',  ( -3.491481338843133355E-15, 1.224646799147353207E-16, -1.000000000000000000 ) ) ;
#50 = VECTOR ( 'NONE', #37, 1000.000000000000000 ) ;
#51 = EDGE_CURVE ( 'NONE', #284, #192, #215, .T. ) ;
#52 = DIRECTION ( 'NONE',  ( 3.491481338843133355E-15, -1.224646799147353207E-16, 1.000000000000000000 ) ) ;
#53 = PERSON_AND_ORGANIZATION_ROLE ( 'creator' ) ;
#54 = ORIENTED_EDGE ( 'NONE', *, *, #321, .F. ) ;
#55 = FACE_OUTER_BOUND ( 'NONE', #80, .T. ) ;
#56 = EDGE_LOOP ( 'NONE', ( #236, #272, #71, #54 ) ) ;
#57 = CIRCLE ( 'NONE', #299, 1.950000000000000622 ) ;
#58 = ORIENTED_EDGE ( 'NONE', *, *, #233, .T. ) ;
#59 = VERTEX_POINT ( 'NONE', #326 ) ;
#60 = ORIENTED_EDGE ( 'NONE', *, *, #180, .F. ) ;
#61 = CC_DESIGN_PERSON_AND_ORGANIZATION_ASSIGNMENT ( #280, #197, ( #154 ) ) ;
#62 = AXIS2_PLACEMENT_3D ( 'NONE', #10, #214, #328 ) ;
#63 = CARTESIAN_POINT ( 'NONE',  ( 2.164718430082742680E-13, -7.592810154713590230E-15, 62.00000000000000000 ) ) ;
#64 = APPROVAL_DATE_TIME ( #265, #273 ) ;
#65 = EDGE_CURVE ( 'NONE', #85, #173, #83, .T. ) ;
#66 = LINE ( 'NONE', #89, #101 ) ;
#67 = DATE_TIME_ROLE ( 'creation_date' ) ;
#68 = ORIENTED_EDGE ( 'NONE', *, *, #304, .F. ) ;
#69 = DIRECTION ( 'NONE',  ( 1.798245827342160317E-15, -0.8571673007021098911, 0.5150380749100582634 ) ) ;
#70 = SHAPE_DEFINITION_REPRESENTATION ( #90, #222 ) ;
#71 = ORIENTED_EDGE ( 'NONE', *, *, #233, .F. ) ;
#72 = CARTESIAN_POINT ( 'NONE',  ( 2.147261023388527077E-13, -7.531577814756222656E-15, 61.50000000000000000 ) ) ;
#73 = DIRECTION ( 'NONE',  ( 4.275831445896958607E-31, 1.000000000000000000, 1.224646799147353207E-16 ) ) ;
#74 = VECTOR ( 'NONE', #274, 1000.000000000000000 ) ;
#75 = DIRECTION ( 'NONE',  ( -3.491481338843133355E-15, 1.224646799147353207E-16, -1.000000000000000000 ) ) ;
#76 = CARTESIAN_POINT ( 'NONE',  ( 6.982962677686266711E-14, 2.449999999999993072, 20.00000000000000000 ) ) ;
#77 = CARTESIAN_POINT ( 'NONE',  ( 2.158683949693759001E-13, -1.950000000000008171, 62.00000000000000000 ) ) ;
#78 = AXIS2_PLACEMENT_3D ( 'NONE', #276, #75, #178 ) ;
#79 = DIRECTION ( 'NONE',  ( 3.491481338843133355E-15, -1.224646799147353207E-16, 1.000000000000000000 ) ) ;
#80 = EDGE_LOOP ( 'NONE', ( #113, #169, #15 ) ) ;
#81 = APPLICATION_PROTOCOL_DEFINITION ( 'international standard', 'config_control_design', 1994, #293 ) ;
#82 = ORIENTED_EDGE ( 'NONE', *, *, #186, .F. ) ;
#83 = CIRCLE ( 'NONE', #18, 1.950000000000000622 ) ;
#84 = ORIENTED_EDGE ( 'NONE', *, *, #51, .T. ) ;
#85 = VERTEX_POINT ( 'NONE', #17 ) ;
#86 = LINE ( 'NONE', #245, #160 ) ;
#87 = EDGE_CURVE ( 'NONE', #162, #237, #86, .T. ) ;
#88 = LINE ( 'NONE', #119, #74 ) ;
#89 = CARTESIAN_POINT ( 'NONE',  ( 5.139839414522168432E-15, -2.449999999999993072, 1.472108516617534502 ) ) ;
#90 = PRODUCT_DEFINITION_SHAPE ( 'NONE', 'NONE',  #2 ) ;
#91 = ADVANCED_FACE ( 'NONE', ( #290 ), #3, .T. ) ;
#92 = ORIENTED_EDGE ( 'NONE', *, *, #261, .F. ) ;
#93 = FACE_OUTER_BOUND ( 'NONE', #7, .T. ) ;
#94 = APPROVAL_PERSON_ORGANIZATION ( #38, #218, #140 ) ;
#95 = ADVANCED_FACE ( 'NONE', ( #93 ), #324, .T. ) ;
#96 = CARTESIAN_POINT ( 'NONE',  ( 5.439877880313271596E-15, 2.449999999999993072, 1.472108516617534946 ) ) ;
#97 = PRODUCT_RELATED_PRODUCT_CATEGORY ( 'detail', '', ( #154 ) ) ;
#98 = CARTESIAN_POINT ( 'NONE',  ( 5.139839414522169221E-15, -1.802812982873222132E-16, 1.472108516617534724 ) ) ;
#99 = EDGE_CURVE ( 'NONE', #162, #130, #66, .T. ) ;
#100 = DIRECTION ( 'NONE',  ( -3.491481338843133355E-15, 1.224646799147353207E-16, -1.000000000000000000 ) ) ;
#101 = VECTOR ( 'NONE', #69, 1000.000000000000000 ) ;
#102 = CARTESIAN_POINT ( 'NONE',  ( 6.982962677686266711E-14, -2.449293598294706513E-15, 20.00000000000000000 ) ) ;
#103 = FACE_OUTER_BOUND ( 'NONE', #28, .T. ) ;
#104 = CC_DESIGN_PERSON_AND_ORGANIZATION_ASSIGNMENT ( #317, #1, ( #125 ) ) ;
#105 = CIRCLE ( 'NONE', #34, 2.449999999999995737 ) ;
#106 = PERSON_AND_ORGANIZATION ( #297, #231 ) ;
#107 = DESIGN_CONTEXT ( 'detailed design', #239, 'design' ) ;
#108 = EDGE_LOOP ( 'NONE', ( #112, #158, #244 ) ) ;
#109 = AXIS2_PLACEMENT_3D ( 'NONE', #227, #253, #221 ) ;
#110 = ADVANCED_FACE ( 'NONE', ( #268 ), #298, .T. ) ;
#111 = ORIENTED_EDGE ( 'NONE', *, *, #311, .F. ) ;
#112 = ORIENTED_EDGE ( 'NONE', *, *, #99, .F. ) ;
#113 = ORIENTED_EDGE ( 'NONE', *, *, #87, .F. ) ;
#114 = MECHANICAL_CONTEXT ( 'NONE', #293, 'mechanical' ) ;
#115 = DIRECTION ( 'NONE',  ( 0.0000000000000000000, 1.000000000000000000, 0.0000000000000000000 ) ) ;
#116 = ORIENTED_EDGE ( 'NONE', *, *, #144, .T. ) ;
#117 = CARTESIAN_POINT ( 'NONE',  ( 2.164718430082742680E-13, -7.592810154713590230E-15, 62.00000000000000000 ) ) ;
#118 = CLOSED_SHELL ( 'NONE', ( #95, #316, #337, #193, #134 ) ) ;
#119 = CARTESIAN_POINT ( 'NONE',  ( 3.000384657910998114E-16, -2.449999999999994404, -3.000384657911018328E-16 ) ) ;
#120 = EDGE_CURVE ( 'NONE', #237, #130, #225, .T. ) ;
#121 = DIRECTION ( 'NONE',  ( -3.491481338843133355E-15, 1.224646799147353207E-16, -1.000000000000000000 ) ) ;
#122 = EDGE_CURVE ( 'NONE', #59, #130, #88, .T. ) ;
#123 = DIRECTION ( 'NONE',  ( -4.275831445896958607E-31, -1.000000000000000000, -1.224646799147353207E-16 ) ) ;
#124 = CYLINDRICAL_SURFACE ( 'NONE', #12, 2.449999999999994404 ) ;
#125 = SECURITY_CLASSIFICATION ( '', '', #211 ) ;
#126 = CC_DESIGN_PERSON_AND_ORGANIZATION_ASSIGNMENT ( #166, #53, ( #2 ) ) ;
#127 = DIRECTION ( 'NONE',  ( -3.491481338843133355E-15, 1.224646799147353207E-16, -1.000000000000000000 ) ) ;
#128 = DATE_AND_TIME ( #168, #176 ) ;
#129 = CALENDAR_DATE ( 2021, 3, 9 ) ;
#130 = VERTEX_POINT ( 'NONE', #21 ) ;
#131 = CC_DESIGN_SECURITY_CLASSIFICATION ( #125, ( #24 ) ) ;
#132 = CC_DESIGN_APPROVAL ( #273, ( #2 ) ) ;
#133 = ORIENTED_EDGE ( 'NONE', *, *, #311, .T. ) ;
#134 = ADVANCED_FACE ( 'NONE', ( #103 ), #208, .T. ) ;
#135 = ORIENTED_EDGE ( 'NONE', *, *, #122, .T. ) ;
#136 = EDGE_LOOP ( 'NONE', ( #60, #36, #84, #281 ) ) ;
#137 = CONICAL_SURFACE ( 'NONE', #246, 2.449999999999993072, 1.029744258676649649 ) ;
#138 = ORIENTED_EDGE ( 'NONE', *, *, #65, .F. ) ;
#139 = FACE_OUTER_BOUND ( 'NONE', #260, .T. ) ;
#140 = APPROVAL_ROLE ( '' ) ;
#141 = DIRECTION ( 'NONE',  ( 0.0000000000000000000, 1.000000000000000000, 0.0000000000000000000 ) ) ;
#142 = ADVANCED_FACE ( 'NONE', ( #25 ), #155, .F. ) ;
#143 = ORIENTED_EDGE ( 'NONE', *, *, #312, .F. ) ;
#144 = EDGE_CURVE ( 'NONE', #5, #192, #45, .T. ) ;
#145 = DIRECTION ( 'NONE',  ( -3.491481338843133355E-15, 1.224646799147353207E-16, -1.000000000000000000 ) ) ;
#146 = APPROVAL_ROLE ( '' ) ;
#147 = DIRECTION ( 'NONE',  ( -3.491481338843133355E-15, 1.224646799147353207E-16, -1.000000000000000000 ) ) ;
#148 = DIRECTION ( 'NONE',  ( 4.275831445896958607E-31, 1.000000000000000000, 1.224646799147353207E-16 ) ) ;
#149 = LOCAL_TIME ( 9, 51, 39.00000000000000000, #217 ) ;
#150 = CARTESIAN_POINT ( 'NONE',  ( 0.0000000000000000000, 0.0000000000000000000, 0.0000000000000000000 ) ) ;
#151 = DIRECTION ( 'NONE',  ( -3.491481338843133355E-15, 1.224646799147353207E-16, -1.000000000000000000 ) ) ;
#152 = DIRECTION ( 'NONE',  ( 0.0000000000000000000, 1.000000000000000000, 0.0000000000000000000 ) ) ;
#153 = CONICAL_SURFACE ( 'NONE', #200, 2.449999999999993072, 1.029744258676649649 ) ;
#154 = PRODUCT ( '54586', '54586', '', ( #114 ) ) ;
#155 = PLANE ( 'NONE',  #256 ) ;
#156 = LINE ( 'NONE', #9, #285 ) ;
#157 = CC_DESIGN_DATE_AND_TIME_ASSIGNMENT ( #286, #325, ( #125 ) ) ;
#158 = ORIENTED_EDGE ( 'NONE', *, *, #87, .T. ) ;
#159 = DIRECTION ( 'NONE',  ( 0.0000000000000000000, 0.0000000000000000000, 1.000000000000000000 ) ) ;
#160 = VECTOR ( 'NONE', #296, 999.9999999999998863 ) ;
#161 =( GEOMETRIC_REPRESENTATION_CONTEXT ( 3 ) GLOBAL_UNCERTAINTY_ASSIGNED_CONTEXT ( ( #235 ) ) GLOBAL_UNIT_ASSIGNED_CONTEXT ( ( #188, #315, #187 ) ) REPRESENTATION_CONTEXT ( 'NONE', 'WORKASPACE' ) );
#162 = VERTEX_POINT ( 'NONE', #150 ) ;
#163 = EDGE_LOOP ( 'NONE', ( #262, #116 ) ) ;
#164 = CC_DESIGN_PERSON_AND_ORGANIZATION_ASSIGNMENT ( #229, #240, ( #24 ) ) ;
#165 = CARTESIAN_POINT ( 'NONE',  ( 0.0000000000000000000, 0.0000000000000000000, 0.0000000000000000000 ) ) ;
#166 = PERSON_AND_ORGANIZATION ( #297, #231 ) ;
#167 = ORIENTED_EDGE ( 'NONE', *, *, #122, .F. ) ;
#168 = CALENDAR_DATE ( 2021, 3, 9 ) ;
#169 = ORIENTED_EDGE ( 'NONE', *, *, #99, .T. ) ;
#170 = AXIS2_PLACEMENT_3D ( 'NONE', #20, #310, #248 ) ;
#171 = LOCAL_TIME ( 9, 51, 39.00000000000000000, #314 ) ;
#172 = DIRECTION ( 'NONE',  ( -3.491481338843133355E-15, 1.224646799147353207E-16, -1.000000000000000000 ) ) ;
#173 = VERTEX_POINT ( 'NONE', #77 ) ;
#174 = DIRECTION ( 'NONE',  ( 3.144375419407740915E-31, 1.000000000000000000, 8.850629979473530663E-17 ) ) ;
#175 = AXIS2_PLACEMENT_3D ( 'NONE', #117, #199, #115 ) ;
#176 = LOCAL_TIME ( 9, 51, 39.00000000000000000, #232 ) ;
#177 = CARTESIAN_POINT ( 'NONE',  ( 2.164718430082742680E-13, -7.592810154713590230E-15, 62.00000000000000000 ) ) ;
#178 = DIRECTION ( 'NONE',  ( 0.0000000000000000000, 1.000000000000000000, 0.0000000000000000000 ) ) ;
#179 = DIRECTION ( 'NONE',  ( -3.491481338843133355E-15, 1.224646799147353207E-16, -1.000000000000000000 ) ) ;
#180 = EDGE_CURVE ( 'NONE', #32, #5, #181, .T. ) ;
#181 = LINE ( 'NONE', #207, #334 ) ;
#182 = AXIS2_PLACEMENT_3D ( 'NONE', #216, #172, #301 ) ;
#183 = LOCAL_TIME ( 9, 51, 39.00000000000000000, #255 ) ;
#184 = CALENDAR_DATE ( 2021, 3, 9 ) ;
#185 = ORIENTED_EDGE ( 'NONE', *, *, #48, .F. ) ;
#186 = EDGE_CURVE ( 'NONE', #234, #59, #190, .T. ) ;
#187 =( NAMED_UNIT ( * ) SI_UNIT ( $, .STERADIAN. ) SOLID_ANGLE_UNIT ( ) );
#188 =( LENGTH_UNIT ( ) NAMED_UNIT ( * ) SI_UNIT ( .MILLI., .METRE. ) );
#189 = ORIENTED_EDGE ( 'NONE', *, *, #120, .F. ) ;
#190 = CIRCLE ( 'NONE', #40, 2.449999999999995737 ) ;
#191 = APPROVAL_PERSON_ORGANIZATION ( #303, #319, #146 ) ;
#192 = VERTEX_POINT ( 'NONE', #76 ) ;
#193 = ADVANCED_FACE ( 'NONE', ( #26 ), #124, .T. ) ;
#194 = ORIENTED_EDGE ( 'NONE', *, *, #35, .F. ) ;
#195 = DIRECTION ( 'NONE',  ( 1.000000000000000000, 0.0000000000000000000, 0.0000000000000000000 ) ) ;
#196 = DIRECTION ( 'NONE',  ( -2.382254525458718258E-15, -0.7071067811865469066, -0.7071067811865482389 ) ) ;
#197 = PERSON_AND_ORGANIZATION_ROLE ( 'design_owner' ) ;
#198 = ORIENTED_EDGE ( 'NONE', *, *, #51, .F. ) ;
#199 = DIRECTION ( 'NONE',  ( -3.491481338843133355E-15, 1.224646799147353207E-16, -1.000000000000000000 ) ) ;
#200 = AXIS2_PLACEMENT_3D ( 'NONE', #250, #226, #336 ) ;
#201 = CARTESIAN_POINT ( 'NONE',  ( 1.425779030236486762E-13, -2.450000000000007727, 61.50000000000000000 ) ) ;
#202 = DIRECTION ( 'NONE',  ( -3.491481338843133355E-15, 1.224646799147353207E-16, -1.000000000000000000 ) ) ;
#203 = FACE_OUTER_BOUND ( 'NONE', #243, .T. ) ;
#204 = AXIS2_PLACEMENT_3D ( 'NONE', #72, #49, #277 ) ;
#205 = ADVANCED_FACE ( 'NONE', ( #333 ), #302, .T. ) ;
#206 = DIRECTION ( 'NONE',  ( 4.275831445896957731E-31, 1.000000000000000000, 1.224646799147353207E-16 ) ) ;
#207 = CARTESIAN_POINT ( 'NONE',  ( 3.000384657911002551E-16, -2.449999999999998401, -3.000384657911023259E-16 ) ) ;
#208 = PLANE ( 'NONE',  #220 ) ;
#209 = APPROVAL_ROLE ( '' ) ;
#210 = CARTESIAN_POINT ( 'NONE',  ( 0.0000000000000000000, 0.0000000000000000000, 0.0000000000000000000 ) ) ;
#211 = SECURITY_CLASSIFICATION_LEVEL ( 'unclassified' ) ;
#212 = ORIENTED_EDGE ( 'NONE', *, *, #35, .T. ) ;
#213 = CC_DESIGN_PERSON_AND_ORGANIZATION_ASSIGNMENT ( #257, #267, ( #24 ) ) ;
#214 = DIRECTION ( 'NONE',  ( -3.491481338843133355E-15, 1.224646799147353207E-16, -1.000000000000000000 ) ) ;
#215 = LINE ( 'NONE', #271, #291 ) ;
#216 = CARTESIAN_POINT ( 'NONE',  ( 2.164718430082742680E-13, -7.592810154713590230E-15, 62.00000000000000000 ) ) ;
#217 = COORDINATED_UNIVERSAL_TIME_OFFSET ( 1, 0, .AHEAD. ) ;
#218 = APPROVAL ( #31, 'UNSPECIFIED' ) ;
#219 = DIRECTION ( 'NONE',  ( 4.275831445896957731E-31, 1.000000000000000000, 1.224646799147353207E-16 ) ) ;
#220 = AXIS2_PLACEMENT_3D ( 'NONE', #44, #52, #123 ) ;
#221 = DIRECTION ( 'NONE',  ( 0.0000000000000000000, 1.000000000000000000, 0.0000000000000000000 ) ) ;
#222 = ADVANCED_BREP_SHAPE_REPRESENTATION ( '54586', ( #254, #30, #287 ), #161 ) ;
#223 = DIRECTION ( 'NONE',  ( -3.491481338843133355E-15, 1.224646799147353207E-16, -1.000000000000000000 ) ) ;
#224 = CARTESIAN_POINT ( 'NONE',  ( 6.982962677686266711E-14, 1.837205733760768454E-32, 20.00000000000000000 ) ) ;
#225 = CIRCLE ( 'NONE', #62, 2.449999999999993072 ) ;
#226 = DIRECTION ( 'NONE',  ( 3.491481338843133355E-15, -1.224646799147353207E-16, 1.000000000000000000 ) ) ;
#227 = CARTESIAN_POINT ( 'NONE',  ( 2.147261023388527077E-13, -7.531577814756222656E-15, 61.50000000000000000 ) ) ;
#228 = DATE_AND_TIME ( #184, #183 ) ;
#229 = PERSON_AND_ORGANIZATION ( #297, #231 ) ;
#230 = AXIS2_PLACEMENT_3D ( 'NONE', #279, #100, #206 ) ;
#231 = ORGANIZATION ( 'UNSPECIFIED', 'UNSPECIFIED', '' ) ;
#232 = COORDINATED_UNIVERSAL_TIME_OFFSET ( 1, 0, .AHEAD. ) ;
#233 = EDGE_CURVE ( 'NONE', #284, #32, #269, .T. ) ;
#234 = VERTEX_POINT ( 'NONE', #305 ) ;
#235 = UNCERTAINTY_MEASURE_WITH_UNIT (LENGTH_MEASURE( 1.000000000000000082E-05 ), #188, 'distance_accuracy_value', 'NONE');
#236 = ORIENTED_EDGE ( 'NONE', *, *, #65, .T. ) ;
#237 = VERTEX_POINT ( 'NONE', #96 ) ;
#238 = EDGE_CURVE ( 'NONE', #59, #234, #105, .T. ) ;
#239 = APPLICATION_CONTEXT ( 'configuration controlled 3d designs of mechanical parts and assemblies' ) ;
#240 = PERSON_AND_ORGANIZATION_ROLE ( 'creator' ) ;
#241 = ORIENTED_EDGE ( 'NONE', *, *, #238, .T. ) ;
#242 = CIRCLE ( 'NONE', #109, 2.450000000000000178 ) ;
#243 = EDGE_LOOP ( 'NONE', ( #138, #111 ) ) ;
#244 = ORIENTED_EDGE ( 'NONE', *, *, #120, .T. ) ;
#245 = CARTESIAN_POINT ( 'NONE',  ( 5.439877880313271596E-15, 2.449999999999993072, 1.472108516617534946 ) ) ;
#246 = AXIS2_PLACEMENT_3D ( 'NONE', #11, #79, #259 ) ;
#247 = APPROVAL_PERSON_ORGANIZATION ( #106, #273, #209 ) ;
#248 = DIRECTION ( 'NONE',  ( 0.0000000000000000000, 1.000000000000000000, 0.0000000000000000000 ) ) ;
#249 = DIRECTION ( 'NONE',  ( -4.275831445896958607E-31, -1.000000000000000000, -1.224646799147353207E-16 ) ) ;
#250 = CARTESIAN_POINT ( 'NONE',  ( 5.139839414522169221E-15, -1.802812982873222132E-16, 1.472108516617534724 ) ) ;
#251 = AXIS2_PLACEMENT_3D ( 'NONE', #98, #47, #174 ) ;
#252 = CARTESIAN_POINT ( 'NONE',  ( 2.164718430082742680E-13, 1.462265788095299946E-32, 62.00000000000000000 ) ) ;
#253 = DIRECTION ( 'NONE',  ( -3.491481338843133355E-15, 1.224646799147353207E-16, -1.000000000000000000 ) ) ;
#254 = MANIFOLD_SOLID_BREP ( 'Corps-Déplacer/Copier1[1]', #318 ) ;
#255 = COORDINATED_UNIVERSAL_TIME_OFFSET ( 1, 0, .AHEAD. ) ;
#256 = AXIS2_PLACEMENT_3D ( 'NONE', #224, #335, #249 ) ;
#257 = PERSON_AND_ORGANIZATION ( #297, #231 ) ;
#258 = ORIENTED_EDGE ( 'NONE', *, *, #186, .T. ) ;
#259 = DIRECTION ( 'NONE',  ( -3.144375419407740915E-31, -1.000000000000000000, -8.850629979473530663E-17 ) ) ;
#260 = EDGE_LOOP ( 'NONE', ( #185, #133, #266, #68 ) ) ;
#261 = EDGE_CURVE ( 'NONE', #130, #237, #275, .T. ) ;
#262 = ORIENTED_EDGE ( 'NONE', *, *, #312, .T. ) ;
#263 = ORIENTED_EDGE ( 'NONE', *, *, #238, .F. ) ;
#264 = DIRECTION ( 'NONE',  ( -3.491481338843133355E-15, 1.224646799147353207E-16, -1.000000000000000000 ) ) ;
#265 = DATE_AND_TIME ( #129, #307 ) ;
#266 = ORIENTED_EDGE ( 'NONE', *, *, #321, .T. ) ;
#267 = PERSON_AND_ORGANIZATION_ROLE ( 'design_supplier' ) ;
#268 = FACE_OUTER_BOUND ( 'NONE', #16, .T. ) ;
#269 = CIRCLE ( 'NONE', #204, 2.450000000000000178 ) ;
#270 = CC_DESIGN_APPROVAL ( #218, ( #24 ) ) ;
#271 = CARTESIAN_POINT ( 'NONE',  ( 1.047578704244753974E-30, 2.449999999999998401, 3.000384657911013398E-16 ) ) ;
#272 = ORIENTED_EDGE ( 'NONE', *, *, #48, .T. ) ;
#273 = APPROVAL ( #282, 'UNSPECIFIED' ) ;
#274 = DIRECTION ( 'NONE',  ( -3.491481338843133355E-15, 1.224646799147353207E-16, -1.000000000000000000 ) ) ;
#275 = CIRCLE ( 'NONE', #251, 2.449999999999993072 ) ;
#276 = CARTESIAN_POINT ( 'NONE',  ( 6.982962677686266711E-14, -2.449293598294706513E-15, 20.00000000000000000 ) ) ;
#277 = DIRECTION ( 'NONE',  ( 0.0000000000000000000, 1.000000000000000000, 0.0000000000000000000 ) ) ;
#278 = CARTESIAN_POINT ( 'NONE',  ( 6.982962677686266711E-14, -2.449293598294706513E-15, 20.00000000000000000 ) ) ;
#279 = CARTESIAN_POINT ( 'NONE',  ( 0.0000000000000000000, 0.0000000000000000000, 0.0000000000000000000 ) ) ;
#280 = PERSON_AND_ORGANIZATION ( #297, #231 ) ;
#281 = ORIENTED_EDGE ( 'NONE', *, *, #144, .F. ) ;
#282 = APPROVAL_STATUS ( 'not_yet_approved' ) ;
#283 = CC_DESIGN_DATE_AND_TIME_ASSIGNMENT ( #228, #67, ( #2 ) ) ;
#284 = VERTEX_POINT ( 'NONE', #332 ) ;
#285 = VECTOR ( 'NONE', #295, 1000.000000000000000 ) ;
#286 = DATE_AND_TIME ( #4, #171 ) ;
#287 = AXIS2_PLACEMENT_3D ( 'NONE', #210, #159, #195 ) ;
#288 = ADVANCED_FACE ( 'NONE', ( #203 ), #22, .F. ) ;
#289 = EDGE_LOOP ( 'NONE', ( #167, #241, #212, #92 ) ) ;
#290 = FACE_OUTER_BOUND ( 'NONE', #56, .T. ) ;
#291 = VECTOR ( 'NONE', #264, 1000.000000000000000 ) ;
#292 = COORDINATED_UNIVERSAL_TIME_OFFSET ( 1, 0, .AHEAD. ) ;
#293 = APPLICATION_CONTEXT ( 'configuration controlled 3d designs of mechanical parts and assemblies' ) ;
#294 = CARTESIAN_POINT ( 'NONE',  ( 1.047578704244752398E-30, 2.449999999999994404, 3.000384657911008467E-16 ) ) ;
#295 = DIRECTION ( 'NONE',  ( -2.468850131082267316E-15, 0.7071067811865471286, -0.7071067811865479058 ) ) ;
#296 = DIRECTION ( 'NONE',  ( 1.903218546456022717E-15, 0.8571673007021097801, 0.5150380749100585964 ) ) ;
#297 = PERSON ( 'UNSPECIFIED', 'UNSPECIFIED', 'UNSPECIFIED', ('UNSPECIFIED'), ('UNSPECIFIED'), ('UNSPECIFIED') ) ;
#298 = CYLINDRICAL_SURFACE ( 'NONE', #329, 2.449999999999998401 ) ;
#299 = AXIS2_PLACEMENT_3D ( 'NONE', #177, #151, #308 ) ;
#300 = APPROVAL_STATUS ( 'not_yet_approved' ) ;
#301 = DIRECTION ( 'NONE',  ( 0.0000000000000000000, 1.000000000000000000, 0.0000000000000000000 ) ) ;
#302 = CYLINDRICAL_SURFACE ( 'NONE', #230, 2.449999999999998401 ) ;
#303 = PERSON_AND_ORGANIZATION ( #297, #231 ) ;
#304 = EDGE_CURVE ( 'NONE', #32, #284, #242, .T. ) ;
#305 = CARTESIAN_POINT ( 'NONE',  ( 6.982962677686266711E-14, 2.449999999999993072, 20.00000000000000000 ) ) ;
#306 = AXIS2_PLACEMENT_3D ( 'NONE', #165, #145, #41 ) ;
#307 = LOCAL_TIME ( 9, 51, 39.00000000000000000, #292 ) ;
#308 = DIRECTION ( 'NONE',  ( 0.0000000000000000000, 1.000000000000000000, 0.0000000000000000000 ) ) ;
#309 = CARTESIAN_POINT ( 'NONE',  ( 0.0000000000000000000, 0.0000000000000000000, 0.0000000000000000000 ) ) ;
#310 = DIRECTION ( 'NONE',  ( -3.491481338843133355E-15, 1.224646799147353207E-16, -1.000000000000000000 ) ) ;
#311 = EDGE_CURVE ( 'NONE', #173, #85, #57, .T. ) ;
#312 = EDGE_CURVE ( 'NONE', #192, #5, #313, .T. ) ;
#313 = CIRCLE ( 'NONE', #78, 2.449999999999995737 ) ;
#314 = COORDINATED_UNIVERSAL_TIME_OFFSET ( 1, 0, .AHEAD. ) ;
#315 =( NAMED_UNIT ( * ) PLANE_ANGLE_UNIT ( ) SI_UNIT ( $, .RADIAN. ) );
#316 = ADVANCED_FACE ( 'NONE', ( #330 ), #153, .T. ) ;
#317 = PERSON_AND_ORGANIZATION ( #297, #231 ) ;
#318 = CLOSED_SHELL ( 'NONE', ( #91, #110, #142, #205, #33, #288 ) ) ;
#319 = APPROVAL ( #300, 'UNSPECIFIED' ) ;
#320 = DIRECTION ( 'NONE',  ( -3.491481338843133355E-15, 1.224646799147353207E-16, -1.000000000000000000 ) ) ;
#321 = EDGE_CURVE ( 'NONE', #85, #284, #156, .T. ) ;
#322 = AXIS2_PLACEMENT_3D ( 'NONE', #252, #127, #73 ) ;
#323 = CARTESIAN_POINT ( 'NONE',  ( 2.167106491341079902E-13, -1.950000000000008171, 62.00000000000000000 ) ) ;
#324 = CYLINDRICAL_SURFACE ( 'NONE', #306, 2.449999999999994404 ) ;
#325 = DATE_TIME_ROLE ( 'classification_date' ) ;
#326 = CARTESIAN_POINT ( 'NONE',  ( 3.778477156148348465E-14, -2.449999999999998401, 20.00000000000000000 ) ) ;
#327 = APPROVAL_DATE_TIME ( #331, #319 ) ;
#328 = DIRECTION ( 'NONE',  ( 3.144375419407740915E-31, 1.000000000000000000, 8.850629979473530663E-17 ) ) ;
#329 = AXIS2_PLACEMENT_3D ( 'NONE', #42, #320, #219 ) ;
#330 = FACE_OUTER_BOUND ( 'NONE', #108, .T. ) ;
#331 = DATE_AND_TIME ( #19, #149 ) ;
#332 = CARTESIAN_POINT ( 'NONE',  ( 2.147261023388527077E-13, 2.449999999999993072, 61.50000000000000000 ) ) ;
#333 = FACE_OUTER_BOUND ( 'NONE', #136, .T. ) ;
#334 = VECTOR ( 'NONE', #121, 1000.000000000000000 ) ;
#335 = DIRECTION ( 'NONE',  ( 3.491481338843133355E-15, -1.224646799147353207E-16, 1.000000000000000000 ) ) ;
#336 = DIRECTION ( 'NONE',  ( -3.144375419407740915E-31, -1.000000000000000000, -8.850629979473530663E-17 ) ) ;
#337 = ADVANCED_FACE ( 'NONE', ( #55 ), #137, .T. ) ;
ENDSEC;
END-ISO-10303-21;
