ISO-10303-21;
HEADER;
FILE_DESCRIPTION (( 'STEP AP203' ),
    '1' );
FILE_NAME ('54585.step',
    '2021-09-03T07:51:35',
    ( '' ),
    ( '' ),
    'SwSTEP 2.0',
    'SolidWorks 2019',
    '' );
FILE_SCHEMA (( 'CONFIG_CONTROL_DESIGN' ));
ENDSEC;

DATA;
#1 = ADVANCED_FACE ( 'NONE', ( #258 ), #199, .T. ) ;
#2 = DIRECTION ( 'NONE',  ( -3.491481338843133355E-15, 1.224646799147353207E-16, -1.000000000000000000 ) ) ;
#3 = DIRECTION ( 'NONE',  ( -3.491481338843133355E-15, 1.224646799147353207E-16, -1.000000000000000000 ) ) ;
#4 = AXIS2_PLACEMENT_3D ( 'NONE', #85, #88, #162 ) ;
#5 = DIRECTION ( 'NONE',  ( 0.0000000000000000000, 1.000000000000000000, 0.0000000000000000000 ) ) ;
#6 = PRODUCT_DEFINITION ( 'UNKNOWN', '', #186, #243 ) ;
#7 = CARTESIAN_POINT ( 'NONE',  ( 0.0000000000000000000, 0.0000000000000000000, 0.0000000000000000000 ) ) ;
#8 = CYLINDRICAL_SURFACE ( 'NONE', #86, 2.424999999999993605 ) ;
#9 = CC_DESIGN_DATE_AND_TIME_ASSIGNMENT ( #336, #226, ( #75 ) ) ;
#10 = FACE_OUTER_BOUND ( 'NONE', #305, .T. ) ;
#11 = VECTOR ( 'NONE', #292, 1000.000000000000000 ) ;
#12 = CARTESIAN_POINT ( 'NONE',  ( 0.0000000000000000000, 0.0000000000000000000, 0.0000000000000000000 ) ) ;
#13 = EDGE_CURVE ( 'NONE', #21, #195, #232, .T. ) ;
#14 =( LENGTH_UNIT ( ) NAMED_UNIT ( * ) SI_UNIT ( .MILLI., .METRE. ) );
#15 = CIRCLE ( 'NONE', #81, 2.424999999999999822 ) ;
#16 = APPROVAL ( #306, 'UNSPECIFIED' ) ;
#17 = EDGE_CURVE ( 'NONE', #337, #286, #91, .T. ) ;
#18 = CARTESIAN_POINT ( 'NONE',  ( 2.158653333523780008E-13, -1.925000000000007372, 62.00000000000000000 ) ) ;
#19 = PERSON_AND_ORGANIZATION ( #179, #302 ) ;
#20 = APPROVAL ( #50, 'UNSPECIFIED' ) ;
#21 = VERTEX_POINT ( 'NONE', #137 ) ;
#22 = CONICAL_SURFACE ( 'NONE', #64, 1.924999999999999822, 0.7853981633974476129 ) ;
#23 = EDGE_LOOP ( 'NONE', ( #248, #84 ) ) ;
#24 = PERSON_AND_ORGANIZATION ( #179, #302 ) ;
#25 = ORIENTED_EDGE ( 'NONE', *, *, #77, .F. ) ;
#26 = COORDINATED_UNIVERSAL_TIME_OFFSET ( 1, 0, .AHEAD. ) ;
#27 = CARTESIAN_POINT ( 'NONE',  ( 6.982962677686266711E-14, 1.818458736477494549E-32, 20.00000000000000000 ) ) ;
#28 = VECTOR ( 'NONE', #185, 999.9999999999998863 ) ;
#29 = AXIS2_PLACEMENT_3D ( 'NONE', #68, #95, #70 ) ;
#30 = PERSON_AND_ORGANIZATION ( #179, #302 ) ;
#31 = ORIENTED_EDGE ( 'NONE', *, *, #217, .F. ) ;
#32 = PLANE ( 'NONE',  #40 ) ;
#33 = CARTESIAN_POINT ( 'NONE',  ( 2.164718430082742680E-13, 1.924999999999992273, 62.00000000000000000 ) ) ;
#34 = AXIS2_PLACEMENT_3D ( 'NONE', #247, #298, #246 ) ;
#35 = DIRECTION ( 'NONE',  ( 3.176791660844935290E-31, 1.000000000000000000, 8.941873587509343549E-17 ) ) ;
#36 = DIRECTION ( 'NONE',  ( -2.382254525458718258E-15, -0.7071067811865469066, -0.7071067811865482389 ) ) ;
#37 = PRODUCT_DEFINITION_SHAPE ( 'NONE', 'NONE',  #6 ) ;
#38 = LINE ( 'NONE', #65, #161 ) ;
#39 = DIRECTION ( 'NONE',  ( -3.491481338843133355E-15, 1.224646799147353207E-16, -1.000000000000000000 ) ) ;
#40 = AXIS2_PLACEMENT_3D ( 'NONE', #236, #3, #111 ) ;
#41 = DIRECTION ( 'NONE',  ( -3.176791660844935290E-31, -1.000000000000000000, -8.941873587509343549E-17 ) ) ;
#42 = CARTESIAN_POINT ( 'NONE',  ( 6.982962677686266711E-14, -2.449293598294706513E-15, 20.00000000000000000 ) ) ;
#43 = EDGE_CURVE ( 'NONE', #312, #21, #208, .T. ) ;
#44 = EDGE_LOOP ( 'NONE', ( #331, #178, #110, #148 ) ) ;
#45 = AXIS2_PLACEMENT_3D ( 'NONE', #27, #109, #235 ) ;
#46 = DIRECTION ( 'NONE',  ( 3.491481338843133355E-15, -1.224646799147353207E-16, 1.000000000000000000 ) ) ;
#47 = PERSON_AND_ORGANIZATION ( #179, #302 ) ;
#48 = VERTEX_POINT ( 'NONE', #241 ) ;
#49 = APPROVAL ( #76, 'UNSPECIFIED' ) ;
#50 = APPROVAL_STATUS ( 'not_yet_approved' ) ;
#51 = ORIENTED_EDGE ( 'NONE', *, *, #67, .T. ) ;
#52 = AXIS2_PLACEMENT_3D ( 'NONE', #290, #134, #5 ) ;
#53 = ORIENTED_EDGE ( 'NONE', *, *, #193, .T. ) ;
#54 = APPROVAL_ROLE ( '' ) ;
#55 = EDGE_LOOP ( 'NONE', ( #106, #313, #130, #255 ) ) ;
#56 = EDGE_CURVE ( 'NONE', #225, #286, #238, .T. ) ;
#57 = SECURITY_CLASSIFICATION_LEVEL ( 'unclassified' ) ;
#58 = ORIENTED_EDGE ( 'NONE', *, *, #94, .T. ) ;
#59 = CC_DESIGN_APPROVAL ( #49, ( #6 ) ) ;
#60 = DIRECTION ( 'NONE',  ( 0.0000000000000000000, 1.000000000000000000, 0.0000000000000000000 ) ) ;
#61 = DIRECTION ( 'NONE',  ( -3.491481338843133355E-15, 1.224646799147353207E-16, -1.000000000000000000 ) ) ;
#62 = EDGE_CURVE ( 'NONE', #195, #176, #163, .T. ) ;
#63 = CARTESIAN_POINT ( 'NONE',  ( 2.164718430082742680E-13, -7.592810154713590230E-15, 62.00000000000000000 ) ) ;
#64 = AXIS2_PLACEMENT_3D ( 'NONE', #265, #61, #60 ) ;
#65 = CARTESIAN_POINT ( 'NONE',  ( 2.969768487932318665E-16, -2.424999999999997602, -2.969768487932338880E-16 ) ) ;
#66 = LINE ( 'NONE', #187, #11 ) ;
#67 = EDGE_CURVE ( 'NONE', #195, #21, #15, .T. ) ;
#68 = CARTESIAN_POINT ( 'NONE',  ( 0.0000000000000000000, 0.0000000000000000000, 0.0000000000000000000 ) ) ;
#69 = FACE_OUTER_BOUND ( 'NONE', #127, .T. ) ;
#70 = DIRECTION ( 'NONE',  ( 4.275831445896958607E-31, 1.000000000000000000, 1.224646799147353207E-16 ) ) ;
#71 = CC_DESIGN_PERSON_AND_ORGANIZATION_ASSIGNMENT ( #201, #231, ( #6 ) ) ;
#72 =( NAMED_UNIT ( * ) SI_UNIT ( $, .STERADIAN. ) SOLID_ANGLE_UNIT ( ) );
#73 = EDGE_CURVE ( 'NONE', #21, #103, #38, .T. ) ;
#74 = CARTESIAN_POINT ( 'NONE',  ( 0.0000000000000000000, 0.0000000000000000000, 0.0000000000000000000 ) ) ;
#75 = SECURITY_CLASSIFICATION ( '', '', #57 ) ;
#76 = APPROVAL_STATUS ( 'not_yet_approved' ) ;
#77 = EDGE_CURVE ( 'NONE', #48, #80, #121, .T. ) ;
#78 = CARTESIAN_POINT ( 'NONE',  ( 5.087392073557655833E-15, -1.784416932027576618E-16, 1.457087001141845306 ) ) ;
#79 = APPROVAL_DATE_TIME ( #334, #20 ) ;
#80 = VERTEX_POINT ( 'NONE', #133 ) ;
#81 = AXIS2_PLACEMENT_3D ( 'NONE', #182, #216, #316 ) ;
#82 = ORIENTED_EDGE ( 'NONE', *, *, #193, .F. ) ;
#83 = COORDINATED_UNIVERSAL_TIME_OFFSET ( 1, 0, .AHEAD. ) ;
#84 = ORIENTED_EDGE ( 'NONE', *, *, #138, .T. ) ;
#85 = CARTESIAN_POINT ( 'NONE',  ( 5.087392073557655833E-15, -1.784416932027576618E-16, 1.457087001141845306 ) ) ;
#86 = AXIS2_PLACEMENT_3D ( 'NONE', #7, #288, #159 ) ;
#87 = CARTESIAN_POINT ( 'NONE',  ( 5.384368922350888883E-15, 2.424999999999992273, 1.457087001141845528 ) ) ;
#88 = DIRECTION ( 'NONE',  ( -3.491481338843133355E-15, 1.224646799147353207E-16, -1.000000000000000000 ) ) ;
#89 = APPLICATION_CONTEXT ( 'configuration controlled 3d designs of mechanical parts and assemblies' ) ;
#90 = DIRECTION ( 'NONE',  ( 0.0000000000000000000, 1.000000000000000000, 0.0000000000000000000 ) ) ;
#91 = CIRCLE ( 'NONE', #274, 2.424999999999992273 ) ;
#92 = AXIS2_PLACEMENT_3D ( 'NONE', #63, #263, #114 ) ;
#93 = DIRECTION ( 'NONE',  ( 4.275831445896958607E-31, 1.000000000000000000, 1.224646799147353207E-16 ) ) ;
#94 = EDGE_CURVE ( 'NONE', #286, #337, #234, .T. ) ;
#95 = DIRECTION ( 'NONE',  ( -3.491481338843133355E-15, 1.224646799147353207E-16, -1.000000000000000000 ) ) ;
#96 = DIRECTION ( 'NONE',  ( 3.491481338843133355E-15, -1.224646799147353207E-16, 1.000000000000000000 ) ) ;
#97 = CIRCLE ( 'NONE', #107, 2.424999999999994937 ) ;
#98 = CARTESIAN_POINT ( 'NONE',  ( 5.384368922350888883E-15, 2.424999999999992273, 1.457087001141845528 ) ) ;
#99 = CARTESIAN_POINT ( 'NONE',  ( 2.164718430082742680E-13, 1.924999999999992273, 62.00000000000000000 ) ) ;
#100 = CALENDAR_DATE ( 2021, 3, 9 ) ;
#101 =( GEOMETRIC_REPRESENTATION_CONTEXT ( 3 ) GLOBAL_UNCERTAINTY_ASSIGNED_CONTEXT ( ( #116 ) ) GLOBAL_UNIT_ASSIGNED_CONTEXT ( ( #14, #120, #72 ) ) REPRESENTATION_CONTEXT ( 'NONE', 'WORKASPACE' ) );
#102 = ORIENTED_EDGE ( 'NONE', *, *, #17, .F. ) ;
#103 = VERTEX_POINT ( 'NONE', #180 ) ;
#104 = ADVANCED_FACE ( 'NONE', ( #242 ), #8, .T. ) ;
#105 = DATE_TIME_ROLE ( 'creation_date' ) ;
#106 = ORIENTED_EDGE ( 'NONE', *, *, #73, .F. ) ;
#107 = AXIS2_PLACEMENT_3D ( 'NONE', #267, #160, #140 ) ;
#108 = PERSON_AND_ORGANIZATION ( #179, #302 ) ;
#109 = DIRECTION ( 'NONE',  ( 3.491481338843133355E-15, -1.224646799147353207E-16, 1.000000000000000000 ) ) ;
#110 = ORIENTED_EDGE ( 'NONE', *, *, #94, .F. ) ;
#111 = DIRECTION ( 'NONE',  ( 4.275831445896958607E-31, 1.000000000000000000, 1.224646799147353207E-16 ) ) ;
#112 = APPROVAL_PERSON_ORGANIZATION ( #19, #16, #54 ) ;
#113 = CARTESIAN_POINT ( 'NONE',  ( 2.164718430082742680E-13, -7.592810154713590230E-15, 62.00000000000000000 ) ) ;
#114 = DIRECTION ( 'NONE',  ( 0.0000000000000000000, 1.000000000000000000, 0.0000000000000000000 ) ) ;
#115 = FACE_OUTER_BOUND ( 'NONE', #310, .T. ) ;
#116 = UNCERTAINTY_MEASURE_WITH_UNIT (LENGTH_MEASURE( 1.000000000000000082E-05 ), #14, 'distance_accuracy_value', 'NONE');
#117 = CONICAL_SURFACE ( 'NONE', #314, 2.424999999999992273, 1.029744258676649649 ) ;
#118 = CARTESIAN_POINT ( 'NONE',  ( 2.167075875171101161E-13, -1.925000000000007372, 62.00000000000000000 ) ) ;
#119 = LINE ( 'NONE', #99, #170 ) ;
#120 =( NAMED_UNIT ( * ) PLANE_ANGLE_UNIT ( ) SI_UNIT ( $, .RADIAN. ) );
#121 = CIRCLE ( 'NONE', #136, 2.424999999999994937 ) ;
#122 = ADVANCED_FACE ( 'NONE', ( #115 ), #22, .T. ) ;
#123 = ORIENTED_EDGE ( 'NONE', *, *, #224, .F. ) ;
#124 = CC_DESIGN_PERSON_AND_ORGANIZATION_ASSIGNMENT ( #47, #279, ( #215 ) ) ;
#125 = ORIENTED_EDGE ( 'NONE', *, *, #230, .F. ) ;
#126 = COORDINATED_UNIVERSAL_TIME_OFFSET ( 1, 0, .AHEAD. ) ;
#127 = EDGE_LOOP ( 'NONE', ( #203, #307, #227 ) ) ;
#128 = ADVANCED_FACE ( 'NONE', ( #261 ), #262, .T. ) ;
#129 = DATE_AND_TIME ( #330, #157 ) ;
#130 = ORIENTED_EDGE ( 'NONE', *, *, #62, .T. ) ;
#131 = VERTEX_POINT ( 'NONE', #33 ) ;
#132 = EDGE_CURVE ( 'NONE', #48, #286, #66, .T. ) ;
#133 = CARTESIAN_POINT ( 'NONE',  ( 3.775548627400335705E-14, -2.424999999999997602, 20.00000000000000000 ) ) ;
#134 = DIRECTION ( 'NONE',  ( -3.491481338843133355E-15, 1.224646799147353207E-16, -1.000000000000000000 ) ) ;
#135 = CC_DESIGN_PERSON_AND_ORGANIZATION_ASSIGNMENT ( #205, #309, ( #75 ) ) ;
#136 = AXIS2_PLACEMENT_3D ( 'NONE', #139, #319, #90 ) ;
#137 = CARTESIAN_POINT ( 'NONE',  ( 1.425748414066508021E-13, -2.425000000000006928, 61.50000000000000000 ) ) ;
#138 = EDGE_CURVE ( 'NONE', #103, #176, #97, .T. ) ;
#139 = CARTESIAN_POINT ( 'NONE',  ( 6.982962677686266711E-14, -2.449293598294706513E-15, 20.00000000000000000 ) ) ;
#140 = DIRECTION ( 'NONE',  ( 0.0000000000000000000, 1.000000000000000000, 0.0000000000000000000 ) ) ;
#141 = CC_DESIGN_SECURITY_CLASSIFICATION ( #75, ( #186 ) ) ;
#142 = CYLINDRICAL_SURFACE ( 'NONE', #29, 2.424999999999997602 ) ;
#143 = DIRECTION ( 'NONE',  ( 3.491481338843133355E-15, -1.224646799147353207E-16, 1.000000000000000000 ) ) ;
#144 = MANIFOLD_SOLID_BREP ( 'Corps-Déplacer/Copier1[1]', #202 ) ;
#145 = ORIENTED_EDGE ( 'NONE', *, *, #67, .F. ) ;
#146 = CLOSED_SHELL ( 'NONE', ( #244, #239, #266, #104, #1 ) ) ;
#147 = AXIS2_PLACEMENT_3D ( 'NONE', #165, #143, #41 ) ;
#148 = ORIENTED_EDGE ( 'NONE', *, *, #132, .F. ) ;
#149 = PERSON_AND_ORGANIZATION_ROLE ( 'design_supplier' ) ;
#150 = ORIENTED_EDGE ( 'NONE', *, *, #132, .T. ) ;
#151 = CIRCLE ( 'NONE', #281, 1.924999999999999822 ) ;
#152 = ORIENTED_EDGE ( 'NONE', *, *, #217, .T. ) ;
#153 = APPROVAL_DATE_TIME ( #129, #16 ) ;
#154 = ORIENTED_EDGE ( 'NONE', *, *, #192, .T. ) ;
#155 = DIRECTION ( 'NONE',  ( -3.491481338843133355E-15, 1.224646799147353207E-16, -1.000000000000000000 ) ) ;
#156 = AXIS2_PLACEMENT_3D ( 'NONE', #12, #218, #294 ) ;
#157 = LOCAL_TIME ( 9, 51, 35.00000000000000000, #303 ) ;
#158 = DIRECTION ( 'NONE',  ( -3.491481338843133355E-15, 1.224646799147353207E-16, -1.000000000000000000 ) ) ;
#159 = DIRECTION ( 'NONE',  ( 4.275831445896958607E-31, 1.000000000000000000, 1.224646799147353207E-16 ) ) ;
#160 = DIRECTION ( 'NONE',  ( -3.491481338843133355E-15, 1.224646799147353207E-16, -1.000000000000000000 ) ) ;
#161 = VECTOR ( 'NONE', #318, 1000.000000000000000 ) ;
#162 = DIRECTION ( 'NONE',  ( 3.176791660844935290E-31, 1.000000000000000000, 8.941873587509343549E-17 ) ) ;
#163 = LINE ( 'NONE', #291, #213 ) ;
#164 = CC_DESIGN_PERSON_AND_ORGANIZATION_ASSIGNMENT ( #24, #149, ( #186 ) ) ;
#165 = CARTESIAN_POINT ( 'NONE',  ( 5.087392073557655833E-15, -1.784416932027576618E-16, 1.457087001141845306 ) ) ;
#166 = CIRCLE ( 'NONE', #34, 2.424999999999994937 ) ;
#167 = LINE ( 'NONE', #322, #324 ) ;
#168 = AXIS2_PLACEMENT_3D ( 'NONE', #206, #155, #260 ) ;
#169 = CARTESIAN_POINT ( 'NONE',  ( 5.087392073557655833E-15, -1.784416932027576618E-16, 1.457087001141845306 ) ) ;
#170 = VECTOR ( 'NONE', #327, 1000.000000000000000 ) ;
#171 = PERSON_AND_ORGANIZATION ( #179, #302 ) ;
#172 = ORIENTED_EDGE ( 'NONE', *, *, #192, .F. ) ;
#173 = EDGE_LOOP ( 'NONE', ( #123, #278, #58 ) ) ;
#174 = EDGE_LOOP ( 'NONE', ( #51, #207, #233, #335 ) ) ;
#175 = APPLICATION_PROTOCOL_DEFINITION ( 'international standard', 'config_control_design', 1994, #89 ) ;
#176 = VERTEX_POINT ( 'NONE', #245 ) ;
#177 = DATE_AND_TIME ( #283, #321 ) ;
#178 = ORIENTED_EDGE ( 'NONE', *, *, #230, .T. ) ;
#179 = PERSON ( 'UNSPECIFIED', 'UNSPECIFIED', 'UNSPECIFIED', ('UNSPECIFIED'), ('UNSPECIFIED'), ('UNSPECIFIED') ) ;
#180 = CARTESIAN_POINT ( 'NONE',  ( 1.425748414066509031E-13, -2.424999999999997602, 20.00000000000000000 ) ) ;
#181 = AXIS2_PLACEMENT_3D ( 'NONE', #250, #46, #268 ) ;
#182 = CARTESIAN_POINT ( 'NONE',  ( 2.147261023388527077E-13, -7.531577814756222656E-15, 61.50000000000000000 ) ) ;
#183 = DIRECTION ( 'NONE',  ( 0.0000000000000000000, 1.000000000000000000, 0.0000000000000000000 ) ) ;
#184 = ADVANCED_FACE ( 'NONE', ( #10 ), #32, .F. ) ;
#185 = DIRECTION ( 'NONE',  ( 1.903218546456022717E-15, 0.8571673007021097801, 0.5150380749100585964 ) ) ;
#186 = PRODUCT_DEFINITION_FORMATION_WITH_SPECIFIED_SOURCE ( 'ANY', '', #215, .NOT_KNOWN. ) ;
#187 = CARTESIAN_POINT ( 'NONE',  ( 1.036889125630009690E-30, 2.424999999999993605, 2.969768487932323596E-16 ) ) ;
#188 = LINE ( 'NONE', #196, #264 ) ;
#189 = ADVANCED_FACE ( 'NONE', ( #315 ), #240, .T. ) ;
#190 = DIRECTION ( 'NONE',  ( 4.275831445896958607E-31, 1.000000000000000000, 1.224646799147353207E-16 ) ) ;
#191 = DIRECTION ( 'NONE',  ( -3.491481338843133355E-15, 1.224646799147353207E-16, -1.000000000000000000 ) ) ;
#192 = EDGE_CURVE ( 'NONE', #312, #131, #151, .T. ) ;
#193 = EDGE_CURVE ( 'NONE', #131, #312, #269, .T. ) ;
#194 = FACE_OUTER_BOUND ( 'NONE', #55, .T. ) ;
#195 = VERTEX_POINT ( 'NONE', #211 ) ;
#196 = CARTESIAN_POINT ( 'NONE',  ( 5.087392073557655045E-15, -2.424999999999992273, 1.457087001141845084 ) ) ;
#197 = APPROVAL_PERSON_ORGANIZATION ( #171, #49, #277 ) ;
#198 = DATE_AND_TIME ( #100, #214 ) ;
#199 = PLANE ( 'NONE',  #45 ) ;
#200 = ORIENTED_EDGE ( 'NONE', *, *, #43, .T. ) ;
#201 = PERSON_AND_ORGANIZATION ( #179, #302 ) ;
#202 = CLOSED_SHELL ( 'NONE', ( #122, #128, #209, #272, #189, #184 ) ) ;
#203 = ORIENTED_EDGE ( 'NONE', *, *, #56, .F. ) ;
#204 = CIRCLE ( 'NONE', #308, 2.424999999999994937 ) ;
#205 = PERSON_AND_ORGANIZATION ( #179, #302 ) ;
#206 = CARTESIAN_POINT ( 'NONE',  ( 2.147261023388527077E-13, -7.531577814756222656E-15, 61.50000000000000000 ) ) ;
#207 = ORIENTED_EDGE ( 'NONE', *, *, #73, .T. ) ;
#208 = LINE ( 'NONE', #118, #320 ) ;
#209 = ADVANCED_FACE ( 'NONE', ( #251 ), #276, .F. ) ;
#210 = DIRECTION ( 'NONE',  ( -3.491481338843133355E-15, 1.224646799147353207E-16, -1.000000000000000000 ) ) ;
#211 = CARTESIAN_POINT ( 'NONE',  ( 2.147261023388527077E-13, 2.424999999999992273, 61.50000000000000000 ) ) ;
#212 = CARTESIAN_POINT ( 'NONE',  ( 0.0000000000000000000, 0.0000000000000000000, 0.0000000000000000000 ) ) ;
#213 = VECTOR ( 'NONE', #289, 1000.000000000000000 ) ;
#214 = LOCAL_TIME ( 9, 51, 35.00000000000000000, #252 ) ;
#215 = PRODUCT ( '54585', '54585', '', ( #323 ) ) ;
#216 = DIRECTION ( 'NONE',  ( -3.491481338843133355E-15, 1.224646799147353207E-16, -1.000000000000000000 ) ) ;
#217 = EDGE_CURVE ( 'NONE', #80, #48, #204, .T. ) ;
#218 = DIRECTION ( 'NONE',  ( 0.0000000000000000000, 0.0000000000000000000, 1.000000000000000000 ) ) ;
#219 = FACE_OUTER_BOUND ( 'NONE', #173, .T. ) ;
#220 = CONICAL_SURFACE ( 'NONE', #147, 2.424999999999992273, 1.029744258676649649 ) ;
#221 = DIRECTION ( 'NONE',  ( 0.0000000000000000000, 1.000000000000000000, 0.0000000000000000000 ) ) ;
#222 = CARTESIAN_POINT ( 'NONE',  ( 0.0000000000000000000, 0.0000000000000000000, 0.0000000000000000000 ) ) ;
#223 = APPLICATION_CONTEXT ( 'configuration controlled 3d designs of mechanical parts and assemblies' ) ;
#224 = EDGE_CURVE ( 'NONE', #225, #337, #188, .T. ) ;
#225 = VERTEX_POINT ( 'NONE', #222 ) ;
#226 = DATE_TIME_ROLE ( 'classification_date' ) ;
#227 = ORIENTED_EDGE ( 'NONE', *, *, #17, .T. ) ;
#228 = CALENDAR_DATE ( 2021, 3, 9 ) ;
#229 = ORIENTED_EDGE ( 'NONE', *, *, #300, .F. ) ;
#230 = EDGE_CURVE ( 'NONE', #80, #337, #167, .T. ) ;
#231 = PERSON_AND_ORGANIZATION_ROLE ( 'creator' ) ;
#232 = CIRCLE ( 'NONE', #168, 2.424999999999999822 ) ;
#233 = ORIENTED_EDGE ( 'NONE', *, *, #296, .F. ) ;
#234 = CIRCLE ( 'NONE', #4, 2.424999999999992273 ) ;
#235 = DIRECTION ( 'NONE',  ( -4.275831445896958607E-31, -1.000000000000000000, -1.224646799147353207E-16 ) ) ;
#236 = CARTESIAN_POINT ( 'NONE',  ( 2.164718430082742680E-13, 1.443518790812026589E-32, 62.00000000000000000 ) ) ;
#237 = PRODUCT_RELATED_PRODUCT_CATEGORY ( 'detail', '', ( #215 ) ) ;
#238 = LINE ( 'NONE', #87, #28 ) ;
#239 = ADVANCED_FACE ( 'NONE', ( #219 ), #220, .T. ) ;
#240 = CONICAL_SURFACE ( 'NONE', #52, 1.924999999999999822, 0.7853981633974476129 ) ;
#241 = CARTESIAN_POINT ( 'NONE',  ( 6.982962677686266711E-14, 2.424999999999992273, 20.00000000000000000 ) ) ;
#242 = FACE_OUTER_BOUND ( 'NONE', #284, .T. ) ;
#243 = DESIGN_CONTEXT ( 'detailed design', #89, 'design' ) ;
#244 = ADVANCED_FACE ( 'NONE', ( #299 ), #293, .T. ) ;
#245 = CARTESIAN_POINT ( 'NONE',  ( 6.982962677686266711E-14, 2.424999999999992273, 20.00000000000000000 ) ) ;
#246 = DIRECTION ( 'NONE',  ( 0.0000000000000000000, 1.000000000000000000, 0.0000000000000000000 ) ) ;
#247 = CARTESIAN_POINT ( 'NONE',  ( 6.982962677686266711E-14, -2.449293598294706513E-15, 20.00000000000000000 ) ) ;
#248 = ORIENTED_EDGE ( 'NONE', *, *, #296, .T. ) ;
#249 = AXIS2_PLACEMENT_3D ( 'NONE', #212, #158, #93 ) ;
#250 = CARTESIAN_POINT ( 'NONE',  ( 6.982962677686266711E-14, 1.818458736477494549E-32, 20.00000000000000000 ) ) ;
#251 = FACE_OUTER_BOUND ( 'NONE', #23, .T. ) ;
#252 = COORDINATED_UNIVERSAL_TIME_OFFSET ( 1, 0, .AHEAD. ) ;
#253 = ORIENTED_EDGE ( 'NONE', *, *, #300, .T. ) ;
#254 = CC_DESIGN_APPROVAL ( #16, ( #186 ) ) ;
#255 = ORIENTED_EDGE ( 'NONE', *, *, #138, .F. ) ;
#256 = EDGE_LOOP ( 'NONE', ( #25, #31 ) ) ;
#257 = CALENDAR_DATE ( 2021, 3, 9 ) ;
#258 = FACE_OUTER_BOUND ( 'NONE', #256, .T. ) ;
#259 = MANIFOLD_SOLID_BREP ( 'Corps-Déplacer/Copier1[2]', #146 ) ;
#260 = DIRECTION ( 'NONE',  ( 0.0000000000000000000, 1.000000000000000000, 0.0000000000000000000 ) ) ;
#261 = FACE_OUTER_BOUND ( 'NONE', #174, .T. ) ;
#262 = CYLINDRICAL_SURFACE ( 'NONE', #249, 2.424999999999997602 ) ;
#263 = DIRECTION ( 'NONE',  ( -3.491481338843133355E-15, 1.224646799147353207E-16, -1.000000000000000000 ) ) ;
#264 = VECTOR ( 'NONE', #271, 1000.000000000000000 ) ;
#265 = CARTESIAN_POINT ( 'NONE',  ( 2.164718430082742680E-13, -7.592810154713590230E-15, 62.00000000000000000 ) ) ;
#266 = ADVANCED_FACE ( 'NONE', ( #69 ), #117, .T. ) ;
#267 = CARTESIAN_POINT ( 'NONE',  ( 6.982962677686266711E-14, -2.449293598294706513E-15, 20.00000000000000000 ) ) ;
#268 = DIRECTION ( 'NONE',  ( -4.275831445896958607E-31, -1.000000000000000000, -1.224646799147353207E-16 ) ) ;
#269 = CIRCLE ( 'NONE', #92, 1.924999999999999822 ) ;
#270 = APPLICATION_PROTOCOL_DEFINITION ( 'international standard', 'config_control_design', 1994, #223 ) ;
#271 = DIRECTION ( 'NONE',  ( 1.798245827342160317E-15, -0.8571673007021098911, 0.5150380749100582634 ) ) ;
#272 = ADVANCED_FACE ( 'NONE', ( #194 ), #142, .T. ) ;
#273 = CARTESIAN_POINT ( 'NONE',  ( 5.087392073557655045E-15, -2.424999999999992273, 1.457087001141845084 ) ) ;
#274 = AXIS2_PLACEMENT_3D ( 'NONE', #78, #2, #35 ) ;
#275 = AXIS2_PLACEMENT_3D ( 'NONE', #74, #191, #190 ) ;
#276 = PLANE ( 'NONE',  #181 ) ;
#277 = APPROVAL_ROLE ( '' ) ;
#278 = ORIENTED_EDGE ( 'NONE', *, *, #56, .T. ) ;
#279 = PERSON_AND_ORGANIZATION_ROLE ( 'design_owner' ) ;
#280 = ORIENTED_EDGE ( 'NONE', *, *, #13, .F. ) ;
#281 = AXIS2_PLACEMENT_3D ( 'NONE', #113, #210, #183 ) ;
#282 = ORIENTED_EDGE ( 'NONE', *, *, #43, .F. ) ;
#283 = CALENDAR_DATE ( 2021, 3, 9 ) ;
#284 = EDGE_LOOP ( 'NONE', ( #125, #152, #150, #102 ) ) ;
#285 = SHAPE_DEFINITION_REPRESENTATION ( #37, #332 ) ;
#286 = VERTEX_POINT ( 'NONE', #98 ) ;
#287 = APPROVAL_PERSON_ORGANIZATION ( #108, #20, #311 ) ;
#288 = DIRECTION ( 'NONE',  ( -3.491481338843133355E-15, 1.224646799147353207E-16, -1.000000000000000000 ) ) ;
#289 = DIRECTION ( 'NONE',  ( -3.491481338843133355E-15, 1.224646799147353207E-16, -1.000000000000000000 ) ) ;
#290 = CARTESIAN_POINT ( 'NONE',  ( 2.164718430082742680E-13, -7.592810154713590230E-15, 62.00000000000000000 ) ) ;
#291 = CARTESIAN_POINT ( 'NONE',  ( 1.036889125630011442E-30, 2.424999999999997602, 2.969768487932328526E-16 ) ) ;
#292 = DIRECTION ( 'NONE',  ( -3.491481338843133355E-15, 1.224646799147353207E-16, -1.000000000000000000 ) ) ;
#293 = CYLINDRICAL_SURFACE ( 'NONE', #275, 2.424999999999993605 ) ;
#294 = DIRECTION ( 'NONE',  ( 1.000000000000000000, 0.0000000000000000000, 0.0000000000000000000 ) ) ;
#295 = CC_DESIGN_APPROVAL ( #20, ( #75 ) ) ;
#296 = EDGE_CURVE ( 'NONE', #176, #103, #166, .T. ) ;
#297 = DIRECTION ( 'NONE',  ( -3.491481338843133355E-15, 1.224646799147353207E-16, -1.000000000000000000 ) ) ;
#298 = DIRECTION ( 'NONE',  ( -3.491481338843133355E-15, 1.224646799147353207E-16, -1.000000000000000000 ) ) ;
#299 = FACE_OUTER_BOUND ( 'NONE', #44, .T. ) ;
#300 = EDGE_CURVE ( 'NONE', #131, #195, #119, .T. ) ;
#301 = LOCAL_TIME ( 9, 51, 35.00000000000000000, #126 ) ;
#302 = ORGANIZATION ( 'UNSPECIFIED', 'UNSPECIFIED', '' ) ;
#303 = COORDINATED_UNIVERSAL_TIME_OFFSET ( 1, 0, .AHEAD. ) ;
#304 = PERSON_AND_ORGANIZATION_ROLE ( 'creator' ) ;
#305 = EDGE_LOOP ( 'NONE', ( #82, #172 ) ) ;
#306 = APPROVAL_STATUS ( 'not_yet_approved' ) ;
#307 = ORIENTED_EDGE ( 'NONE', *, *, #224, .T. ) ;
#308 = AXIS2_PLACEMENT_3D ( 'NONE', #42, #297, #221 ) ;
#309 = PERSON_AND_ORGANIZATION_ROLE ( 'classification_officer' ) ;
#310 = EDGE_LOOP ( 'NONE', ( #53, #200, #145, #229 ) ) ;
#311 = APPROVAL_ROLE ( '' ) ;
#312 = VERTEX_POINT ( 'NONE', #18 ) ;
#313 = ORIENTED_EDGE ( 'NONE', *, *, #13, .T. ) ;
#314 = AXIS2_PLACEMENT_3D ( 'NONE', #169, #96, #325 ) ;
#315 = FACE_OUTER_BOUND ( 'NONE', #333, .T. ) ;
#316 = DIRECTION ( 'NONE',  ( 0.0000000000000000000, 1.000000000000000000, 0.0000000000000000000 ) ) ;
#317 = CC_DESIGN_DATE_AND_TIME_ASSIGNMENT ( #177, #105, ( #6 ) ) ;
#318 = DIRECTION ( 'NONE',  ( -3.491481338843133355E-15, 1.224646799147353207E-16, -1.000000000000000000 ) ) ;
#319 = DIRECTION ( 'NONE',  ( -3.491481338843133355E-15, 1.224646799147353207E-16, -1.000000000000000000 ) ) ;
#320 = VECTOR ( 'NONE', #36, 999.9999999999998863 ) ;
#321 = LOCAL_TIME ( 9, 51, 35.00000000000000000, #26 ) ;
#322 = CARTESIAN_POINT ( 'NONE',  ( 2.969768487932313735E-16, -2.424999999999993605, -2.969768487932333949E-16 ) ) ;
#323 = MECHANICAL_CONTEXT ( 'NONE', #223, 'mechanical' ) ;
#324 = VECTOR ( 'NONE', #39, 1000.000000000000000 ) ;
#325 = DIRECTION ( 'NONE',  ( -3.176791660844935290E-31, -1.000000000000000000, -8.941873587509343549E-17 ) ) ;
#326 = CC_DESIGN_PERSON_AND_ORGANIZATION_ASSIGNMENT ( #30, #304, ( #186 ) ) ;
#327 = DIRECTION ( 'NONE',  ( -2.468850131082267316E-15, 0.7071067811865471286, -0.7071067811865479058 ) ) ;
#328 = APPROVAL_DATE_TIME ( #198, #49 ) ;
#329 = LOCAL_TIME ( 9, 51, 35.00000000000000000, #83 ) ;
#330 = CALENDAR_DATE ( 2021, 3, 9 ) ;
#331 = ORIENTED_EDGE ( 'NONE', *, *, #77, .T. ) ;
#332 = ADVANCED_BREP_SHAPE_REPRESENTATION ( '54585', ( #144, #259, #156 ), #101 ) ;
#333 = EDGE_LOOP ( 'NONE', ( #282, #154, #253, #280 ) ) ;
#334 = DATE_AND_TIME ( #228, #329 ) ;
#335 = ORIENTED_EDGE ( 'NONE', *, *, #62, .F. ) ;
#336 = DATE_AND_TIME ( #257, #301 ) ;
#337 = VERTEX_POINT ( 'NONE', #273 ) ;
ENDSEC;
END-ISO-10303-21;
