ISO-10303-21;
HEADER;
FILE_DESCRIPTION (( 'STEP AP203' ),
    '1' );
FILE_NAME ('54584.step',
    '2021-09-03T07:51:31',
    ( '' ),
    ( '' ),
    'SwSTEP 2.0',
    'SolidWorks 2019',
    '' );
FILE_SCHEMA (( 'CONFIG_CONTROL_DESIGN' ));
ENDSEC;

DATA;
#1 = ADVANCED_FACE ( 'NONE', ( #309 ), #233, .T. ) ;
#2 = LINE ( 'NONE', #235, #58 ) ;
#3 = CC_DESIGN_APPROVAL ( #129, ( #271 ) ) ;
#4 = CIRCLE ( 'NONE', #198, 1.900000000000000355 ) ;
#5 = AXIS2_PLACEMENT_3D ( 'NONE', #294, #320, #195 ) ;
#6 = PERSON_AND_ORGANIZATION_ROLE ( 'design_owner' ) ;
#7 = VERTEX_POINT ( 'NONE', #307 ) ;
#8 = CC_DESIGN_PERSON_AND_ORGANIZATION_ASSIGNMENT ( #274, #6, ( #234 ) ) ;
#9 = ORIENTED_EDGE ( 'NONE', *, *, #82, .F. ) ;
#10 = DIRECTION ( 'NONE',  ( -3.491481338843133355E-15, 1.224646799147353207E-16, -1.000000000000000000 ) ) ;
#11 = ADVANCED_FACE ( 'NONE', ( #20 ), #101, .T. ) ;
#12 =( LENGTH_UNIT ( ) NAMED_UNIT ( * ) SI_UNIT ( .MILLI., .METRE. ) );
#13 = VERTEX_POINT ( 'NONE', #179 ) ;
#14 = FACE_OUTER_BOUND ( 'NONE', #177, .T. ) ;
#15 = ORIENTED_EDGE ( 'NONE', *, *, #77, .T. ) ;
#16 = EDGE_CURVE ( 'NONE', #319, #13, #326, .T. ) ;
#17 = VERTEX_POINT ( 'NONE', #227 ) ;
#18 = AXIS2_PLACEMENT_3D ( 'NONE', #112, #210, #267 ) ;
#19 = APPLICATION_CONTEXT ( 'configuration controlled 3d designs of mechanical parts and assemblies' ) ;
#20 = FACE_OUTER_BOUND ( 'NONE', #330, .T. ) ;
#21 = APPROVAL_STATUS ( 'not_yet_approved' ) ;
#22 = DIRECTION ( 'NONE',  ( 1.798245827342160317E-15, -0.8571673007021098911, 0.5150380749100582634 ) ) ;
#23 = PRODUCT_DEFINITION_SHAPE ( 'NONE', 'NONE',  #201 ) ;
#24 = EDGE_CURVE ( 'NONE', #13, #107, #29, .T. ) ;
#25 = DIRECTION ( 'NONE',  ( -3.491481338843133355E-15, 1.224646799147353207E-16, -1.000000000000000000 ) ) ;
#26 = SECURITY_CLASSIFICATION_LEVEL ( 'unclassified' ) ;
#27 =( GEOMETRIC_REPRESENTATION_CONTEXT ( 3 ) GLOBAL_UNCERTAINTY_ASSIGNED_CONTEXT ( ( #116 ) ) GLOBAL_UNIT_ASSIGNED_CONTEXT ( ( #12, #192, #93 ) ) REPRESENTATION_CONTEXT ( 'NONE', 'WORKASPACE' ) );
#28 = ORIENTED_EDGE ( 'NONE', *, *, #82, .T. ) ;
#29 = CIRCLE ( 'NONE', #331, 2.399999999999992806 ) ;
#30 = CIRCLE ( 'NONE', #18, 2.400000000000000355 ) ;
#31 = DIRECTION ( 'NONE',  ( -3.209883240645402868E-31, -1.000000000000000000, -9.035018104045897811E-17 ) ) ;
#32 = FACE_OUTER_BOUND ( 'NONE', #244, .T. ) ;
#33 = CARTESIAN_POINT ( 'NONE',  ( 1.425717797896530038E-13, -2.399999999999998135, 20.00000000000000000 ) ) ;
#34 = AXIS2_PLACEMENT_3D ( 'NONE', #315, #336, #108 ) ;
#35 = CYLINDRICAL_SURFACE ( 'NONE', #312, 2.399999999999994138 ) ;
#36 = DIRECTION ( 'NONE',  ( 3.209883240645402868E-31, 1.000000000000000000, 9.035018104045897811E-17 ) ) ;
#37 = ADVANCED_BREP_SHAPE_REPRESENTATION ( '54584', ( #142, #247, #5 ), #27 ) ;
#38 = DATE_TIME_ROLE ( 'creation_date' ) ;
#39 = CONICAL_SURFACE ( 'NONE', #256, 1.900000000000000355, 0.7853981633974476129 ) ;
#40 = AXIS2_PLACEMENT_3D ( 'NONE', #103, #203, #257 ) ;
#41 = DATE_AND_TIME ( #270, #104 ) ;
#42 = APPLICATION_CONTEXT ( 'configuration controlled 3d designs of mechanical parts and assemblies' ) ;
#43 = CARTESIAN_POINT ( 'NONE',  ( 1.026199547015267683E-30, 2.399999999999994138, 2.939152317953640696E-16 ) ) ;
#44 = ORIENTED_EDGE ( 'NONE', *, *, #157, .F. ) ;
#45 = DIRECTION ( 'NONE',  ( 4.275831445896959482E-31, 1.000000000000000000, 1.224646799147353207E-16 ) ) ;
#46 = ORIENTED_EDGE ( 'NONE', *, *, #111, .T. ) ;
#47 = DIRECTION ( 'NONE',  ( 0.0000000000000000000, 1.000000000000000000, 0.0000000000000000000 ) ) ;
#48 = VERTEX_POINT ( 'NONE', #200 ) ;
#49 = DIRECTION ( 'NONE',  ( 4.275831445896957731E-31, 1.000000000000000000, 1.224646799147353207E-16 ) ) ;
#50 = ORIENTED_EDGE ( 'NONE', *, *, #277, .T. ) ;
#51 = LOCAL_TIME ( 9, 51, 31.00000000000000000, #66 ) ;
#52 = EDGE_CURVE ( 'NONE', #319, #107, #258, .T. ) ;
#53 = DIRECTION ( 'NONE',  ( -3.491481338843133355E-15, 1.224646799147353207E-16, -1.000000000000000000 ) ) ;
#54 = DATE_AND_TIME ( #325, #283 ) ;
#55 = DIRECTION ( 'NONE',  ( -3.491481338843133355E-15, 1.224646799147353207E-16, -1.000000000000000000 ) ) ;
#56 = EDGE_LOOP ( 'NONE', ( #246, #228, #281, #310 ) ) ;
#57 = DIRECTION ( 'NONE',  ( 0.0000000000000000000, 1.000000000000000000, 0.0000000000000000000 ) ) ;
#58 = VECTOR ( 'NONE', #86, 1000.000000000000000 ) ;
#59 = CARTESIAN_POINT ( 'NONE',  ( 6.982962677686266711E-14, -2.449293598294706513E-15, 20.00000000000000000 ) ) ;
#60 = CARTESIAN_POINT ( 'NONE',  ( 2.164718430082742680E-13, 1.424771793528753506E-32, 62.00000000000000000 ) ) ;
#61 = CARTESIAN_POINT ( 'NONE',  ( 2.939152317953630342E-16, -2.399999999999994138, -2.939152317953650557E-16 ) ) ;
#62 = CONICAL_SURFACE ( 'NONE', #316, 1.900000000000000355, 0.7853981633974476129 ) ;
#63 = ADVANCED_FACE ( 'NONE', ( #76 ), #286, .F. ) ;
#64 = CARTESIAN_POINT ( 'NONE',  ( 6.982962677686266711E-14, 2.399999999999992806, 20.00000000000000000 ) ) ;
#65 = APPROVAL_ROLE ( '' ) ;
#66 = COORDINATED_UNIVERSAL_TIME_OFFSET ( 1, 0, .AHEAD. ) ;
#67 = AXIS2_PLACEMENT_3D ( 'NONE', #185, #113, #167 ) ;
#68 = EDGE_CURVE ( 'NONE', #220, #231, #284, .T. ) ;
#69 = EDGE_LOOP ( 'NONE', ( #158, #297, #197, #249 ) ) ;
#70 = PERSON_AND_ORGANIZATION ( #190, #264 ) ;
#71 = CALENDAR_DATE ( 2021, 3, 9 ) ;
#72 = ADVANCED_FACE ( 'NONE', ( #128 ), #229, .T. ) ;
#73 = CONICAL_SURFACE ( 'NONE', #67, 2.399999999999992806, 1.029744258676649649 ) ;
#74 = AXIS2_PLACEMENT_3D ( 'NONE', #269, #166, #57 ) ;
#75 = ORIENTED_EDGE ( 'NONE', *, *, #97, .F. ) ;
#76 = FACE_OUTER_BOUND ( 'NONE', #91, .T. ) ;
#77 = EDGE_CURVE ( 'NONE', #175, #231, #263, .T. ) ;
#78 = CARTESIAN_POINT ( 'NONE',  ( 2.939152317953634780E-16, -2.399999999999997691, -2.939152317953654994E-16 ) ) ;
#79 = ORIENTED_EDGE ( 'NONE', *, *, #92, .T. ) ;
#80 = PRODUCT_RELATED_PRODUCT_CATEGORY ( 'detail', '', ( #234 ) ) ;
#81 = VERTEX_POINT ( 'NONE', #84 ) ;
#82 = EDGE_CURVE ( 'NONE', #7, #17, #4, .T. ) ;
#83 = CC_DESIGN_APPROVAL ( #240, ( #201 ) ) ;
#84 = CARTESIAN_POINT ( 'NONE',  ( 6.982962677686266711E-14, 2.399999999999992806, 20.00000000000000000 ) ) ;
#85 = CARTESIAN_POINT ( 'NONE',  ( 5.034944732593144812E-15, -1.766020881181931844E-16, 1.442065485666156333 ) ) ;
#86 = DIRECTION ( 'NONE',  ( -3.491481338843133355E-15, 1.224646799147353207E-16, -1.000000000000000000 ) ) ;
#87 = DIRECTION ( 'NONE',  ( 0.0000000000000000000, 1.000000000000000000, 0.0000000000000000000 ) ) ;
#88 = AXIS2_PLACEMENT_3D ( 'NONE', #163, #178, #261 ) ;
#89 = MECHANICAL_CONTEXT ( 'NONE', #19, 'mechanical' ) ;
#90 = PERSON_AND_ORGANIZATION_ROLE ( 'creator' ) ;
#91 = EDGE_LOOP ( 'NONE', ( #15, #176 ) ) ;
#92 = EDGE_CURVE ( 'NONE', #149, #175, #2, .T. ) ;
#93 =( NAMED_UNIT ( * ) SI_UNIT ( $, .STERADIAN. ) SOLID_ANGLE_UNIT ( ) );
#94 = EDGE_LOOP ( 'NONE', ( #275, #278 ) ) ;
#95 = AXIS2_PLACEMENT_3D ( 'NONE', #85, #291, #31 ) ;
#96 = ORIENTED_EDGE ( 'NONE', *, *, #245, .F. ) ;
#97 = EDGE_CURVE ( 'NONE', #107, #13, #100, .T. ) ;
#98 = PERSON_AND_ORGANIZATION ( #190, #264 ) ;
#99 = CC_DESIGN_PERSON_AND_ORGANIZATION_ASSIGNMENT ( #70, #260, ( #204 ) ) ;
#100 = CIRCLE ( 'NONE', #115, 2.399999999999992806 ) ;
#101 = CYLINDRICAL_SURFACE ( 'NONE', #252, 2.399999999999997691 ) ;
#102 = DIRECTION ( 'NONE',  ( -3.491481338843133355E-15, 1.224646799147353207E-16, -1.000000000000000000 ) ) ;
#103 = CARTESIAN_POINT ( 'NONE',  ( 0.0000000000000000000, 0.0000000000000000000, 0.0000000000000000000 ) ) ;
#104 = LOCAL_TIME ( 9, 51, 31.00000000000000000, #273 ) ;
#105 = PERSON_AND_ORGANIZATION_ROLE ( 'classification_officer' ) ;
#106 = DIRECTION ( 'NONE',  ( 1.903218546456022717E-15, 0.8571673007021097801, 0.5150380749100585964 ) ) ;
#107 = VERTEX_POINT ( 'NONE', #135 ) ;
#108 = DIRECTION ( 'NONE',  ( 0.0000000000000000000, 1.000000000000000000, 0.0000000000000000000 ) ) ;
#109 = VECTOR ( 'NONE', #265, 1000.000000000000000 ) ;
#110 = DIRECTION ( 'NONE',  ( 4.275831445896958607E-31, 1.000000000000000000, 1.224646799147353207E-16 ) ) ;
#111 = EDGE_CURVE ( 'NONE', #48, #81, #335, .T. ) ;
#112 = CARTESIAN_POINT ( 'NONE',  ( 2.147261023388527077E-13, -7.531577814756222656E-15, 61.50000000000000000 ) ) ;
#113 = DIRECTION ( 'NONE',  ( 3.491481338843133355E-15, -1.224646799147353207E-16, 1.000000000000000000 ) ) ;
#114 = DIRECTION ( 'NONE',  ( 3.491481338843133355E-15, -1.224646799147353207E-16, 1.000000000000000000 ) ) ;
#115 = AXIS2_PLACEMENT_3D ( 'NONE', #237, #266, #36 ) ;
#116 = UNCERTAINTY_MEASURE_WITH_UNIT (LENGTH_MEASURE( 1.000000000000000082E-05 ), #12, 'distance_accuracy_value', 'NONE');
#117 = AXIS2_PLACEMENT_3D ( 'NONE', #285, #55, #162 ) ;
#118 = ORIENTED_EDGE ( 'NONE', *, *, #24, .T. ) ;
#119 = CARTESIAN_POINT ( 'NONE',  ( 2.164718430082742680E-13, -7.592810154713590230E-15, 62.00000000000000000 ) ) ;
#120 = EDGE_LOOP ( 'NONE', ( #280, #146, #118 ) ) ;
#121 = CC_DESIGN_PERSON_AND_ORGANIZATION_ASSIGNMENT ( #243, #90, ( #201 ) ) ;
#122 = CC_DESIGN_DATE_AND_TIME_ASSIGNMENT ( #54, #279, ( #271 ) ) ;
#123 = CARTESIAN_POINT ( 'NONE',  ( 0.0000000000000000000, 0.0000000000000000000, 0.0000000000000000000 ) ) ;
#124 = EDGE_LOOP ( 'NONE', ( #44, #9 ) ) ;
#125 = CARTESIAN_POINT ( 'NONE',  ( 5.328859964388509326E-15, 2.399999999999992806, 1.442065485666156555 ) ) ;
#126 = CC_DESIGN_SECURITY_CLASSIFICATION ( #271, ( #204 ) ) ;
#127 = CARTESIAN_POINT ( 'NONE',  ( 0.0000000000000000000, 0.0000000000000000000, 0.0000000000000000000 ) ) ;
#128 = FACE_OUTER_BOUND ( 'NONE', #161, .T. ) ;
#129 = APPROVAL ( #21, 'UNSPECIFIED' ) ;
#130 = APPROVAL_ROLE ( '' ) ;
#131 = ORIENTED_EDGE ( 'NONE', *, *, #202, .F. ) ;
#132 = EDGE_CURVE ( 'NONE', #220, #149, #183, .T. ) ;
#133 = DATE_AND_TIME ( #206, #188 ) ;
#134 = ORIENTED_EDGE ( 'NONE', *, *, #97, .T. ) ;
#135 = CARTESIAN_POINT ( 'NONE',  ( 5.034944732593144023E-15, -2.399999999999992806, 1.442065485666156111 ) ) ;
#136 = ADVANCED_FACE ( 'NONE', ( #189 ), #137, .F. ) ;
#137 = PLANE ( 'NONE',  #222 ) ;
#138 = DIRECTION ( 'NONE',  ( 0.0000000000000000000, 1.000000000000000000, 0.0000000000000000000 ) ) ;
#139 = ADVANCED_FACE ( 'NONE', ( #317 ), #73, .T. ) ;
#140 = PLANE ( 'NONE',  #145 ) ;
#141 = DIRECTION ( 'NONE',  ( 0.0000000000000000000, 1.000000000000000000, 0.0000000000000000000 ) ) ;
#142 = MANIFOLD_SOLID_BREP ( 'Corps-Déplacer/Copier1[1]', #205 ) ;
#143 = ADVANCED_FACE ( 'NONE', ( #187 ), #140, .T. ) ;
#144 = LINE ( 'NONE', #43, #329 ) ;
#145 = AXIS2_PLACEMENT_3D ( 'NONE', #184, #114, #313 ) ;
#146 = ORIENTED_EDGE ( 'NONE', *, *, #16, .T. ) ;
#147 = CALENDAR_DATE ( 2021, 3, 9 ) ;
#148 = APPLICATION_PROTOCOL_DEFINITION ( 'international standard', 'config_control_design', 1994, #19 ) ;
#149 = VERTEX_POINT ( 'NONE', #311 ) ;
#150 = ADVANCED_FACE ( 'NONE', ( #32 ), #39, .T. ) ;
#151 = DIRECTION ( 'NONE',  ( -3.491481338843133355E-15, 1.224646799147353207E-16, -1.000000000000000000 ) ) ;
#152 = CIRCLE ( 'NONE', #193, 1.900000000000000355 ) ;
#153 = ORIENTED_EDGE ( 'NONE', *, *, #52, .T. ) ;
#154 = VECTOR ( 'NONE', #106, 999.9999999999998863 ) ;
#155 = CARTESIAN_POINT ( 'NONE',  ( 6.982962677686266711E-14, -2.449293598294706513E-15, 20.00000000000000000 ) ) ;
#156 = DIRECTION ( 'NONE',  ( -3.491481338843133355E-15, 1.224646799147353207E-16, -1.000000000000000000 ) ) ;
#157 = EDGE_CURVE ( 'NONE', #17, #7, #152, .T. ) ;
#158 = ORIENTED_EDGE ( 'NONE', *, *, #194, .T. ) ;
#159 = LOCAL_TIME ( 9, 51, 31.00000000000000000, #322 ) ;
#160 = APPROVAL_DATE_TIME ( #133, #129 ) ;
#161 = EDGE_LOOP ( 'NONE', ( #96, #46, #50, #75 ) ) ;
#162 = DIRECTION ( 'NONE',  ( 4.275831445896959482E-31, 1.000000000000000000, 1.224646799147353207E-16 ) ) ;
#163 = CARTESIAN_POINT ( 'NONE',  ( 6.982962677686266711E-14, 1.799711739194222013E-32, 20.00000000000000000 ) ) ;
#164 = AXIS2_PLACEMENT_3D ( 'NONE', #259, #25, #87 ) ;
#165 = LINE ( 'NONE', #61, #109 ) ;
#166 = DIRECTION ( 'NONE',  ( -3.491481338843133355E-15, 1.224646799147353207E-16, -1.000000000000000000 ) ) ;
#167 = DIRECTION ( 'NONE',  ( -3.209883240645402868E-31, -1.000000000000000000, -9.035018104045897811E-17 ) ) ;
#168 = DIRECTION ( 'NONE',  ( -2.468850131082267316E-15, 0.7071067811865471286, -0.7071067811865479058 ) ) ;
#169 = CARTESIAN_POINT ( 'NONE',  ( 2.167045259001122673E-13, -1.900000000000008127, 62.00000000000000000 ) ) ;
#170 = APPROVAL_DATE_TIME ( #171, #240 ) ;
#171 = DATE_AND_TIME ( #71, #159 ) ;
#172 = APPROVAL_PERSON_ORGANIZATION ( #98, #129, #130 ) ;
#173 = PERSON_AND_ORGANIZATION ( #190, #264 ) ;
#174 = APPROVAL_ROLE ( '' ) ;
#175 = VERTEX_POINT ( 'NONE', #64 ) ;
#176 = ORIENTED_EDGE ( 'NONE', *, *, #308, .T. ) ;
#177 = EDGE_LOOP ( 'NONE', ( #199, #301, #255, #328 ) ) ;
#178 = DIRECTION ( 'NONE',  ( 3.491481338843133355E-15, -1.224646799147353207E-16, 1.000000000000000000 ) ) ;
#179 = CARTESIAN_POINT ( 'NONE',  ( 5.328859964388509326E-15, 2.399999999999992806, 1.442065485666156555 ) ) ;
#180 = CARTESIAN_POINT ( 'NONE',  ( 5.034944732593144812E-15, -1.766020881181931844E-16, 1.442065485666156333 ) ) ;
#181 = CC_DESIGN_PERSON_AND_ORGANIZATION_ASSIGNMENT ( #306, #105, ( #271 ) ) ;
#182 = DIRECTION ( 'NONE',  ( -3.491481338843133355E-15, 1.224646799147353207E-16, -1.000000000000000000 ) ) ;
#183 = CIRCLE ( 'NONE', #34, 2.400000000000000355 ) ;
#184 = CARTESIAN_POINT ( 'NONE',  ( 6.982962677686266711E-14, 1.799711739194222013E-32, 20.00000000000000000 ) ) ;
#185 = CARTESIAN_POINT ( 'NONE',  ( 5.034944732593144812E-15, -1.766020881181931844E-16, 1.442065485666156333 ) ) ;
#186 = CC_DESIGN_PERSON_AND_ORGANIZATION_ASSIGNMENT ( #298, #221, ( #204 ) ) ;
#187 = FACE_OUTER_BOUND ( 'NONE', #94, .T. ) ;
#188 = LOCAL_TIME ( 9, 51, 31.00000000000000000, #327 ) ;
#189 = FACE_OUTER_BOUND ( 'NONE', #124, .T. ) ;
#190 = PERSON ( 'UNSPECIFIED', 'UNSPECIFIED', 'UNSPECIFIED', ('UNSPECIFIED'), ('UNSPECIFIED'), ('UNSPECIFIED') ) ;
#191 = ORIENTED_EDGE ( 'NONE', *, *, #16, .F. ) ;
#192 =( NAMED_UNIT ( * ) PLANE_ANGLE_UNIT ( ) SI_UNIT ( $, .RADIAN. ) );
#193 = AXIS2_PLACEMENT_3D ( 'NONE', #215, #334, #337 ) ;
#194 = EDGE_CURVE ( 'NONE', #149, #220, #30, .T. ) ;
#195 = DIRECTION ( 'NONE',  ( 1.000000000000000000, 0.0000000000000000000, 0.0000000000000000000 ) ) ;
#196 = DATE_AND_TIME ( #147, #51 ) ;
#197 = ORIENTED_EDGE ( 'NONE', *, *, #77, .F. ) ;
#198 = AXIS2_PLACEMENT_3D ( 'NONE', #209, #239, #138 ) ;
#199 = ORIENTED_EDGE ( 'NONE', *, *, #157, .T. ) ;
#200 = CARTESIAN_POINT ( 'NONE',  ( 3.772620098652323576E-14, -2.399999999999998135, 20.00000000000000000 ) ) ;
#201 = PRODUCT_DEFINITION ( 'UNKNOWN', '', #204, #223 ) ;
#202 = EDGE_CURVE ( 'NONE', #7, #220, #268, .T. ) ;
#203 = DIRECTION ( 'NONE',  ( -3.491481338843133355E-15, 1.224646799147353207E-16, -1.000000000000000000 ) ) ;
#204 = PRODUCT_DEFINITION_FORMATION_WITH_SPECIFIED_SOURCE ( 'ANY', '', #234, .NOT_KNOWN. ) ;
#205 = CLOSED_SHELL ( 'NONE', ( #282, #1, #63, #11, #150, #136 ) ) ;
#206 = CALENDAR_DATE ( 2021, 3, 9 ) ;
#207 = ORIENTED_EDGE ( 'NONE', *, *, #308, .F. ) ;
#208 = EDGE_LOOP ( 'NONE', ( #191, #153, #134 ) ) ;
#209 = CARTESIAN_POINT ( 'NONE',  ( 2.164718430082742680E-13, -7.592810154713590230E-15, 62.00000000000000000 ) ) ;
#210 = DIRECTION ( 'NONE',  ( -3.491481338843133355E-15, 1.224646799147353207E-16, -1.000000000000000000 ) ) ;
#211 = CC_DESIGN_DATE_AND_TIME_ASSIGNMENT ( #41, #38, ( #201 ) ) ;
#212 = FACE_OUTER_BOUND ( 'NONE', #208, .T. ) ;
#213 = FACE_OUTER_BOUND ( 'NONE', #56, .T. ) ;
#214 = CIRCLE ( 'NONE', #74, 2.399999999999995470 ) ;
#215 = CARTESIAN_POINT ( 'NONE',  ( 2.164718430082742680E-13, -7.592810154713590230E-15, 62.00000000000000000 ) ) ;
#216 = APPROVAL_STATUS ( 'not_yet_approved' ) ;
#217 = EDGE_CURVE ( 'NONE', #81, #48, #214, .T. ) ;
#218 = ORIENTED_EDGE ( 'NONE', *, *, #238, .T. ) ;
#219 = DIRECTION ( 'NONE',  ( 0.0000000000000000000, 1.000000000000000000, 0.0000000000000000000 ) ) ;
#220 = VERTEX_POINT ( 'NONE', #241 ) ;
#221 = PERSON_AND_ORGANIZATION_ROLE ( 'creator' ) ;
#222 = AXIS2_PLACEMENT_3D ( 'NONE', #60, #293, #110 ) ;
#223 = DESIGN_CONTEXT ( 'detailed design', #42, 'design' ) ;
#224 = DIRECTION ( 'NONE',  ( -3.491481338843133355E-15, 1.224646799147353207E-16, -1.000000000000000000 ) ) ;
#225 = ADVANCED_FACE ( 'NONE', ( #212 ), #251, .T. ) ;
#226 = AXIS2_PLACEMENT_3D ( 'NONE', #155, #254, #219 ) ;
#227 = CARTESIAN_POINT ( 'NONE',  ( 2.164718430082742680E-13, 1.899999999999992806, 62.00000000000000000 ) ) ;
#228 = ORIENTED_EDGE ( 'NONE', *, *, #245, .T. ) ;
#229 = CYLINDRICAL_SURFACE ( 'NONE', #117, 2.399999999999994138 ) ;
#230 = SHAPE_DEFINITION_REPRESENTATION ( #23, #37 ) ;
#231 = VERTEX_POINT ( 'NONE', #33 ) ;
#232 = VECTOR ( 'NONE', #22, 1000.000000000000000 ) ;
#233 = CYLINDRICAL_SURFACE ( 'NONE', #40, 2.399999999999997691 ) ;
#234 = PRODUCT ( '54584', '54584', '', ( #89 ) ) ;
#235 = CARTESIAN_POINT ( 'NONE',  ( 1.026199547015268910E-30, 2.399999999999997691, 2.939152317953645133E-16 ) ) ;
#236 = CARTESIAN_POINT ( 'NONE',  ( 2.164718430082742680E-13, -7.592810154713590230E-15, 62.00000000000000000 ) ) ;
#237 = CARTESIAN_POINT ( 'NONE',  ( 5.034944732593144812E-15, -1.766020881181931844E-16, 1.442065485666156333 ) ) ;
#238 = EDGE_CURVE ( 'NONE', #17, #149, #314, .T. ) ;
#239 = DIRECTION ( 'NONE',  ( -3.491481338843133355E-15, 1.224646799147353207E-16, -1.000000000000000000 ) ) ;
#240 = APPROVAL ( #216, 'UNSPECIFIED' ) ;
#241 = CARTESIAN_POINT ( 'NONE',  ( 1.425717797896529028E-13, -2.400000000000007461, 61.50000000000000000 ) ) ;
#242 = CLOSED_SHELL ( 'NONE', ( #253, #139, #225, #72, #143 ) ) ;
#243 = PERSON_AND_ORGANIZATION ( #190, #264 ) ;
#244 = EDGE_LOOP ( 'NONE', ( #131, #28, #218, #304 ) ) ;
#245 = EDGE_CURVE ( 'NONE', #48, #107, #165, .T. ) ;
#246 = ORIENTED_EDGE ( 'NONE', *, *, #217, .T. ) ;
#247 = MANIFOLD_SOLID_BREP ( 'Corps-Déplacer/Copier1[2]', #242 ) ;
#248 = APPLICATION_PROTOCOL_DEFINITION ( 'international standard', 'config_control_design', 1994, #42 ) ;
#249 = ORIENTED_EDGE ( 'NONE', *, *, #92, .F. ) ;
#250 = APPROVAL ( #295, 'UNSPECIFIED' ) ;
#251 = CONICAL_SURFACE ( 'NONE', #95, 2.399999999999992806, 1.029744258676649649 ) ;
#252 = AXIS2_PLACEMENT_3D ( 'NONE', #127, #156, #49 ) ;
#253 = ADVANCED_FACE ( 'NONE', ( #213 ), #35, .T. ) ;
#254 = DIRECTION ( 'NONE',  ( -3.491481338843133355E-15, 1.224646799147353207E-16, -1.000000000000000000 ) ) ;
#255 = ORIENTED_EDGE ( 'NONE', *, *, #194, .F. ) ;
#256 = AXIS2_PLACEMENT_3D ( 'NONE', #236, #182, #289 ) ;
#257 = DIRECTION ( 'NONE',  ( 4.275831445896957731E-31, 1.000000000000000000, 1.224646799147353207E-16 ) ) ;
#258 = LINE ( 'NONE', #305, #232 ) ;
#259 = CARTESIAN_POINT ( 'NONE',  ( 6.982962677686266711E-14, -2.449293598294706513E-15, 20.00000000000000000 ) ) ;
#260 = PERSON_AND_ORGANIZATION_ROLE ( 'design_supplier' ) ;
#261 = DIRECTION ( 'NONE',  ( -4.275831445896958607E-31, -1.000000000000000000, -1.224646799147353207E-16 ) ) ;
#262 = APPROVAL_PERSON_ORGANIZATION ( #318, #240, #65 ) ;
#263 = CIRCLE ( 'NONE', #164, 2.399999999999995470 ) ;
#264 = ORGANIZATION ( 'UNSPECIFIED', 'UNSPECIFIED', '' ) ;
#265 = DIRECTION ( 'NONE',  ( -3.491481338843133355E-15, 1.224646799147353207E-16, -1.000000000000000000 ) ) ;
#266 = DIRECTION ( 'NONE',  ( -3.491481338843133355E-15, 1.224646799147353207E-16, -1.000000000000000000 ) ) ;
#267 = DIRECTION ( 'NONE',  ( 0.0000000000000000000, 1.000000000000000000, 0.0000000000000000000 ) ) ;
#268 = LINE ( 'NONE', #169, #300 ) ;
#269 = CARTESIAN_POINT ( 'NONE',  ( 6.982962677686266711E-14, -2.449293598294706513E-15, 20.00000000000000000 ) ) ;
#270 = CALENDAR_DATE ( 2021, 3, 9 ) ;
#271 = SECURITY_CLASSIFICATION ( '', '', #26 ) ;
#272 = VECTOR ( 'NONE', #53, 1000.000000000000000 ) ;
#273 = COORDINATED_UNIVERSAL_TIME_OFFSET ( 1, 0, .AHEAD. ) ;
#274 = PERSON_AND_ORGANIZATION ( #190, #264 ) ;
#275 = ORIENTED_EDGE ( 'NONE', *, *, #217, .F. ) ;
#276 = CARTESIAN_POINT ( 'NONE',  ( 0.0000000000000000000, 0.0000000000000000000, 0.0000000000000000000 ) ) ;
#277 = EDGE_CURVE ( 'NONE', #81, #13, #144, .T. ) ;
#278 = ORIENTED_EDGE ( 'NONE', *, *, #111, .F. ) ;
#279 = DATE_TIME_ROLE ( 'classification_date' ) ;
#280 = ORIENTED_EDGE ( 'NONE', *, *, #52, .F. ) ;
#281 = ORIENTED_EDGE ( 'NONE', *, *, #24, .F. ) ;
#282 = ADVANCED_FACE ( 'NONE', ( #14 ), #62, .T. ) ;
#283 = LOCAL_TIME ( 9, 51, 31.00000000000000000, #303 ) ;
#284 = LINE ( 'NONE', #78, #272 ) ;
#285 = CARTESIAN_POINT ( 'NONE',  ( 0.0000000000000000000, 0.0000000000000000000, 0.0000000000000000000 ) ) ;
#286 = PLANE ( 'NONE',  #88 ) ;
#287 = DIRECTION ( 'NONE',  ( -2.382254525458718258E-15, -0.7071067811865469066, -0.7071067811865482389 ) ) ;
#288 = AXIS2_PLACEMENT_3D ( 'NONE', #59, #290, #141 ) ;
#289 = DIRECTION ( 'NONE',  ( 0.0000000000000000000, 1.000000000000000000, 0.0000000000000000000 ) ) ;
#290 = DIRECTION ( 'NONE',  ( -3.491481338843133355E-15, 1.224646799147353207E-16, -1.000000000000000000 ) ) ;
#291 = DIRECTION ( 'NONE',  ( 3.491481338843133355E-15, -1.224646799147353207E-16, 1.000000000000000000 ) ) ;
#292 = CC_DESIGN_APPROVAL ( #250, ( #204 ) ) ;
#293 = DIRECTION ( 'NONE',  ( -3.491481338843133355E-15, 1.224646799147353207E-16, -1.000000000000000000 ) ) ;
#294 = CARTESIAN_POINT ( 'NONE',  ( 0.0000000000000000000, 0.0000000000000000000, 0.0000000000000000000 ) ) ;
#295 = APPROVAL_STATUS ( 'not_yet_approved' ) ;
#296 = APPROVAL_PERSON_ORGANIZATION ( #173, #250, #174 ) ;
#297 = ORIENTED_EDGE ( 'NONE', *, *, #68, .T. ) ;
#298 = PERSON_AND_ORGANIZATION ( #190, #264 ) ;
#299 = APPROVAL_DATE_TIME ( #196, #250 ) ;
#300 = VECTOR ( 'NONE', #287, 999.9999999999998863 ) ;
#301 = ORIENTED_EDGE ( 'NONE', *, *, #202, .T. ) ;
#302 = CIRCLE ( 'NONE', #226, 2.399999999999995470 ) ;
#303 = COORDINATED_UNIVERSAL_TIME_OFFSET ( 1, 0, .AHEAD. ) ;
#304 = ORIENTED_EDGE ( 'NONE', *, *, #132, .F. ) ;
#305 = CARTESIAN_POINT ( 'NONE',  ( 5.034944732593144023E-15, -2.399999999999992806, 1.442065485666156111 ) ) ;
#306 = PERSON_AND_ORGANIZATION ( #190, #264 ) ;
#307 = CARTESIAN_POINT ( 'NONE',  ( 2.158622717353801520E-13, -1.900000000000008127, 62.00000000000000000 ) ) ;
#308 = EDGE_CURVE ( 'NONE', #231, #175, #302, .T. ) ;
#309 = FACE_OUTER_BOUND ( 'NONE', #69, .T. ) ;
#310 = ORIENTED_EDGE ( 'NONE', *, *, #277, .F. ) ;
#311 = CARTESIAN_POINT ( 'NONE',  ( 2.147261023388527077E-13, 2.399999999999992806, 61.50000000000000000 ) ) ;
#312 = AXIS2_PLACEMENT_3D ( 'NONE', #276, #224, #45 ) ;
#313 = DIRECTION ( 'NONE',  ( -4.275831445896958607E-31, -1.000000000000000000, -1.224646799147353207E-16 ) ) ;
#314 = LINE ( 'NONE', #333, #323 ) ;
#315 = CARTESIAN_POINT ( 'NONE',  ( 2.147261023388527077E-13, -7.531577814756222656E-15, 61.50000000000000000 ) ) ;
#316 = AXIS2_PLACEMENT_3D ( 'NONE', #119, #151, #47 ) ;
#317 = FACE_OUTER_BOUND ( 'NONE', #120, .T. ) ;
#318 = PERSON_AND_ORGANIZATION ( #190, #264 ) ;
#319 = VERTEX_POINT ( 'NONE', #123 ) ;
#320 = DIRECTION ( 'NONE',  ( 0.0000000000000000000, 0.0000000000000000000, 1.000000000000000000 ) ) ;
#321 = ORIENTED_EDGE ( 'NONE', *, *, #68, .F. ) ;
#322 = COORDINATED_UNIVERSAL_TIME_OFFSET ( 1, 0, .AHEAD. ) ;
#323 = VECTOR ( 'NONE', #168, 1000.000000000000000 ) ;
#324 = DIRECTION ( 'NONE',  ( 3.209883240645402868E-31, 1.000000000000000000, 9.035018104045897811E-17 ) ) ;
#325 = CALENDAR_DATE ( 2021, 3, 9 ) ;
#326 = LINE ( 'NONE', #125, #154 ) ;
#327 = COORDINATED_UNIVERSAL_TIME_OFFSET ( 1, 0, .AHEAD. ) ;
#328 = ORIENTED_EDGE ( 'NONE', *, *, #238, .F. ) ;
#329 = VECTOR ( 'NONE', #10, 1000.000000000000000 ) ;
#330 = EDGE_LOOP ( 'NONE', ( #321, #332, #79, #207 ) ) ;
#331 = AXIS2_PLACEMENT_3D ( 'NONE', #180, #102, #324 ) ;
#332 = ORIENTED_EDGE ( 'NONE', *, *, #132, .T. ) ;
#333 = CARTESIAN_POINT ( 'NONE',  ( 2.164718430082742680E-13, 1.899999999999992806, 62.00000000000000000 ) ) ;
#334 = DIRECTION ( 'NONE',  ( -3.491481338843133355E-15, 1.224646799147353207E-16, -1.000000000000000000 ) ) ;
#335 = CIRCLE ( 'NONE', #288, 2.399999999999995470 ) ;
#336 = DIRECTION ( 'NONE',  ( -3.491481338843133355E-15, 1.224646799147353207E-16, -1.000000000000000000 ) ) ;
#337 = DIRECTION ( 'NONE',  ( 0.0000000000000000000, 1.000000000000000000, 0.0000000000000000000 ) ) ;
ENDSEC;
END-ISO-10303-21;
