ISO-10303-21;
HEADER;
FILE_DESCRIPTION (( 'STEP AP203' ),
    '1' );
FILE_NAME ('54583.step',
    '2021-09-03T07:51:27',
    ( '' ),
    ( '' ),
    'SwSTEP 2.0',
    'SolidWorks 2019',
    '' );
FILE_SCHEMA (( 'CONFIG_CONTROL_DESIGN' ));
ENDSEC;

DATA;
#1 = ORIENTED_EDGE ( 'NONE', *, *, #121, .F. ) ;
#2 = ORIENTED_EDGE ( 'NONE', *, *, #272, .F. ) ;
#3 = AXIS2_PLACEMENT_3D ( 'NONE', #329, #216, #114 ) ;
#4 = CC_DESIGN_PERSON_AND_ORGANIZATION_ASSIGNMENT ( #154, #78, ( #337 ) ) ;
#5 = DIRECTION ( 'NONE',  ( 4.275831445896958607E-31, 1.000000000000000000, 1.224646799147353207E-16 ) ) ;
#6 = DIRECTION ( 'NONE',  ( 1.798245827342160317E-15, -0.8571673007021098911, 0.5150380749100582634 ) ) ;
#7 = CARTESIAN_POINT ( 'NONE',  ( 5.273351006426130557E-15, 2.374999999999992895, 1.427043970190467803 ) ) ;
#8 = AXIS2_PLACEMENT_3D ( 'NONE', #12, #233, #62 ) ;
#9 = AXIS2_PLACEMENT_3D ( 'NONE', #322, #72, #214 ) ;
#10 = DIRECTION ( 'NONE',  ( 0.0000000000000000000, 1.000000000000000000, 0.0000000000000000000 ) ) ;
#11 = ADVANCED_FACE ( 'NONE', ( #334 ), #74, .T. ) ;
#12 = CARTESIAN_POINT ( 'NONE',  ( 4.982497391628633791E-15, -1.747624830336286823E-16, 1.427043970190467581 ) ) ;
#13 = CARTESIAN_POINT ( 'NONE',  ( 4.982497391628633791E-15, -1.747624830336286823E-16, 1.427043970190467581 ) ) ;
#14 = FACE_OUTER_BOUND ( 'NONE', #55, .T. ) ;
#15 = EDGE_CURVE ( 'NONE', #24, #76, #100, .T. ) ;
#16 = DIRECTION ( 'NONE',  ( 4.275831445896958607E-31, 1.000000000000000000, 1.224646799147353207E-16 ) ) ;
#17 = CIRCLE ( 'NONE', #195, 2.375000000000000000 ) ;
#18 = FACE_OUTER_BOUND ( 'NONE', #97, .T. ) ;
#19 = VECTOR ( 'NONE', #264, 999.9999999999998863 ) ;
#20 = SHAPE_DEFINITION_REPRESENTATION ( #332, #244 ) ;
#21 = MANIFOLD_SOLID_BREP ( 'Corps-Déplacer/Copier1[1]', #70 ) ;
#22 = ORIENTED_EDGE ( 'NONE', *, *, #134, .F. ) ;
#23 = DIRECTION ( 'NONE',  ( 1.000000000000000000, 0.0000000000000000000, 0.0000000000000000000 ) ) ;
#24 = VERTEX_POINT ( 'NONE', #290 ) ;
#25 = CONICAL_SURFACE ( 'NONE', #8, 2.374999999999992895, 1.029744258676649649 ) ;
#26 = CC_DESIGN_APPROVAL ( #98, ( #157 ) ) ;
#27 = DATE_AND_TIME ( #103, #226 ) ;
#28 = DIRECTION ( 'NONE',  ( -3.491481338843133355E-15, 1.224646799147353207E-16, -1.000000000000000000 ) ) ;
#29 = APPROVAL_STATUS ( 'not_yet_approved' ) ;
#30 = VERTEX_POINT ( 'NONE', #318 ) ;
#31 = ADVANCED_FACE ( 'NONE', ( #35 ), #135, .T. ) ;
#32 = CARTESIAN_POINT ( 'NONE',  ( 4.982497391628633002E-15, -2.374999999999992895, 1.427043970190467359 ) ) ;
#33 = AXIS2_PLACEMENT_3D ( 'NONE', #67, #189, #42 ) ;
#34 = FACE_OUTER_BOUND ( 'NONE', #150, .T. ) ;
#35 = FACE_OUTER_BOUND ( 'NONE', #176, .T. ) ;
#36 = CARTESIAN_POINT ( 'NONE',  ( 1.320942741561256161E-13, -2.375000000000006661, 57.50000000000000000 ) ) ;
#37 = PRODUCT_DEFINITION_FORMATION_WITH_SPECIFIED_SOURCE ( 'ANY', '', #337, .NOT_KNOWN. ) ;
#38 = LINE ( 'NONE', #258, #201 ) ;
#39 = CC_DESIGN_PERSON_AND_ORGANIZATION_ASSIGNMENT ( #125, #148, ( #157 ) ) ;
#40 = FACE_OUTER_BOUND ( 'NONE', #79, .T. ) ;
#41 = CC_DESIGN_DATE_AND_TIME_ASSIGNMENT ( #50, #224, ( #138 ) ) ;
#42 = DIRECTION ( 'NONE',  ( 3.243671485283775512E-31, 1.000000000000000000, 9.130123557772696684E-17 ) ) ;
#43 = FACE_OUTER_BOUND ( 'NONE', #217, .T. ) ;
#44 = PLANE ( 'NONE',  #213 ) ;
#45 = CALENDAR_DATE ( 2021, 3, 9 ) ;
#46 = ORGANIZATION ( 'UNSPECIFIED', 'UNSPECIFIED', '' ) ;
#47 = MECHANICAL_CONTEXT ( 'NONE', #320, 'mechanical' ) ;
#48 = ORIENTED_EDGE ( 'NONE', *, *, #140, .F. ) ;
#49 = ORIENTED_EDGE ( 'NONE', *, *, #180, .T. ) ;
#50 = DATE_AND_TIME ( #45, #215 ) ;
#51 = CARTESIAN_POINT ( 'NONE',  ( 2.908536147974946950E-16, -2.374999999999994227, -2.908536147974967164E-16 ) ) ;
#52 = CONICAL_SURFACE ( 'NONE', #335, 2.374999999999992895, 1.029744258676649649 ) ;
#53 = CC_DESIGN_APPROVAL ( #73, ( #37 ) ) ;
#54 = PERSON_AND_ORGANIZATION_ROLE ( 'classification_officer' ) ;
#55 = EDGE_LOOP ( 'NONE', ( #223, #85, #309, #250 ) ) ;
#56 = EDGE_CURVE ( 'NONE', #198, #219, #17, .T. ) ;
#57 = VERTEX_POINT ( 'NONE', #7 ) ;
#58 = DIRECTION ( 'NONE',  ( -3.243671485283775512E-31, -1.000000000000000000, -9.130123557772696684E-17 ) ) ;
#59 = PRODUCT_RELATED_PRODUCT_CATEGORY ( 'detail', '', ( #337 ) ) ;
#60 = CARTESIAN_POINT ( 'NONE',  ( 2.025059176529017346E-13, 1.406024796245481244E-32, 58.00000000000000000 ) ) ;
#61 = LINE ( 'NONE', #161, #88 ) ;
#62 = DIRECTION ( 'NONE',  ( -3.243671485283775512E-31, -1.000000000000000000, -9.130123557772696684E-17 ) ) ;
#63 = CONICAL_SURFACE ( 'NONE', #9, 1.875000000000000222, 0.7853981633974476129 ) ;
#64 = AXIS2_PLACEMENT_3D ( 'NONE', #137, #323, #212 ) ;
#65 = DIRECTION ( 'NONE',  ( -3.491481338843133355E-15, 1.224646799147353207E-16, -1.000000000000000000 ) ) ;
#66 = ADVANCED_FACE ( 'NONE', ( #183 ), #235, .T. ) ;
#67 = CARTESIAN_POINT ( 'NONE',  ( 4.982497391628633791E-15, -1.747624830336286823E-16, 1.427043970190467581 ) ) ;
#68 = CC_DESIGN_DATE_AND_TIME_ASSIGNMENT ( #27, #101, ( #157 ) ) ;
#69 = CARTESIAN_POINT ( 'NONE',  ( 6.284666409917640040E-14, 1.780964741910948930E-32, 18.00000000000000000 ) ) ;
#70 = CLOSED_SHELL ( 'NONE', ( #11, #66, #308, #268, #232, #153 ) ) ;
#71 = CARTESIAN_POINT ( 'NONE',  ( 6.284666409917640040E-14, -2.204364238465235428E-15, 18.00000000000000000 ) ) ;
#72 = DIRECTION ( 'NONE',  ( -3.491481338843133355E-15, 1.224646799147353207E-16, -1.000000000000000000 ) ) ;
#73 = APPROVAL ( #330, 'UNSPECIFIED' ) ;
#74 = CONICAL_SURFACE ( 'NONE', #301, 1.875000000000000222, 0.7853981633974476129 ) ;
#75 = DIRECTION ( 'NONE',  ( 0.0000000000000000000, 0.0000000000000000000, 1.000000000000000000 ) ) ;
#76 = VERTEX_POINT ( 'NONE', #32 ) ;
#77 = ADVANCED_FACE ( 'NONE', ( #288 ), #25, .T. ) ;
#78 = PERSON_AND_ORGANIZATION_ROLE ( 'design_owner' ) ;
#79 = EDGE_LOOP ( 'NONE', ( #48, #225 ) ) ;
#80 = CC_DESIGN_PERSON_AND_ORGANIZATION_ASSIGNMENT ( #279, #245, ( #37 ) ) ;
#81 = APPROVAL_ROLE ( '' ) ;
#82 = ORIENTED_EDGE ( 'NONE', *, *, #169, .F. ) ;
#83 = APPROVAL_DATE_TIME ( #123, #73 ) ;
#84 = ORIENTED_EDGE ( 'NONE', *, *, #185, .T. ) ;
#85 = ORIENTED_EDGE ( 'NONE', *, *, #204, .T. ) ;
#86 = DIRECTION ( 'NONE',  ( -3.491481338843133355E-15, 1.224646799147353207E-16, -1.000000000000000000 ) ) ;
#87 = CARTESIAN_POINT ( 'NONE',  ( 2.007601769834801742E-13, -7.041719095097280485E-15, 57.50000000000000000 ) ) ;
#88 = VECTOR ( 'NONE', #260, 1000.000000000000000 ) ;
#89 = CARTESIAN_POINT ( 'NONE',  ( 2.025059176529017346E-13, -7.102951435054648059E-15, 58.00000000000000000 ) ) ;
#90 = DIRECTION ( 'NONE',  ( 3.491481338843133355E-15, -1.224646799147353207E-16, 1.000000000000000000 ) ) ;
#91 = CARTESIAN_POINT ( 'NONE',  ( 0.0000000000000000000, 0.0000000000000000000, 0.0000000000000000000 ) ) ;
#92 = APPROVAL_PERSON_ORGANIZATION ( #273, #326, #128 ) ;
#93 = PLANE ( 'NONE',  #328 ) ;
#94 = CARTESIAN_POINT ( 'NONE',  ( 2.027355389277418599E-13, -1.875000000000007327, 58.00000000000000000 ) ) ;
#95 = CIRCLE ( 'NONE', #220, 2.374999999999995115 ) ;
#96 = ADVANCED_FACE ( 'NONE', ( #34 ), #52, .T. ) ;
#97 = EDGE_LOOP ( 'NONE', ( #280, #255, #205, #2 ) ) ;
#98 = APPROVAL ( #311, 'UNSPECIFIED' ) ;
#99 = SECURITY_CLASSIFICATION_LEVEL ( 'unclassified' ) ;
#100 = LINE ( 'NONE', #51, #151 ) ;
#101 = DATE_TIME_ROLE ( 'creation_date' ) ;
#102 = VERTEX_POINT ( 'NONE', #112 ) ;
#103 = CALENDAR_DATE ( 2021, 3, 9 ) ;
#104 = ORIENTED_EDGE ( 'NONE', *, *, #324, .T. ) ;
#105 = APPLICATION_PROTOCOL_DEFINITION ( 'international standard', 'config_control_design', 1994, #293 ) ;
#106 = VERTEX_POINT ( 'NONE', #229 ) ;
#107 = AXIS2_PLACEMENT_3D ( 'NONE', #89, #184, #287 ) ;
#108 = CARTESIAN_POINT ( 'NONE',  ( 2.025059176529017346E-13, 1.874999999999992895, 58.00000000000000000 ) ) ;
#109 = DIRECTION ( 'NONE',  ( -3.491481338843133355E-15, 1.224646799147353207E-16, -1.000000000000000000 ) ) ;
#110 = CARTESIAN_POINT ( 'NONE',  ( 6.284666409917640040E-14, 2.374999999999992895, 18.00000000000000000 ) ) ;
#111 = APPROVAL_PERSON_ORGANIZATION ( #333, #73, #305 ) ;
#112 = CARTESIAN_POINT ( 'NONE',  ( 0.0000000000000000000, 0.0000000000000000000, 0.0000000000000000000 ) ) ;
#113 = CARTESIAN_POINT ( 'NONE',  ( 4.982497391628633002E-15, -2.374999999999992895, 1.427043970190467359 ) ) ;
#114 = DIRECTION ( 'NONE',  ( 0.0000000000000000000, 1.000000000000000000, 0.0000000000000000000 ) ) ;
#115 = VECTOR ( 'NONE', #192, 1000.000000000000000 ) ;
#116 = DIRECTION ( 'NONE',  ( -3.491481338843133355E-15, 1.224646799147353207E-16, -1.000000000000000000 ) ) ;
#117 = CARTESIAN_POINT ( 'NONE',  ( 0.0000000000000000000, 0.0000000000000000000, 0.0000000000000000000 ) ) ;
#118 = APPLICATION_PROTOCOL_DEFINITION ( 'international standard', 'config_control_design', 1994, #320 ) ;
#119 = CIRCLE ( 'NONE', #310, 2.374999999999995115 ) ;
#120 = CARTESIAN_POINT ( 'NONE',  ( 6.284666409917640040E-14, 1.780964741910948930E-32, 18.00000000000000000 ) ) ;
#121 = EDGE_CURVE ( 'NONE', #221, #219, #186, .T. ) ;
#122 = ORIENTED_EDGE ( 'NONE', *, *, #130, .F. ) ;
#123 = DATE_AND_TIME ( #170, #296 ) ;
#124 = VERTEX_POINT ( 'NONE', #110 ) ;
#125 = PERSON_AND_ORGANIZATION ( #276, #46 ) ;
#126 = ORIENTED_EDGE ( 'NONE', *, *, #166, .F. ) ;
#127 = UNCERTAINTY_MEASURE_WITH_UNIT (LENGTH_MEASURE( 1.000000000000000082E-05 ), #165, 'distance_accuracy_value', 'NONE');
#128 = APPROVAL_ROLE ( '' ) ;
#129 = DIRECTION ( 'NONE',  ( 0.0000000000000000000, 1.000000000000000000, 0.0000000000000000000 ) ) ;
#130 = EDGE_CURVE ( 'NONE', #102, #76, #164, .T. ) ;
#131 = COORDINATED_UNIVERSAL_TIME_OFFSET ( 1, 0, .AHEAD. ) ;
#132 = ORIENTED_EDGE ( 'NONE', *, *, #130, .T. ) ;
#133 = DIRECTION ( 'NONE',  ( 4.275831445896958607E-31, 1.000000000000000000, 1.224646799147353207E-16 ) ) ;
#134 = EDGE_CURVE ( 'NONE', #30, #106, #95, .T. ) ;
#135 = CYLINDRICAL_SURFACE ( 'NONE', #238, 2.374999999999994227 ) ;
#136 = DIRECTION ( 'NONE',  ( -3.491481338843133355E-15, 1.224646799147353207E-16, -1.000000000000000000 ) ) ;
#137 = CARTESIAN_POINT ( 'NONE',  ( 2.025059176529017346E-13, -7.102951435054648059E-15, 58.00000000000000000 ) ) ;
#138 = SECURITY_CLASSIFICATION ( '', '', #99 ) ;
#139 = DIRECTION ( 'NONE',  ( -3.491481338843133355E-15, 1.224646799147353207E-16, -1.000000000000000000 ) ) ;
#140 = EDGE_CURVE ( 'NONE', #124, #24, #267, .T. ) ;
#141 = DIRECTION ( 'NONE',  ( 0.0000000000000000000, 1.000000000000000000, 0.0000000000000000000 ) ) ;
#142 = AXIS2_PLACEMENT_3D ( 'NONE', #206, #210, #5 ) ;
#143 = FACE_OUTER_BOUND ( 'NONE', #331, .T. ) ;
#144 = CARTESIAN_POINT ( 'NONE',  ( 2.025059176529017346E-13, 1.874999999999992895, 58.00000000000000000 ) ) ;
#145 = CARTESIAN_POINT ( 'NONE',  ( 2.007601769834801742E-13, 2.374999999999992895, 57.50000000000000000 ) ) ;
#146 = EDGE_CURVE ( 'NONE', #24, #124, #119, .T. ) ;
#147 = AXIS2_PLACEMENT_3D ( 'NONE', #172, #75, #23 ) ;
#148 = PERSON_AND_ORGANIZATION_ROLE ( 'creator' ) ;
#149 = EDGE_LOOP ( 'NONE', ( #306, #152 ) ) ;
#150 = EDGE_LOOP ( 'NONE', ( #126, #132, #197 ) ) ;
#151 = VECTOR ( 'NONE', #109, 1000.000000000000000 ) ;
#152 = ORIENTED_EDGE ( 'NONE', *, *, #204, .F. ) ;
#153 = ADVANCED_FACE ( 'NONE', ( #286 ), #162, .F. ) ;
#154 = PERSON_AND_ORGANIZATION ( #276, #46 ) ;
#155 = ORIENTED_EDGE ( 'NONE', *, *, #272, .T. ) ;
#156 = VERTEX_POINT ( 'NONE', #283 ) ;
#157 = PRODUCT_DEFINITION ( 'UNKNOWN', '', #37, #251 ) ;
#158 = DIRECTION ( 'NONE',  ( 1.903218546456022717E-15, 0.8571673007021097801, 0.5150380749100585964 ) ) ;
#159 = APPROVAL_PERSON_ORGANIZATION ( #202, #98, #81 ) ;
#160 = LINE ( 'NONE', #208, #242 ) ;
#161 = CARTESIAN_POINT ( 'NONE',  ( 1.015509968400526728E-30, 2.374999999999997780, 2.908536147974961248E-16 ) ) ;
#162 = PLANE ( 'NONE',  #163 ) ;
#163 = AXIS2_PLACEMENT_3D ( 'NONE', #60, #262, #181 ) ;
#164 = LINE ( 'NONE', #113, #182 ) ;
#165 =( LENGTH_UNIT ( ) NAMED_UNIT ( * ) SI_UNIT ( .MILLI., .METRE. ) );
#166 = EDGE_CURVE ( 'NONE', #102, #57, #38, .T. ) ;
#167 = DIRECTION ( 'NONE',  ( -4.275831445896958607E-31, -1.000000000000000000, -1.224646799147353207E-16 ) ) ;
#168 = CIRCLE ( 'NONE', #107, 1.875000000000000222 ) ;
#169 = EDGE_CURVE ( 'NONE', #198, #30, #160, .T. ) ;
#170 = CALENDAR_DATE ( 2021, 3, 9 ) ;
#171 = CIRCLE ( 'NONE', #3, 2.375000000000000000 ) ;
#172 = CARTESIAN_POINT ( 'NONE',  ( 0.0000000000000000000, 0.0000000000000000000, 0.0000000000000000000 ) ) ;
#173 = ORIENTED_EDGE ( 'NONE', *, *, #166, .T. ) ;
#174 = COORDINATED_UNIVERSAL_TIME_OFFSET ( 1, 0, .AHEAD. ) ;
#175 = ORIENTED_EDGE ( 'NONE', *, *, #256, .T. ) ;
#176 = EDGE_LOOP ( 'NONE', ( #304, #336, #155, #200 ) ) ;
#177 = CIRCLE ( 'NONE', #289, 2.374999999999992895 ) ;
#178 = ORIENTED_EDGE ( 'NONE', *, *, #56, .T. ) ;
#179 = ORIENTED_EDGE ( 'NONE', *, *, #298, .T. ) ;
#180 = EDGE_CURVE ( 'NONE', #221, #156, #168, .T. ) ;
#181 = DIRECTION ( 'NONE',  ( 4.275831445896958607E-31, 1.000000000000000000, 1.224646799147353207E-16 ) ) ;
#182 = VECTOR ( 'NONE', #6, 1000.000000000000000 ) ;
#183 = FACE_OUTER_BOUND ( 'NONE', #253, .T. ) ;
#184 = DIRECTION ( 'NONE',  ( -3.491481338843133355E-15, 1.224646799147353207E-16, -1.000000000000000000 ) ) ;
#185 = EDGE_CURVE ( 'NONE', #219, #106, #61, .T. ) ;
#186 = LINE ( 'NONE', #108, #284 ) ;
#187 = DIRECTION ( 'NONE',  ( 0.0000000000000000000, 1.000000000000000000, 0.0000000000000000000 ) ) ;
#188 = LOCAL_TIME ( 9, 51, 27.00000000000000000, #174 ) ;
#189 = DIRECTION ( 'NONE',  ( -3.491481338843133355E-15, 1.224646799147353207E-16, -1.000000000000000000 ) ) ;
#190 = DIRECTION ( 'NONE',  ( -3.491481338843133355E-15, 1.224646799147353207E-16, -1.000000000000000000 ) ) ;
#191 = CIRCLE ( 'NONE', #33, 2.374999999999992895 ) ;
#192 = DIRECTION ( 'NONE',  ( -3.491481338843133355E-15, 1.224646799147353207E-16, -1.000000000000000000 ) ) ;
#193 = CARTESIAN_POINT ( 'NONE',  ( 0.0000000000000000000, 0.0000000000000000000, 0.0000000000000000000 ) ) ;
#194 = ORIENTED_EDGE ( 'NONE', *, *, #169, .T. ) ;
#195 = AXIS2_PLACEMENT_3D ( 'NONE', #87, #65, #231 ) ;
#196 = DATE_AND_TIME ( #243, #271 ) ;
#197 = ORIENTED_EDGE ( 'NONE', *, *, #281, .T. ) ;
#198 = VERTEX_POINT ( 'NONE', #36 ) ;
#199 = CALENDAR_DATE ( 2021, 3, 9 ) ;
#200 = ORIENTED_EDGE ( 'NONE', *, *, #281, .F. ) ;
#201 = VECTOR ( 'NONE', #158, 999.9999999999998863 ) ;
#202 = PERSON_AND_ORGANIZATION ( #276, #46 ) ;
#203 = CIRCLE ( 'NONE', #64, 1.875000000000000222 ) ;
#204 = EDGE_CURVE ( 'NONE', #156, #221, #203, .T. ) ;
#205 = ORIENTED_EDGE ( 'NONE', *, *, #298, .F. ) ;
#206 = CARTESIAN_POINT ( 'NONE',  ( 0.0000000000000000000, 0.0000000000000000000, 0.0000000000000000000 ) ) ;
#207 = DIRECTION ( 'NONE',  ( 0.0000000000000000000, 1.000000000000000000, 0.0000000000000000000 ) ) ;
#208 = CARTESIAN_POINT ( 'NONE',  ( 2.908536147974951387E-16, -2.374999999999997780, -2.908536147974971109E-16 ) ) ;
#209 = CC_DESIGN_APPROVAL ( #326, ( #138 ) ) ;
#210 = DIRECTION ( 'NONE',  ( -3.491481338843133355E-15, 1.224646799147353207E-16, -1.000000000000000000 ) ) ;
#211 = DIRECTION ( 'NONE',  ( -2.468850131082267316E-15, 0.7071067811865471286, -0.7071067811865479058 ) ) ;
#212 = DIRECTION ( 'NONE',  ( 0.0000000000000000000, 1.000000000000000000, 0.0000000000000000000 ) ) ;
#213 = AXIS2_PLACEMENT_3D ( 'NONE', #120, #325, #239 ) ;
#214 = DIRECTION ( 'NONE',  ( 0.0000000000000000000, 1.000000000000000000, 0.0000000000000000000 ) ) ;
#215 = LOCAL_TIME ( 9, 51, 27.00000000000000000, #222 ) ;
#216 = DIRECTION ( 'NONE',  ( -3.491481338843133355E-15, 1.224646799147353207E-16, -1.000000000000000000 ) ) ;
#217 = EDGE_LOOP ( 'NONE', ( #82, #178, #84, #22 ) ) ;
#218 = COORDINATED_UNIVERSAL_TIME_OFFSET ( 1, 0, .AHEAD. ) ;
#219 = VERTEX_POINT ( 'NONE', #145 ) ;
#220 = AXIS2_PLACEMENT_3D ( 'NONE', #259, #319, #187 ) ;
#221 = VERTEX_POINT ( 'NONE', #144 ) ;
#222 = COORDINATED_UNIVERSAL_TIME_OFFSET ( 1, 0, .AHEAD. ) ;
#223 = ORIENTED_EDGE ( 'NONE', *, *, #256, .F. ) ;
#224 = DATE_TIME_ROLE ( 'classification_date' ) ;
#225 = ORIENTED_EDGE ( 'NONE', *, *, #146, .F. ) ;
#226 = LOCAL_TIME ( 9, 51, 27.00000000000000000, #218 ) ;
#227 = CC_DESIGN_PERSON_AND_ORGANIZATION_ASSIGNMENT ( #248, #54, ( #138 ) ) ;
#228 = CARTESIAN_POINT ( 'NONE',  ( 4.982497391628633791E-15, -1.747624830336286823E-16, 1.427043970190467581 ) ) ;
#229 = CARTESIAN_POINT ( 'NONE',  ( 6.284666409917640040E-14, 2.374999999999992895, 18.00000000000000000 ) ) ;
#230 = MANIFOLD_SOLID_BREP ( 'Corps-Déplacer/Copier1[2]', #315 ) ;
#231 = DIRECTION ( 'NONE',  ( 0.0000000000000000000, 1.000000000000000000, 0.0000000000000000000 ) ) ;
#232 = ADVANCED_FACE ( 'NONE', ( #14 ), #63, .T. ) ;
#233 = DIRECTION ( 'NONE',  ( 3.491481338843133355E-15, -1.224646799147353207E-16, 1.000000000000000000 ) ) ;
#234 =( GEOMETRIC_REPRESENTATION_CONTEXT ( 3 ) GLOBAL_UNCERTAINTY_ASSIGNED_CONTEXT ( ( #127 ) ) GLOBAL_UNIT_ASSIGNED_CONTEXT ( ( #165, #295, #265 ) ) REPRESENTATION_CONTEXT ( 'NONE', 'WORKASPACE' ) );
#235 = CYLINDRICAL_SURFACE ( 'NONE', #142, 2.374999999999997780 ) ;
#236 = DIRECTION ( 'NONE',  ( 4.275831445896958607E-31, 1.000000000000000000, 1.224646799147353207E-16 ) ) ;
#237 = LINE ( 'NONE', #94, #19 ) ;
#238 = AXIS2_PLACEMENT_3D ( 'NONE', #91, #139, #133 ) ;
#239 = DIRECTION ( 'NONE',  ( -4.275831445896958607E-31, -1.000000000000000000, -1.224646799147353207E-16 ) ) ;
#240 = CARTESIAN_POINT ( 'NONE',  ( 1.015509968400525151E-30, 2.374999999999994227, 2.908536147974956810E-16 ) ) ;
#241 = CYLINDRICAL_SURFACE ( 'NONE', #316, 2.374999999999997780 ) ;
#242 = VECTOR ( 'NONE', #317, 1000.000000000000000 ) ;
#243 = CALENDAR_DATE ( 2021, 3, 9 ) ;
#244 = ADVANCED_BREP_SHAPE_REPRESENTATION ( '54583', ( #21, #230, #147 ), #234 ) ;
#245 = PERSON_AND_ORGANIZATION_ROLE ( 'design_supplier' ) ;
#246 = EDGE_CURVE ( 'NONE', #106, #30, #252, .T. ) ;
#247 = ORIENTED_EDGE ( 'NONE', *, *, #185, .F. ) ;
#248 = PERSON_AND_ORGANIZATION ( #276, #46 ) ;
#249 = CC_DESIGN_PERSON_AND_ORGANIZATION_ASSIGNMENT ( #270, #277, ( #37 ) ) ;
#250 = ORIENTED_EDGE ( 'NONE', *, *, #56, .F. ) ;
#251 = DESIGN_CONTEXT ( 'detailed design', #293, 'design' ) ;
#252 = CIRCLE ( 'NONE', #263, 2.374999999999995115 ) ;
#253 = EDGE_LOOP ( 'NONE', ( #104, #194, #300, #247 ) ) ;
#254 = APPROVAL_DATE_TIME ( #307, #98 ) ;
#255 = ORIENTED_EDGE ( 'NONE', *, *, #15, .T. ) ;
#256 = EDGE_CURVE ( 'NONE', #156, #198, #237, .T. ) ;
#257 = ORIENTED_EDGE ( 'NONE', *, *, #324, .F. ) ;
#258 = CARTESIAN_POINT ( 'NONE',  ( 5.273351006426130557E-15, 2.374999999999992895, 1.427043970190467803 ) ) ;
#259 = CARTESIAN_POINT ( 'NONE',  ( 6.284666409917640040E-14, -2.204364238465235428E-15, 18.00000000000000000 ) ) ;
#260 = DIRECTION ( 'NONE',  ( -3.491481338843133355E-15, 1.224646799147353207E-16, -1.000000000000000000 ) ) ;
#261 = AXIS2_PLACEMENT_3D ( 'NONE', #313, #136, #207 ) ;
#262 = DIRECTION ( 'NONE',  ( -3.491481338843133355E-15, 1.224646799147353207E-16, -1.000000000000000000 ) ) ;
#263 = AXIS2_PLACEMENT_3D ( 'NONE', #71, #327, #141 ) ;
#264 = DIRECTION ( 'NONE',  ( -2.382254525458718258E-15, -0.7071067811865469066, -0.7071067811865482389 ) ) ;
#265 =( NAMED_UNIT ( * ) SI_UNIT ( $, .STERADIAN. ) SOLID_ANGLE_UNIT ( ) );
#266 = DIRECTION ( 'NONE',  ( -3.491481338843133355E-15, 1.224646799147353207E-16, -1.000000000000000000 ) ) ;
#267 = CIRCLE ( 'NONE', #261, 2.374999999999995115 ) ;
#268 = ADVANCED_FACE ( 'NONE', ( #43 ), #241, .T. ) ;
#269 = CYLINDRICAL_SURFACE ( 'NONE', #302, 2.374999999999994227 ) ;
#270 = PERSON_AND_ORGANIZATION ( #276, #46 ) ;
#271 = LOCAL_TIME ( 9, 51, 27.00000000000000000, #131 ) ;
#272 = EDGE_CURVE ( 'NONE', #124, #57, #291, .T. ) ;
#273 = PERSON_AND_ORGANIZATION ( #276, #46 ) ;
#274 = ORIENTED_EDGE ( 'NONE', *, *, #246, .T. ) ;
#275 = ORIENTED_EDGE ( 'NONE', *, *, #134, .T. ) ;
#276 = PERSON ( 'UNSPECIFIED', 'UNSPECIFIED', 'UNSPECIFIED', ('UNSPECIFIED'), ('UNSPECIFIED'), ('UNSPECIFIED') ) ;
#277 = PERSON_AND_ORGANIZATION_ROLE ( 'creator' ) ;
#278 = CARTESIAN_POINT ( 'NONE',  ( 2.025059176529017346E-13, -7.102951435054648059E-15, 58.00000000000000000 ) ) ;
#279 = PERSON_AND_ORGANIZATION ( #276, #46 ) ;
#280 = ORIENTED_EDGE ( 'NONE', *, *, #140, .T. ) ;
#281 = EDGE_CURVE ( 'NONE', #76, #57, #177, .T. ) ;
#282 = EDGE_LOOP ( 'NONE', ( #122, #173, #179 ) ) ;
#283 = CARTESIAN_POINT ( 'NONE',  ( 2.018932847630097445E-13, -1.875000000000007327, 58.00000000000000000 ) ) ;
#284 = VECTOR ( 'NONE', #211, 1000.000000000000000 ) ;
#285 = ADVANCED_FACE ( 'NONE', ( #18 ), #269, .T. ) ;
#286 = FACE_OUTER_BOUND ( 'NONE', #149, .T. ) ;
#287 = DIRECTION ( 'NONE',  ( 0.0000000000000000000, 1.000000000000000000, 0.0000000000000000000 ) ) ;
#288 = FACE_OUTER_BOUND ( 'NONE', #282, .T. ) ;
#289 = AXIS2_PLACEMENT_3D ( 'NONE', #13, #190, #292 ) ;
#290 = CARTESIAN_POINT ( 'NONE',  ( 3.420543436019998743E-14, -2.374999999999997335, 18.00000000000000000 ) ) ;
#291 = LINE ( 'NONE', #240, #115 ) ;
#292 = DIRECTION ( 'NONE',  ( 3.243671485283775512E-31, 1.000000000000000000, 9.130123557772696684E-17 ) ) ;
#293 = APPLICATION_CONTEXT ( 'configuration controlled 3d designs of mechanical parts and assemblies' ) ;
#294 = ADVANCED_FACE ( 'NONE', ( #40 ), #93, .T. ) ;
#295 =( NAMED_UNIT ( * ) PLANE_ANGLE_UNIT ( ) SI_UNIT ( $, .RADIAN. ) );
#296 = LOCAL_TIME ( 9, 51, 27.00000000000000000, #299 ) ;
#297 = DIRECTION ( 'NONE',  ( 3.491481338843133355E-15, -1.224646799147353207E-16, 1.000000000000000000 ) ) ;
#298 = EDGE_CURVE ( 'NONE', #57, #76, #191, .T. ) ;
#299 = COORDINATED_UNIVERSAL_TIME_OFFSET ( 1, 0, .AHEAD. ) ;
#300 = ORIENTED_EDGE ( 'NONE', *, *, #246, .F. ) ;
#301 = AXIS2_PLACEMENT_3D ( 'NONE', #278, #28, #129 ) ;
#302 = AXIS2_PLACEMENT_3D ( 'NONE', #193, #116, #16 ) ;
#303 = APPROVAL_DATE_TIME ( #196, #326 ) ;
#304 = ORIENTED_EDGE ( 'NONE', *, *, #15, .F. ) ;
#305 = APPROVAL_ROLE ( '' ) ;
#306 = ORIENTED_EDGE ( 'NONE', *, *, #180, .F. ) ;
#307 = DATE_AND_TIME ( #199, #188 ) ;
#308 = ADVANCED_FACE ( 'NONE', ( #143 ), #44, .F. ) ;
#309 = ORIENTED_EDGE ( 'NONE', *, *, #121, .T. ) ;
#310 = AXIS2_PLACEMENT_3D ( 'NONE', #314, #86, #10 ) ;
#311 = APPROVAL_STATUS ( 'not_yet_approved' ) ;
#312 = EDGE_LOOP ( 'NONE', ( #49, #175, #257, #1 ) ) ;
#313 = CARTESIAN_POINT ( 'NONE',  ( 6.284666409917640040E-14, -2.204364238465235428E-15, 18.00000000000000000 ) ) ;
#314 = CARTESIAN_POINT ( 'NONE',  ( 6.284666409917640040E-14, -2.204364238465235428E-15, 18.00000000000000000 ) ) ;
#315 = CLOSED_SHELL ( 'NONE', ( #285, #77, #96, #31, #294 ) ) ;
#316 = AXIS2_PLACEMENT_3D ( 'NONE', #117, #266, #236 ) ;
#317 = DIRECTION ( 'NONE',  ( -3.491481338843133355E-15, 1.224646799147353207E-16, -1.000000000000000000 ) ) ;
#318 = CARTESIAN_POINT ( 'NONE',  ( 1.320942741561257170E-13, -2.374999999999997335, 18.00000000000000000 ) ) ;
#319 = DIRECTION ( 'NONE',  ( -3.491481338843133355E-15, 1.224646799147353207E-16, -1.000000000000000000 ) ) ;
#320 = APPLICATION_CONTEXT ( 'configuration controlled 3d designs of mechanical parts and assemblies' ) ;
#321 = CC_DESIGN_SECURITY_CLASSIFICATION ( #138, ( #37 ) ) ;
#322 = CARTESIAN_POINT ( 'NONE',  ( 2.025059176529017346E-13, -7.102951435054648059E-15, 58.00000000000000000 ) ) ;
#323 = DIRECTION ( 'NONE',  ( -3.491481338843133355E-15, 1.224646799147353207E-16, -1.000000000000000000 ) ) ;
#324 = EDGE_CURVE ( 'NONE', #219, #198, #171, .T. ) ;
#325 = DIRECTION ( 'NONE',  ( 3.491481338843133355E-15, -1.224646799147353207E-16, 1.000000000000000000 ) ) ;
#326 = APPROVAL ( #29, 'UNSPECIFIED' ) ;
#327 = DIRECTION ( 'NONE',  ( -3.491481338843133355E-15, 1.224646799147353207E-16, -1.000000000000000000 ) ) ;
#328 = AXIS2_PLACEMENT_3D ( 'NONE', #69, #297, #167 ) ;
#329 = CARTESIAN_POINT ( 'NONE',  ( 2.007601769834801742E-13, -7.041719095097280485E-15, 57.50000000000000000 ) ) ;
#330 = APPROVAL_STATUS ( 'not_yet_approved' ) ;
#331 = EDGE_LOOP ( 'NONE', ( #274, #275 ) ) ;
#332 = PRODUCT_DEFINITION_SHAPE ( 'NONE', 'NONE',  #157 ) ;
#333 = PERSON_AND_ORGANIZATION ( #276, #46 ) ;
#334 = FACE_OUTER_BOUND ( 'NONE', #312, .T. ) ;
#335 = AXIS2_PLACEMENT_3D ( 'NONE', #228, #90, #58 ) ;
#336 = ORIENTED_EDGE ( 'NONE', *, *, #146, .T. ) ;
#337 = PRODUCT ( '54583', '54583', '', ( #47 ) ) ;
ENDSEC;
END-ISO-10303-21;
