ISO-10303-21;
HEADER;
FILE_DESCRIPTION (( 'STEP AP203' ),
    '1' );
FILE_NAME ('54581.step',
    '2021-09-03T07:51:20',
    ( '' ),
    ( '' ),
    'SwSTEP 2.0',
    'SolidWorks 2019',
    '' );
FILE_SCHEMA (( 'CONFIG_CONTROL_DESIGN' ));
ENDSEC;

DATA;
#1 = PERSON_AND_ORGANIZATION_ROLE ( 'creator' ) ;
#2 = ORIENTED_EDGE ( 'NONE', *, *, #53, .T. ) ;
#3 = DATE_AND_TIME ( #284, #168 ) ;
#4 = ORIENTED_EDGE ( 'NONE', *, *, #71, .F. ) ;
#5 = APPROVAL ( #232, 'UNSPECIFIED' ) ;
#6 = ORIENTED_EDGE ( 'NONE', *, *, #82, .T. ) ;
#7 = VECTOR ( 'NONE', #215, 1000.000000000000000 ) ;
#8 = CARTESIAN_POINT ( 'NONE',  ( 6.284666409917640040E-14, 2.324999999999993516, 18.00000000000000000 ) ) ;
#9 = CARTESIAN_POINT ( 'NONE',  ( 2.025059176529017346E-13, -7.102951435054648059E-15, 58.00000000000000000 ) ) ;
#10 = PRODUCT ( '54581', '54581', '', ( #314 ) ) ;
#11 = CARTESIAN_POINT ( 'NONE',  ( 1.320881509221299184E-13, -2.325000000000007283, 57.50000000000000000 ) ) ;
#12 = EDGE_CURVE ( 'NONE', #213, #309, #26, .T. ) ;
#13 = APPROVAL_PERSON_ORGANIZATION ( #227, #5, #260 ) ;
#14 = CARTESIAN_POINT ( 'NONE',  ( 2.025059176529017346E-13, -7.102951435054648059E-15, 58.00000000000000000 ) ) ;
#15 = DIRECTION ( 'NONE',  ( 4.275831445896958607E-31, 1.000000000000000000, 1.224646799147353207E-16 ) ) ;
#16 = EDGE_CURVE ( 'NONE', #283, #309, #145, .T. ) ;
#17 = DIRECTION ( 'NONE',  ( -3.491481338843133355E-15, 1.224646799147353207E-16, -1.000000000000000000 ) ) ;
#18 = LOCAL_TIME ( 9, 51, 20.00000000000000000, #131 ) ;
#19 = FACE_OUTER_BOUND ( 'NONE', #188, .T. ) ;
#20 = CONICAL_SURFACE ( 'NONE', #51, 2.324999999999993516, 1.029744258676649649 ) ;
#21 = DIRECTION ( 'NONE',  ( 0.0000000000000000000, 1.000000000000000000, 0.0000000000000000000 ) ) ;
#22 = DIRECTION ( 'NONE',  ( 3.313427861311382829E-31, 1.000000000000000000, 9.326470300950602006E-17 ) ) ;
#23 = LOCAL_TIME ( 9, 51, 20.00000000000000000, #30 ) ;
#24 = DIRECTION ( 'NONE',  ( -3.491481338843133355E-15, 1.224646799147353207E-16, -1.000000000000000000 ) ) ;
#25 = APPLICATION_PROTOCOL_DEFINITION ( 'international standard', 'config_control_design', 1994, #91 ) ;
#26 = LINE ( 'NONE', #132, #174 ) ;
#27 = APPROVAL_STATUS ( 'not_yet_approved' ) ;
#28 = EDGE_CURVE ( 'NONE', #317, #64, #72, .T. ) ;
#29 = ORIENTED_EDGE ( 'NONE', *, *, #148, .F. ) ;
#30 = COORDINATED_UNIVERSAL_TIME_OFFSET ( 1, 0, .AHEAD. ) ;
#31 = EDGE_LOOP ( 'NONE', ( #29, #281 ) ) ;
#32 = AXIS2_PLACEMENT_3D ( 'NONE', #319, #39, #196 ) ;
#33 = PERSON_AND_ORGANIZATION ( #333, #208 ) ;
#34 = VERTEX_POINT ( 'NONE', #218 ) ;
#35 = EDGE_CURVE ( 'NONE', #231, #309, #184, .T. ) ;
#36 = ORIENTED_EDGE ( 'NONE', *, *, #16, .T. ) ;
#37 = PRODUCT_DEFINITION_SHAPE ( 'NONE', 'NONE',  #137 ) ;
#38 = FACE_OUTER_BOUND ( 'NONE', #31, .T. ) ;
#39 = DIRECTION ( 'NONE',  ( -3.491481338843133355E-15, 1.224646799147353207E-16, -1.000000000000000000 ) ) ;
#40 = DIRECTION ( 'NONE',  ( -3.491481338843133355E-15, 1.224646799147353207E-16, -1.000000000000000000 ) ) ;
#41 = CARTESIAN_POINT ( 'NONE',  ( 4.877602709699609382E-15, -1.710832728644996536E-16, 1.397000939239089190 ) ) ;
#42 = CC_DESIGN_PERSON_AND_ORGANIZATION_ASSIGNMENT ( #33, #57, ( #137 ) ) ;
#43 = LINE ( 'NONE', #268, #67 ) ;
#44 = EDGE_CURVE ( 'NONE', #283, #231, #118, .T. ) ;
#45 = CARTESIAN_POINT ( 'NONE',  ( 6.284666409917640040E-14, -2.204364238465235428E-15, 18.00000000000000000 ) ) ;
#46 = CC_DESIGN_PERSON_AND_ORGANIZATION_ASSIGNMENT ( #316, #107, ( #60 ) ) ;
#47 = CYLINDRICAL_SURFACE ( 'NONE', #223, 2.324999999999997957 ) ;
#48 = DIRECTION ( 'NONE',  ( -3.491481338843133355E-15, 1.224646799147353207E-16, -1.000000000000000000 ) ) ;
#49 = AXIS2_PLACEMENT_3D ( 'NONE', #117, #320, #330 ) ;
#50 = DIRECTION ( 'NONE',  ( 0.0000000000000000000, 1.000000000000000000, 0.0000000000000000000 ) ) ;
#51 = AXIS2_PLACEMENT_3D ( 'NONE', #126, #177, #175 ) ;
#52 = ORIENTED_EDGE ( 'NONE', *, *, #285, .F. ) ;
#53 = EDGE_CURVE ( 'NONE', #317, #81, #267, .T. ) ;
#54 = CARTESIAN_POINT ( 'NONE',  ( 0.0000000000000000000, 0.0000000000000000000, 0.0000000000000000000 ) ) ;
#55 = ORIENTED_EDGE ( 'NONE', *, *, #12, .T. ) ;
#56 = UNCERTAINTY_MEASURE_WITH_UNIT (LENGTH_MEASURE( 1.000000000000000082E-05 ), #181, 'distance_accuracy_value', 'NONE');
#57 = PERSON_AND_ORGANIZATION_ROLE ( 'creator' ) ;
#58 = ORIENTED_EDGE ( 'NONE', *, *, #35, .T. ) ;
#59 = DATE_AND_TIME ( #189, #205 ) ;
#60 = PRODUCT_DEFINITION_FORMATION_WITH_SPECIFIED_SOURCE ( 'ANY', '', #10, .NOT_KNOWN. ) ;
#61 = EDGE_LOOP ( 'NONE', ( #4, #230, #85, #52 ) ) ;
#62 = AXIS2_PLACEMENT_3D ( 'NONE', #293, #40, #69 ) ;
#63 = PERSON_AND_ORGANIZATION ( #333, #208 ) ;
#64 = VERTEX_POINT ( 'NONE', #11 ) ;
#65 = CARTESIAN_POINT ( 'NONE',  ( 2.025059176529017346E-13, 1.824999999999993294, 58.00000000000000000 ) ) ;
#66 = FACE_OUTER_BOUND ( 'NONE', #259, .T. ) ;
#67 = VECTOR ( 'NONE', #265, 1000.000000000000000 ) ;
#68 = FACE_OUTER_BOUND ( 'NONE', #254, .T. ) ;
#69 = DIRECTION ( 'NONE',  ( 4.275831445896959482E-31, 1.000000000000000000, 1.224646799147353207E-16 ) ) ;
#70 = DIRECTION ( 'NONE',  ( -3.313427861311382829E-31, -1.000000000000000000, -9.326470300950602006E-17 ) ) ;
#71 = EDGE_CURVE ( 'NONE', #233, #64, #216, .T. ) ;
#72 = CIRCLE ( 'NONE', #291, 2.325000000000000178 ) ;
#73 = DIRECTION ( 'NONE',  ( 3.491481338843133355E-15, -1.224646799147353207E-16, 1.000000000000000000 ) ) ;
#74 = CC_DESIGN_DATE_AND_TIME_ASSIGNMENT ( #112, #138, ( #137 ) ) ;
#75 = CARTESIAN_POINT ( 'NONE',  ( 4.877602709699608593E-15, -2.324999999999993516, 1.397000939239088968 ) ) ;
#76 = CARTESIAN_POINT ( 'NONE',  ( 4.877602709699609382E-15, -1.710832728644996536E-16, 1.397000939239089190 ) ) ;
#77 = DIRECTION ( 'NONE',  ( -3.491481338843133355E-15, 1.224646799147353207E-16, -1.000000000000000000 ) ) ;
#78 = AXIS2_PLACEMENT_3D ( 'NONE', #9, #172, #171 ) ;
#79 = APPROVAL ( #286, 'UNSPECIFIED' ) ;
#80 = APPROVAL_ROLE ( '' ) ;
#81 = VERTEX_POINT ( 'NONE', #201 ) ;
#82 = EDGE_CURVE ( 'NONE', #183, #231, #200, .T. ) ;
#83 = PERSON_AND_ORGANIZATION_ROLE ( 'design_owner' ) ;
#84 = AXIS2_PLACEMENT_3D ( 'NONE', #273, #24, #326 ) ;
#85 = ORIENTED_EDGE ( 'NONE', *, *, #180, .T. ) ;
#86 = CC_DESIGN_PERSON_AND_ORGANIZATION_ASSIGNMENT ( #63, #206, ( #122 ) ) ;
#87 = ORIENTED_EDGE ( 'NONE', *, *, #159, .F. ) ;
#88 = PERSON_AND_ORGANIZATION ( #333, #208 ) ;
#89 = ORIENTED_EDGE ( 'NONE', *, *, #141, .F. ) ;
#90 = SECURITY_CLASSIFICATION_LEVEL ( 'unclassified' ) ;
#91 = APPLICATION_CONTEXT ( 'configuration controlled 3d designs of mechanical parts and assemblies' ) ;
#92 = ORIENTED_EDGE ( 'NONE', *, *, #328, .F. ) ;
#93 = AXIS2_PLACEMENT_3D ( 'NONE', #272, #221, #225 ) ;
#94 = DIRECTION ( 'NONE',  ( -2.382254525458718258E-15, -0.7071067811865469066, -0.7071067811865482389 ) ) ;
#95 = CARTESIAN_POINT ( 'NONE',  ( 4.877602709699608593E-15, -2.324999999999993516, 1.397000939239088968 ) ) ;
#96 = DIRECTION ( 'NONE',  ( 1.903218546456022717E-15, 0.8571673007021097801, 0.5150380749100585964 ) ) ;
#97 = CIRCLE ( 'NONE', #93, 2.325000000000000178 ) ;
#98 = FACE_OUTER_BOUND ( 'NONE', #163, .T. ) ;
#99 = DIRECTION ( 'NONE',  ( 0.0000000000000000000, 1.000000000000000000, 0.0000000000000000000 ) ) ;
#100 = VECTOR ( 'NONE', #238, 1000.000000000000000 ) ;
#101 = CARTESIAN_POINT ( 'NONE',  ( 0.0000000000000000000, 0.0000000000000000000, 0.0000000000000000000 ) ) ;
#102 = FACE_OUTER_BOUND ( 'NONE', #287, .T. ) ;
#103 = ADVANCED_FACE ( 'NONE', ( #68 ), #202, .T. ) ;
#104 = DIRECTION ( 'NONE',  ( -3.491481338843133355E-15, 1.224646799147353207E-16, -1.000000000000000000 ) ) ;
#105 = DIRECTION ( 'NONE',  ( 4.275831445896959482E-31, 1.000000000000000000, 1.224646799147353207E-16 ) ) ;
#106 = APPROVAL_DATE_TIME ( #282, #237 ) ;
#107 = PERSON_AND_ORGANIZATION_ROLE ( 'design_supplier' ) ;
#108 = ORIENTED_EDGE ( 'NONE', *, *, #289, .T. ) ;
#109 = AXIS2_PLACEMENT_3D ( 'NONE', #277, #73, #245 ) ;
#110 = ORIENTED_EDGE ( 'NONE', *, *, #285, .T. ) ;
#111 = ORIENTED_EDGE ( 'NONE', *, *, #159, .T. ) ;
#112 = DATE_AND_TIME ( #158, #23 ) ;
#113 = ORIENTED_EDGE ( 'NONE', *, *, #82, .F. ) ;
#114 = APPROVAL_PERSON_ORGANIZATION ( #311, #237, #335 ) ;
#115 = EDGE_LOOP ( 'NONE', ( #261, #186, #58 ) ) ;
#116 = CONICAL_SURFACE ( 'NONE', #318, 2.324999999999993516, 1.029744258676649649 ) ;
#117 = CARTESIAN_POINT ( 'NONE',  ( 6.284666409917640040E-14, 1.743470747344402764E-32, 18.00000000000000000 ) ) ;
#118 = LINE ( 'NONE', #244, #198 ) ;
#119 = MANIFOLD_SOLID_BREP ( 'Corps-Déplacer/Copier1[2]', #297 ) ;
#120 = MANIFOLD_SOLID_BREP ( 'Corps-Déplacer/Copier1[1]', #266 ) ;
#121 = DIRECTION ( 'NONE',  ( -3.491481338843133355E-15, 1.224646799147353207E-16, -1.000000000000000000 ) ) ;
#122 = SECURITY_CLASSIFICATION ( '', '', #90 ) ;
#123 = CARTESIAN_POINT ( 'NONE',  ( 2.027294156937461117E-13, -1.825000000000007505, 58.00000000000000000 ) ) ;
#124 = DIRECTION ( 'NONE',  ( -3.491481338843133355E-15, 1.224646799147353207E-16, -1.000000000000000000 ) ) ;
#125 = CARTESIAN_POINT ( 'NONE',  ( 6.284666409917640040E-14, -2.204364238465235428E-15, 18.00000000000000000 ) ) ;
#126 = CARTESIAN_POINT ( 'NONE',  ( 4.877602709699609382E-15, -1.710832728644996536E-16, 1.397000939239089190 ) ) ;
#127 = FACE_OUTER_BOUND ( 'NONE', #278, .T. ) ;
#128 = ADVANCED_FACE ( 'NONE', ( #66 ), #194, .F. ) ;
#129 = CIRCLE ( 'NONE', #226, 2.324999999999995293 ) ;
#130 = CALENDAR_DATE ( 2021, 3, 9 ) ;
#131 = COORDINATED_UNIVERSAL_TIME_OFFSET ( 1, 0, .AHEAD. ) ;
#132 = CARTESIAN_POINT ( 'NONE',  ( 2.847303808017580164E-16, -2.324999999999994404, -2.847303808017599393E-16 ) ) ;
#133 = COORDINATED_UNIVERSAL_TIME_OFFSET ( 1, 0, .AHEAD. ) ;
#134 = EDGE_LOOP ( 'NONE', ( #160, #140 ) ) ;
#135 = AXIS2_PLACEMENT_3D ( 'NONE', #150, #17, #50 ) ;
#136 = ORIENTED_EDGE ( 'NONE', *, *, #299, .F. ) ;
#137 = PRODUCT_DEFINITION ( 'UNKNOWN', '', #60, #195 ) ;
#138 = DATE_TIME_ROLE ( 'creation_date' ) ;
#139 = ORIENTED_EDGE ( 'NONE', *, *, #28, .T. ) ;
#140 = ORIENTED_EDGE ( 'NONE', *, *, #299, .T. ) ;
#141 = EDGE_CURVE ( 'NONE', #192, #233, #219, .T. ) ;
#142 = PLANE ( 'NONE',  #49 ) ;
#143 = AXIS2_PLACEMENT_3D ( 'NONE', #125, #48, #21 ) ;
#144 = DIRECTION ( 'NONE',  ( -3.491481338843133355E-15, 1.224646799147353207E-16, -1.000000000000000000 ) ) ;
#145 = LINE ( 'NONE', #95, #7 ) ;
#146 = DIRECTION ( 'NONE',  ( 3.491481338843133355E-15, -1.224646799147353207E-16, 1.000000000000000000 ) ) ;
#147 = VECTOR ( 'NONE', #124, 1000.000000000000000 ) ;
#148 = EDGE_CURVE ( 'NONE', #183, #213, #170, .T. ) ;
#149 = DIRECTION ( 'NONE',  ( 0.0000000000000000000, 1.000000000000000000, 0.0000000000000000000 ) ) ;
#150 = CARTESIAN_POINT ( 'NONE',  ( 6.284666409917640040E-14, -2.204364238465235428E-15, 18.00000000000000000 ) ) ;
#151 = DIRECTION ( 'NONE',  ( 0.0000000000000000000, 1.000000000000000000, 0.0000000000000000000 ) ) ;
#152 = VECTOR ( 'NONE', #94, 999.9999999999998863 ) ;
#153 = DIRECTION ( 'NONE',  ( 0.0000000000000000000, 1.000000000000000000, 0.0000000000000000000 ) ) ;
#154 = DIRECTION ( 'NONE',  ( -3.491481338843133355E-15, 1.224646799147353207E-16, -1.000000000000000000 ) ) ;
#155 = EDGE_CURVE ( 'NONE', #233, #192, #247, .T. ) ;
#156 = AXIS2_PLACEMENT_3D ( 'NONE', #270, #220, #290 ) ;
#157 = ORIENTED_EDGE ( 'NONE', *, *, #71, .T. ) ;
#158 = CALENDAR_DATE ( 2021, 3, 9 ) ;
#159 = EDGE_CURVE ( 'NONE', #64, #34, #43, .T. ) ;
#160 = ORIENTED_EDGE ( 'NONE', *, *, #306, .T. ) ;
#161 = PERSON_AND_ORGANIZATION ( #333, #208 ) ;
#162 =( GEOMETRIC_REPRESENTATION_CONTEXT ( 3 ) GLOBAL_UNCERTAINTY_ASSIGNED_CONTEXT ( ( #56 ) ) GLOBAL_UNIT_ASSIGNED_CONTEXT ( ( #181, #275, #305 ) ) REPRESENTATION_CONTEXT ( 'NONE', 'WORKASPACE' ) );
#163 = EDGE_LOOP ( 'NONE', ( #257, #55, #229, #113 ) ) ;
#164 = DATE_TIME_ROLE ( 'classification_date' ) ;
#165 = ORIENTED_EDGE ( 'NONE', *, *, #44, .F. ) ;
#166 = ADVANCED_FACE ( 'NONE', ( #98 ), #325, .T. ) ;
#167 = CARTESIAN_POINT ( 'NONE',  ( 2.025059176529017346E-13, 1.824999999999993294, 58.00000000000000000 ) ) ;
#168 = LOCAL_TIME ( 9, 51, 20.00000000000000000, #253 ) ;
#169 = DIRECTION ( 'NONE',  ( -3.491481338843133355E-15, 1.224646799147353207E-16, -1.000000000000000000 ) ) ;
#170 = CIRCLE ( 'NONE', #156, 2.324999999999995293 ) ;
#171 = DIRECTION ( 'NONE',  ( 0.0000000000000000000, 1.000000000000000000, 0.0000000000000000000 ) ) ;
#172 = DIRECTION ( 'NONE',  ( -3.491481338843133355E-15, 1.224646799147353207E-16, -1.000000000000000000 ) ) ;
#173 = LINE ( 'NONE', #65, #100 ) ;
#174 = VECTOR ( 'NONE', #321, 1000.000000000000000 ) ;
#175 = DIRECTION ( 'NONE',  ( -3.313427861311382829E-31, -1.000000000000000000, -9.326470300950602006E-17 ) ) ;
#176 = ADVANCED_FACE ( 'NONE', ( #269 ), #116, .T. ) ;
#177 = DIRECTION ( 'NONE',  ( 3.491481338843133355E-15, -1.224646799147353207E-16, 1.000000000000000000 ) ) ;
#178 = AXIS2_PLACEMENT_3D ( 'NONE', #76, #154, #22 ) ;
#179 = DIRECTION ( 'NONE',  ( -3.491481338843133355E-15, 1.224646799147353207E-16, -1.000000000000000000 ) ) ;
#180 = EDGE_CURVE ( 'NONE', #192, #317, #173, .T. ) ;
#181 =( LENGTH_UNIT ( ) NAMED_UNIT ( * ) SI_UNIT ( .MILLI., .METRE. ) );
#182 = SHAPE_DEFINITION_REPRESENTATION ( #37, #258 ) ;
#183 = VERTEX_POINT ( 'NONE', #8 ) ;
#184 = CIRCLE ( 'NONE', #32, 2.324999999999993516 ) ;
#185 = DIRECTION ( 'NONE',  ( 1.000000000000000000, 0.0000000000000000000, 0.0000000000000000000 ) ) ;
#186 = ORIENTED_EDGE ( 'NONE', *, *, #44, .T. ) ;
#187 = DIRECTION ( 'NONE',  ( 0.0000000000000000000, 0.0000000000000000000, 1.000000000000000000 ) ) ;
#188 = EDGE_LOOP ( 'NONE', ( #139, #111, #210, #315 ) ) ;
#189 = CALENDAR_DATE ( 2021, 3, 9 ) ;
#190 = VECTOR ( 'NONE', #242, 1000.000000000000000 ) ;
#191 = CC_DESIGN_APPROVAL ( #79, ( #60 ) ) ;
#192 = VERTEX_POINT ( 'NONE', #167 ) ;
#193 = ADVANCED_FACE ( 'NONE', ( #38 ), #142, .T. ) ;
#194 = PLANE ( 'NONE',  #271 ) ;
#195 = DESIGN_CONTEXT ( 'detailed design', #91, 'design' ) ;
#196 = DIRECTION ( 'NONE',  ( 3.313427861311382829E-31, 1.000000000000000000, 9.326470300950602006E-17 ) ) ;
#197 = CARTESIAN_POINT ( 'NONE',  ( 9.941308111710421885E-31, 2.324999999999997957, 2.847303808017593970E-16 ) ) ;
#198 = VECTOR ( 'NONE', #96, 999.9999999999998863 ) ;
#199 = ADVANCED_FACE ( 'NONE', ( #102 ), #47, .T. ) ;
#200 = LINE ( 'NONE', #292, #190 ) ;
#201 = CARTESIAN_POINT ( 'NONE',  ( 6.284666409917640040E-14, 2.324999999999993516, 18.00000000000000000 ) ) ;
#202 = CONICAL_SURFACE ( 'NONE', #304, 1.825000000000000400, 0.7853981633974476129 ) ;
#203 = CARTESIAN_POINT ( 'NONE',  ( 5.162333090501369075E-15, 2.324999999999993516, 1.397000939239089412 ) ) ;
#204 = CARTESIAN_POINT ( 'NONE',  ( 2.025059176529017346E-13, -7.102951435054648059E-15, 58.00000000000000000 ) ) ;
#205 = LOCAL_TIME ( 9, 51, 20.00000000000000000, #256 ) ;
#206 = PERSON_AND_ORGANIZATION_ROLE ( 'classification_officer' ) ;
#207 = ORIENTED_EDGE ( 'NONE', *, *, #328, .T. ) ;
#208 = ORGANIZATION ( 'UNSPECIFIED', 'UNSPECIFIED', '' ) ;
#209 = ORIENTED_EDGE ( 'NONE', *, *, #28, .F. ) ;
#210 = ORIENTED_EDGE ( 'NONE', *, *, #306, .F. ) ;
#211 = ADVANCED_FACE ( 'NONE', ( #248 ), #224, .F. ) ;
#212 = APPROVAL_DATE_TIME ( #3, #79 ) ;
#213 = VERTEX_POINT ( 'NONE', #249 ) ;
#214 = EDGE_LOOP ( 'NONE', ( #165, #36, #207 ) ) ;
#215 = DIRECTION ( 'NONE',  ( 1.798245827342160317E-15, -0.8571673007021098911, 0.5150380749100582634 ) ) ;
#216 = LINE ( 'NONE', #123, #152 ) ;
#217 = CC_DESIGN_APPROVAL ( #237, ( #122 ) ) ;
#218 = CARTESIAN_POINT ( 'NONE',  ( 1.320881509221300194E-13, -2.324999999999997513, 18.00000000000000000 ) ) ;
#219 = CIRCLE ( 'NONE', #337, 1.825000000000000400 ) ;
#220 = DIRECTION ( 'NONE',  ( -3.491481338843133355E-15, 1.224646799147353207E-16, -1.000000000000000000 ) ) ;
#221 = DIRECTION ( 'NONE',  ( -3.491481338843133355E-15, 1.224646799147353207E-16, -1.000000000000000000 ) ) ;
#222 = CARTESIAN_POINT ( 'NONE',  ( 2.018871615290140217E-13, -1.825000000000007505, 58.00000000000000000 ) ) ;
#223 = AXIS2_PLACEMENT_3D ( 'NONE', #250, #77, #105 ) ;
#224 = PLANE ( 'NONE',  #109 ) ;
#225 = DIRECTION ( 'NONE',  ( 0.0000000000000000000, 1.000000000000000000, 0.0000000000000000000 ) ) ;
#226 = AXIS2_PLACEMENT_3D ( 'NONE', #45, #276, #153 ) ;
#227 = PERSON_AND_ORGANIZATION ( #333, #208 ) ;
#228 = PERSON_AND_ORGANIZATION ( #333, #208 ) ;
#229 = ORIENTED_EDGE ( 'NONE', *, *, #35, .F. ) ;
#230 = ORIENTED_EDGE ( 'NONE', *, *, #155, .T. ) ;
#231 = VERTEX_POINT ( 'NONE', #203 ) ;
#232 = APPROVAL_STATUS ( 'not_yet_approved' ) ;
#233 = VERTEX_POINT ( 'NONE', #222 ) ;
#234 = CC_DESIGN_DATE_AND_TIME_ASSIGNMENT ( #334, #164, ( #122 ) ) ;
#235 = ORIENTED_EDGE ( 'NONE', *, *, #141, .T. ) ;
#236 = CIRCLE ( 'NONE', #135, 2.324999999999995293 ) ;
#237 = APPROVAL ( #27, 'UNSPECIFIED' ) ;
#238 = DIRECTION ( 'NONE',  ( -2.468850131082267316E-15, 0.7071067811865471286, -0.7071067811865479058 ) ) ;
#239 = DIRECTION ( 'NONE',  ( -3.491481338843133355E-15, 1.224646799147353207E-16, -1.000000000000000000 ) ) ;
#240 = ADVANCED_FACE ( 'NONE', ( #303 ), #243, .T. ) ;
#241 = CARTESIAN_POINT ( 'NONE',  ( 2.007601769834801742E-13, -7.041719095097280485E-15, 57.50000000000000000 ) ) ;
#242 = DIRECTION ( 'NONE',  ( -3.491481338843133355E-15, 1.224646799147353207E-16, -1.000000000000000000 ) ) ;
#243 = CONICAL_SURFACE ( 'NONE', #251, 1.825000000000000400, 0.7853981633974476129 ) ;
#244 = CARTESIAN_POINT ( 'NONE',  ( 5.162333090501369075E-15, 2.324999999999993516, 1.397000939239089412 ) ) ;
#245 = DIRECTION ( 'NONE',  ( -4.275831445896958607E-31, -1.000000000000000000, -1.224646799147353207E-16 ) ) ;
#246 = FACE_OUTER_BOUND ( 'NONE', #214, .T. ) ;
#247 = CIRCLE ( 'NONE', #78, 1.825000000000000400 ) ;
#248 = FACE_OUTER_BOUND ( 'NONE', #134, .T. ) ;
#249 = CARTESIAN_POINT ( 'NONE',  ( 3.414686378523973855E-14, -2.324999999999997513, 18.00000000000000000 ) ) ;
#250 = CARTESIAN_POINT ( 'NONE',  ( 0.0000000000000000000, 0.0000000000000000000, 0.0000000000000000000 ) ) ;
#251 = AXIS2_PLACEMENT_3D ( 'NONE', #204, #179, #151 ) ;
#252 = ADVANCED_FACE ( 'NONE', ( #246 ), #20, .T. ) ;
#253 = COORDINATED_UNIVERSAL_TIME_OFFSET ( 1, 0, .AHEAD. ) ;
#254 = EDGE_LOOP ( 'NONE', ( #235, #157, #209, #264 ) ) ;
#255 = CC_DESIGN_PERSON_AND_ORGANIZATION_ASSIGNMENT ( #228, #1, ( #60 ) ) ;
#256 = COORDINATED_UNIVERSAL_TIME_OFFSET ( 1, 0, .AHEAD. ) ;
#257 = ORIENTED_EDGE ( 'NONE', *, *, #148, .T. ) ;
#258 = ADVANCED_BREP_SHAPE_REPRESENTATION ( '54581', ( #120, #119, #310 ), #162 ) ;
#259 = EDGE_LOOP ( 'NONE', ( #89, #312 ) ) ;
#260 = APPROVAL_ROLE ( '' ) ;
#261 = ORIENTED_EDGE ( 'NONE', *, *, #16, .F. ) ;
#262 = ADVANCED_FACE ( 'NONE', ( #127 ), #296, .T. ) ;
#263 = APPROVAL_DATE_TIME ( #59, #5 ) ;
#264 = ORIENTED_EDGE ( 'NONE', *, *, #180, .F. ) ;
#265 = DIRECTION ( 'NONE',  ( -3.491481338843133355E-15, 1.224646799147353207E-16, -1.000000000000000000 ) ) ;
#266 = CLOSED_SHELL ( 'NONE', ( #103, #274, #211, #199, #240, #128 ) ) ;
#267 = LINE ( 'NONE', #197, #147 ) ;
#268 = CARTESIAN_POINT ( 'NONE',  ( 2.847303808017584109E-16, -2.324999999999997957, -2.847303808017603337E-16 ) ) ;
#269 = FACE_OUTER_BOUND ( 'NONE', #115, .T. ) ;
#270 = CARTESIAN_POINT ( 'NONE',  ( 6.284666409917640040E-14, -2.204364238465235428E-15, 18.00000000000000000 ) ) ;
#271 = AXIS2_PLACEMENT_3D ( 'NONE', #294, #144, #15 ) ;
#272 = CARTESIAN_POINT ( 'NONE',  ( 2.007601769834801742E-13, -7.041719095097280485E-15, 57.50000000000000000 ) ) ;
#273 = CARTESIAN_POINT ( 'NONE',  ( 0.0000000000000000000, 0.0000000000000000000, 0.0000000000000000000 ) ) ;
#274 = ADVANCED_FACE ( 'NONE', ( #19 ), #331, .T. ) ;
#275 =( NAMED_UNIT ( * ) PLANE_ANGLE_UNIT ( ) SI_UNIT ( $, .RADIAN. ) );
#276 = DIRECTION ( 'NONE',  ( -3.491481338843133355E-15, 1.224646799147353207E-16, -1.000000000000000000 ) ) ;
#277 = CARTESIAN_POINT ( 'NONE',  ( 6.284666409917640040E-14, 1.743470747344402764E-32, 18.00000000000000000 ) ) ;
#278 = EDGE_LOOP ( 'NONE', ( #336, #108, #6, #92 ) ) ;
#279 = APPROVAL_PERSON_ORGANIZATION ( #88, #79, #80 ) ;
#280 = AXIS2_PLACEMENT_3D ( 'NONE', #298, #104, #329 ) ;
#281 = ORIENTED_EDGE ( 'NONE', *, *, #289, .F. ) ;
#282 = DATE_AND_TIME ( #130, #301 ) ;
#283 = VERTEX_POINT ( 'NONE', #101 ) ;
#284 = CALENDAR_DATE ( 2021, 3, 9 ) ;
#285 = EDGE_CURVE ( 'NONE', #64, #317, #97, .T. ) ;
#286 = APPROVAL_STATUS ( 'not_yet_approved' ) ;
#287 = EDGE_LOOP ( 'NONE', ( #87, #110, #2, #136 ) ) ;
#288 = CARTESIAN_POINT ( 'NONE',  ( 2.025059176529017346E-13, -7.102951435054648059E-15, 58.00000000000000000 ) ) ;
#289 = EDGE_CURVE ( 'NONE', #213, #183, #129, .T. ) ;
#290 = DIRECTION ( 'NONE',  ( 0.0000000000000000000, 1.000000000000000000, 0.0000000000000000000 ) ) ;
#291 = AXIS2_PLACEMENT_3D ( 'NONE', #241, #169, #99 ) ;
#292 = CARTESIAN_POINT ( 'NONE',  ( 9.941308111710406121E-31, 2.324999999999994404, 2.847303808017589532E-16 ) ) ;
#293 = CARTESIAN_POINT ( 'NONE',  ( 0.0000000000000000000, 0.0000000000000000000, 0.0000000000000000000 ) ) ;
#294 = CARTESIAN_POINT ( 'NONE',  ( 2.025059176529017346E-13, 1.368530801678934804E-32, 58.00000000000000000 ) ) ;
#295 = CC_DESIGN_SECURITY_CLASSIFICATION ( #122, ( #60 ) ) ;
#296 = CYLINDRICAL_SURFACE ( 'NONE', #280, 2.324999999999994404 ) ;
#297 = CLOSED_SHELL ( 'NONE', ( #166, #176, #252, #262, #193 ) ) ;
#298 = CARTESIAN_POINT ( 'NONE',  ( 0.0000000000000000000, 0.0000000000000000000, 0.0000000000000000000 ) ) ;
#299 = EDGE_CURVE ( 'NONE', #34, #81, #236, .T. ) ;
#300 = CARTESIAN_POINT ( 'NONE',  ( 2.007601769834801742E-13, 2.324999999999993516, 57.50000000000000000 ) ) ;
#301 = LOCAL_TIME ( 9, 51, 20.00000000000000000, #133 ) ;
#302 = PRODUCT_RELATED_PRODUCT_CATEGORY ( 'detail', '', ( #10 ) ) ;
#303 = FACE_OUTER_BOUND ( 'NONE', #61, .T. ) ;
#304 = AXIS2_PLACEMENT_3D ( 'NONE', #14, #239, #149 ) ;
#305 =( NAMED_UNIT ( * ) SI_UNIT ( $, .STERADIAN. ) SOLID_ANGLE_UNIT ( ) );
#306 = EDGE_CURVE ( 'NONE', #81, #34, #323, .T. ) ;
#307 = APPLICATION_PROTOCOL_DEFINITION ( 'international standard', 'config_control_design', 1994, #322 ) ;
#308 = CALENDAR_DATE ( 2021, 3, 9 ) ;
#309 = VERTEX_POINT ( 'NONE', #75 ) ;
#310 = AXIS2_PLACEMENT_3D ( 'NONE', #54, #187, #185 ) ;
#311 = PERSON_AND_ORGANIZATION ( #333, #208 ) ;
#312 = ORIENTED_EDGE ( 'NONE', *, *, #155, .F. ) ;
#313 = CC_DESIGN_PERSON_AND_ORGANIZATION_ASSIGNMENT ( #161, #83, ( #10 ) ) ;
#314 = MECHANICAL_CONTEXT ( 'NONE', #322, 'mechanical' ) ;
#315 = ORIENTED_EDGE ( 'NONE', *, *, #53, .F. ) ;
#316 = PERSON_AND_ORGANIZATION ( #333, #208 ) ;
#317 = VERTEX_POINT ( 'NONE', #300 ) ;
#318 = AXIS2_PLACEMENT_3D ( 'NONE', #41, #146, #70 ) ;
#319 = CARTESIAN_POINT ( 'NONE',  ( 4.877602709699609382E-15, -1.710832728644996536E-16, 1.397000939239089190 ) ) ;
#320 = DIRECTION ( 'NONE',  ( 3.491481338843133355E-15, -1.224646799147353207E-16, 1.000000000000000000 ) ) ;
#321 = DIRECTION ( 'NONE',  ( -3.491481338843133355E-15, 1.224646799147353207E-16, -1.000000000000000000 ) ) ;
#322 = APPLICATION_CONTEXT ( 'configuration controlled 3d designs of mechanical parts and assemblies' ) ;
#323 = CIRCLE ( 'NONE', #143, 2.324999999999995293 ) ;
#324 = DIRECTION ( 'NONE',  ( 0.0000000000000000000, 1.000000000000000000, 0.0000000000000000000 ) ) ;
#325 = CYLINDRICAL_SURFACE ( 'NONE', #62, 2.324999999999994404 ) ;
#326 = DIRECTION ( 'NONE',  ( 4.275831445896959482E-31, 1.000000000000000000, 1.224646799147353207E-16 ) ) ;
#327 = CIRCLE ( 'NONE', #178, 2.324999999999993516 ) ;
#328 = EDGE_CURVE ( 'NONE', #309, #231, #327, .T. ) ;
#329 = DIRECTION ( 'NONE',  ( 4.275831445896959482E-31, 1.000000000000000000, 1.224646799147353207E-16 ) ) ;
#330 = DIRECTION ( 'NONE',  ( -4.275831445896958607E-31, -1.000000000000000000, -1.224646799147353207E-16 ) ) ;
#331 = CYLINDRICAL_SURFACE ( 'NONE', #84, 2.324999999999997957 ) ;
#332 = CC_DESIGN_APPROVAL ( #5, ( #137 ) ) ;
#333 = PERSON ( 'UNSPECIFIED', 'UNSPECIFIED', 'UNSPECIFIED', ('UNSPECIFIED'), ('UNSPECIFIED'), ('UNSPECIFIED') ) ;
#334 = DATE_AND_TIME ( #308, #18 ) ;
#335 = APPROVAL_ROLE ( '' ) ;
#336 = ORIENTED_EDGE ( 'NONE', *, *, #12, .F. ) ;
#337 = AXIS2_PLACEMENT_3D ( 'NONE', #288, #121, #324 ) ;
ENDSEC;
END-ISO-10303-21;
