ISO-10303-21;
HEADER;
FILE_DESCRIPTION (( 'STEP AP203' ),
    '1' );
FILE_NAME ('54580.step',
    '2021-09-03T07:51:16',
    ( '' ),
    ( '' ),
    'SwSTEP 2.0',
    'SolidWorks 2019',
    '' );
FILE_SCHEMA (( 'CONFIG_CONTROL_DESIGN' ));
ENDSEC;

DATA;
#1 = DIRECTION ( 'NONE',  ( -3.491481338843133355E-15, 1.224646799147353207E-16, -1.000000000000000000 ) ) ;
#2 = CC_DESIGN_PERSON_AND_ORGANIZATION_ASSIGNMENT ( #57, #160, ( #165 ) ) ;
#3 = DIRECTION ( 'NONE',  ( 3.349443381543029042E-31, 1.000000000000000000, 9.427844978134849783E-17 ) ) ;
#4 = DIRECTION ( 'NONE',  ( -4.275831445896958607E-31, -1.000000000000000000, -1.224646799147353207E-16 ) ) ;
#5 = AXIS2_PLACEMENT_3D ( 'NONE', #252, #170, #273 ) ;
#6 = DIRECTION ( 'NONE',  ( -4.275831445896958607E-31, -1.000000000000000000, -1.224646799147353207E-16 ) ) ;
#7 = EDGE_LOOP ( 'NONE', ( #72, #154 ) ) ;
#8 = PERSON_AND_ORGANIZATION ( #179, #93 ) ;
#9 = ORIENTED_EDGE ( 'NONE', *, *, #187, .F. ) ;
#10 = APPROVAL ( #217, 'UNSPECIFIED' ) ;
#11 = VECTOR ( 'NONE', #310, 1000.000000000000000 ) ;
#12 = FACE_OUTER_BOUND ( 'NONE', #113, .T. ) ;
#13 = VERTEX_POINT ( 'NONE', #68 ) ;
#14 = CALENDAR_DATE ( 2021, 3, 9 ) ;
#15 = ADVANCED_FACE ( 'NONE', ( #146 ), #99, .T. ) ;
#16 = AXIS2_PLACEMENT_3D ( 'NONE', #167, #194, #20 ) ;
#17 = EDGE_LOOP ( 'NONE', ( #304, #270 ) ) ;
#18 = DIRECTION ( 'NONE',  ( 4.275831445896957731E-31, 1.000000000000000000, 1.224646799147353207E-16 ) ) ;
#19 = ORIENTED_EDGE ( 'NONE', *, *, #303, .F. ) ;
#20 = DIRECTION ( 'NONE',  ( 0.0000000000000000000, 1.000000000000000000, 0.0000000000000000000 ) ) ;
#21 = EDGE_LOOP ( 'NONE', ( #186, #246, #43 ) ) ;
#22 = DIRECTION ( 'NONE',  ( 0.0000000000000000000, 1.000000000000000000, 0.0000000000000000000 ) ) ;
#23 = LINE ( 'NONE', #133, #11 ) ;
#24 = AXIS2_PLACEMENT_3D ( 'NONE', #322, #111, #84 ) ;
#25 = DIRECTION ( 'NONE',  ( -3.491481338843133355E-15, 1.224646799147353207E-16, -1.000000000000000000 ) ) ;
#26 = DIRECTION ( 'NONE',  ( 0.0000000000000000000, 1.000000000000000000, 0.0000000000000000000 ) ) ;
#27 = UNCERTAINTY_MEASURE_WITH_UNIT (LENGTH_MEASURE( 1.000000000000000082E-05 ), #59, 'distance_accuracy_value', 'NONE');
#28 = DIRECTION ( 'NONE',  ( 0.0000000000000000000, 1.000000000000000000, 0.0000000000000000000 ) ) ;
#29 = CARTESIAN_POINT ( 'NONE',  ( 6.284666409917640040E-14, -2.204364238465235428E-15, 18.00000000000000000 ) ) ;
#30 = COORDINATED_UNIVERSAL_TIME_OFFSET ( 1, 0, .AHEAD. ) ;
#31 = EDGE_CURVE ( 'NONE', #192, #210, #96, .T. ) ;
#32 = APPLICATION_PROTOCOL_DEFINITION ( 'international standard', 'config_control_design', 1994, #236 ) ;
#33 = ORIENTED_EDGE ( 'NONE', *, *, #196, .F. ) ;
#34 = COORDINATED_UNIVERSAL_TIME_OFFSET ( 1, 0, .AHEAD. ) ;
#35 = CIRCLE ( 'NONE', #24, 2.299999999999993161 ) ;
#36 = CONICAL_SURFACE ( 'NONE', #53, 1.800000000000000266, 0.7853981633974476129 ) ;
#37 = PERSON_AND_ORGANIZATION_ROLE ( 'design_owner' ) ;
#38 = ADVANCED_FACE ( 'NONE', ( #47 ), #130, .T. ) ;
#39 = DIRECTION ( 'NONE',  ( -3.491481338843133355E-15, 1.224646799147353207E-16, -1.000000000000000000 ) ) ;
#40 = EDGE_LOOP ( 'NONE', ( #280, #164, #86, #188 ) ) ;
#41 = EDGE_LOOP ( 'NONE', ( #33, #247, #197, #147 ) ) ;
#42 = SHAPE_DEFINITION_REPRESENTATION ( #269, #268 ) ;
#43 = ORIENTED_EDGE ( 'NONE', *, *, #308, .T. ) ;
#44 = CARTESIAN_POINT ( 'NONE',  ( 2.025059176529017346E-13, 1.349783804395661447E-32, 58.00000000000000000 ) ) ;
#45 = VECTOR ( 'NONE', #282, 999.9999999999998863 ) ;
#46 = APPROVAL_DATE_TIME ( #272, #10 ) ;
#47 = FACE_OUTER_BOUND ( 'NONE', #21, .T. ) ;
#48 = DIRECTION ( 'NONE',  ( -3.491481338843133355E-15, 1.224646799147353207E-16, -1.000000000000000000 ) ) ;
#49 = CARTESIAN_POINT ( 'NONE',  ( 4.825155368735097572E-15, -1.692436677799351268E-16, 1.381979423763399772 ) ) ;
#50 = AXIS2_PLACEMENT_3D ( 'NONE', #132, #156, #4 ) ;
#51 = EDGE_CURVE ( 'NONE', #124, #221, #149, .T. ) ;
#52 = DIRECTION ( 'NONE',  ( -3.491481338843133355E-15, 1.224646799147353207E-16, -1.000000000000000000 ) ) ;
#53 = AXIS2_PLACEMENT_3D ( 'NONE', #76, #52, #157 ) ;
#54 = FACE_OUTER_BOUND ( 'NONE', #293, .T. ) ;
#55 = CLOSED_SHELL ( 'NONE', ( #237, #181, #211, #15, #102, #90 ) ) ;
#56 = DIRECTION ( 'NONE',  ( -3.491481338843133355E-15, 1.224646799147353207E-16, -1.000000000000000000 ) ) ;
#57 = PERSON_AND_ORGANIZATION ( #179, #93 ) ;
#58 = EDGE_CURVE ( 'NONE', #124, #227, #305, .T. ) ;
#59 =( LENGTH_UNIT ( ) NAMED_UNIT ( * ) SI_UNIT ( .MILLI., .METRE. ) );
#60 = CALENDAR_DATE ( 2021, 3, 9 ) ;
#61 = CC_DESIGN_PERSON_AND_ORGANIZATION_ASSIGNMENT ( #8, #37, ( #324 ) ) ;
#62 =( GEOMETRIC_REPRESENTATION_CONTEXT ( 3 ) GLOBAL_UNCERTAINTY_ASSIGNED_CONTEXT ( ( #27 ) ) GLOBAL_UNIT_ASSIGNED_CONTEXT ( ( #59, #189, #267 ) ) REPRESENTATION_CONTEXT ( 'NONE', 'WORKASPACE' ) );
#63 = CARTESIAN_POINT ( 'NONE',  ( 9.834412325562993059E-31, 2.299999999999997158, 2.816687638038909098E-16 ) ) ;
#64 = ORIENTED_EDGE ( 'NONE', *, *, #298, .F. ) ;
#65 = CARTESIAN_POINT ( 'NONE',  ( 0.0000000000000000000, 0.0000000000000000000, 0.0000000000000000000 ) ) ;
#66 = ADVANCED_FACE ( 'NONE', ( #166 ), #70, .T. ) ;
#67 = COORDINATED_UNIVERSAL_TIME_OFFSET ( 1, 0, .AHEAD. ) ;
#68 = CARTESIAN_POINT ( 'NONE',  ( 1.320850893051321453E-13, -2.299999999999997158, 18.00000000000000000 ) ) ;
#69 = CALENDAR_DATE ( 2021, 3, 9 ) ;
#70 = CYLINDRICAL_SURFACE ( 'NONE', #148, 2.299999999999994049 ) ;
#71 = PERSON_AND_ORGANIZATION_ROLE ( 'classification_officer' ) ;
#72 = ORIENTED_EDGE ( 'NONE', *, *, #127, .F. ) ;
#73 = EDGE_CURVE ( 'NONE', #83, #297, #104, .T. ) ;
#74 = CYLINDRICAL_SURFACE ( 'NONE', #255, 2.299999999999997158 ) ;
#75 = CARTESIAN_POINT ( 'NONE',  ( 6.284666409917640040E-14, -2.204364238465235428E-15, 18.00000000000000000 ) ) ;
#76 = CARTESIAN_POINT ( 'NONE',  ( 2.025059176529017346E-13, -7.102951435054648059E-15, 58.00000000000000000 ) ) ;
#77 = SECURITY_CLASSIFICATION ( '', '', #326 ) ;
#78 = FACE_OUTER_BOUND ( 'NONE', #240, .T. ) ;
#79 = VECTOR ( 'NONE', #185, 1000.000000000000000 ) ;
#80 = DIRECTION ( 'NONE',  ( 4.275831445896958607E-31, 1.000000000000000000, 1.224646799147353207E-16 ) ) ;
#81 = APPLICATION_PROTOCOL_DEFINITION ( 'international standard', 'config_control_design', 1994, #295 ) ;
#82 = APPROVAL_STATUS ( 'not_yet_approved' ) ;
#83 = VERTEX_POINT ( 'NONE', #122 ) ;
#84 = DIRECTION ( 'NONE',  ( 3.349443381543029042E-31, 1.000000000000000000, 9.427844978134849783E-17 ) ) ;
#85 = LINE ( 'NONE', #63, #195 ) ;
#86 = ORIENTED_EDGE ( 'NONE', *, *, #289, .F. ) ;
#87 = CARTESIAN_POINT ( 'NONE',  ( 2.018840999120161728E-13, -1.800000000000007372, 58.00000000000000000 ) ) ;
#88 = CIRCLE ( 'NONE', #212, 1.800000000000000266 ) ;
#89 = DIRECTION ( 'NONE',  ( -3.491481338843133355E-15, 1.224646799147353207E-16, -1.000000000000000000 ) ) ;
#90 = ADVANCED_FACE ( 'NONE', ( #125 ), #219, .F. ) ;
#91 = APPROVAL_ROLE ( '' ) ;
#92 = DIRECTION ( 'NONE',  ( 4.275831445896958607E-31, 1.000000000000000000, 1.224646799147353207E-16 ) ) ;
#93 = ORGANIZATION ( 'UNSPECIFIED', 'UNSPECIFIED', '' ) ;
#94 = AXIS2_PLACEMENT_3D ( 'NONE', #49, #335, #177 ) ;
#95 = ORIENTED_EDGE ( 'NONE', *, *, #187, .T. ) ;
#96 = CIRCLE ( 'NONE', #143, 2.299999999999995381 ) ;
#97 = ORIENTED_EDGE ( 'NONE', *, *, #289, .T. ) ;
#98 = AXIS2_PLACEMENT_3D ( 'NONE', #44, #327, #80 ) ;
#99 = CYLINDRICAL_SURFACE ( 'NONE', #287, 2.299999999999997158 ) ;
#100 = DIRECTION ( 'NONE',  ( -3.491481338843133355E-15, 1.224646799147353207E-16, -1.000000000000000000 ) ) ;
#101 = CARTESIAN_POINT ( 'NONE',  ( 2.025059176529017346E-13, -7.102951435054648059E-15, 58.00000000000000000 ) ) ;
#102 = ADVANCED_FACE ( 'NONE', ( #183 ), #145, .T. ) ;
#103 = CARTESIAN_POINT ( 'NONE',  ( 4.825155368735096783E-15, -2.299999999999993161, 1.381979423763399550 ) ) ;
#104 = CIRCLE ( 'NONE', #16, 2.299999999999999822 ) ;
#105 = DESIGN_CONTEXT ( 'detailed design', #295, 'design' ) ;
#106 = CARTESIAN_POINT ( 'NONE',  ( 2.007601769834801742E-13, 2.299999999999993161, 57.50000000000000000 ) ) ;
#107 = CC_DESIGN_PERSON_AND_ORGANIZATION_ASSIGNMENT ( #220, #226, ( #302 ) ) ;
#108 = CARTESIAN_POINT ( 'NONE',  ( 3.411757849775960464E-14, -2.299999999999997158, 18.00000000000000000 ) ) ;
#109 = MANIFOLD_SOLID_BREP ( 'Corps-Déplacer/Copier1[2]', #118 ) ;
#110 = EDGE_LOOP ( 'NONE', ( #129, #144, #275, #64 ) ) ;
#111 = DIRECTION ( 'NONE',  ( -3.491481338843133355E-15, 1.224646799147353207E-16, -1.000000000000000000 ) ) ;
#112 = APPROVAL_PERSON_ORGANIZATION ( #251, #10, #91 ) ;
#113 = EDGE_LOOP ( 'NONE', ( #224, #9 ) ) ;
#114 = AXIS2_PLACEMENT_3D ( 'NONE', #209, #261, #242 ) ;
#115 = ADVANCED_FACE ( 'NONE', ( #54 ), #313, .T. ) ;
#116 = DIRECTION ( 'NONE',  ( -2.468850131082267316E-15, 0.7071067811865471286, -0.7071067811865479058 ) ) ;
#117 = ORIENTED_EDGE ( 'NONE', *, *, #169, .T. ) ;
#118 = CLOSED_SHELL ( 'NONE', ( #66, #204, #38, #115, #336 ) ) ;
#119 = CARTESIAN_POINT ( 'NONE',  ( 6.284666409917640040E-14, 2.299999999999993161, 18.00000000000000000 ) ) ;
#120 = PERSON_AND_ORGANIZATION ( #179, #93 ) ;
#121 = ORIENTED_EDGE ( 'NONE', *, *, #51, .F. ) ;
#122 = CARTESIAN_POINT ( 'NONE',  ( 1.320850893051320444E-13, -2.300000000000006928, 57.50000000000000000 ) ) ;
#123 = APPROVAL_DATE_TIME ( #191, #260 ) ;
#124 = VERTEX_POINT ( 'NONE', #232 ) ;
#125 = FACE_OUTER_BOUND ( 'NONE', #7, .T. ) ;
#126 = APPROVAL_PERSON_ORGANIZATION ( #120, #257, #184 ) ;
#127 = EDGE_CURVE ( 'NONE', #301, #333, #88, .T. ) ;
#128 = CC_DESIGN_APPROVAL ( #257, ( #165 ) ) ;
#129 = ORIENTED_EDGE ( 'NONE', *, *, #127, .T. ) ;
#130 = CONICAL_SURFACE ( 'NONE', #5, 2.299999999999993161, 1.029744258676649649 ) ;
#131 = ORIENTED_EDGE ( 'NONE', *, *, #134, .T. ) ;
#132 = CARTESIAN_POINT ( 'NONE',  ( 6.284666409917640040E-14, 1.724723750061129407E-32, 18.00000000000000000 ) ) ;
#133 = CARTESIAN_POINT ( 'NONE',  ( 2.816687638038899730E-16, -2.299999999999997158, -2.816687638038918959E-16 ) ) ;
#134 = EDGE_CURVE ( 'NONE', #83, #13, #23, .T. ) ;
#135 = DIRECTION ( 'NONE',  ( -3.491481338843133355E-15, 1.224646799147353207E-16, -1.000000000000000000 ) ) ;
#136 = CARTESIAN_POINT ( 'NONE',  ( 2.025059176529017346E-13, -7.102951435054648059E-15, 58.00000000000000000 ) ) ;
#137 = DIRECTION ( 'NONE',  ( 4.275831445896958607E-31, 1.000000000000000000, 1.224646799147353207E-16 ) ) ;
#138 = DATE_TIME_ROLE ( 'creation_date' ) ;
#139 = CARTESIAN_POINT ( 'NONE',  ( 2.025059176529017346E-13, 1.799999999999992939, 58.00000000000000000 ) ) ;
#140 = MECHANICAL_CONTEXT ( 'NONE', #236, 'mechanical' ) ;
#141 = CC_DESIGN_APPROVAL ( #260, ( #302 ) ) ;
#142 = VECTOR ( 'NONE', #1, 1000.000000000000000 ) ;
#143 = AXIS2_PLACEMENT_3D ( 'NONE', #334, #200, #22 ) ;
#144 = ORIENTED_EDGE ( 'NONE', *, *, #196, .T. ) ;
#145 = CONICAL_SURFACE ( 'NONE', #250, 1.800000000000000266, 0.7853981633974476129 ) ;
#146 = FACE_OUTER_BOUND ( 'NONE', #262, .T. ) ;
#147 = ORIENTED_EDGE ( 'NONE', *, *, #73, .F. ) ;
#148 = AXIS2_PLACEMENT_3D ( 'NONE', #65, #244, #18 ) ;
#149 = LINE ( 'NONE', #277, #266 ) ;
#150 = EDGE_CURVE ( 'NONE', #192, #227, #182, .T. ) ;
#151 = PERSON_AND_ORGANIZATION_ROLE ( 'design_supplier' ) ;
#152 = ORIENTED_EDGE ( 'NONE', *, *, #325, .T. ) ;
#153 = AXIS2_PLACEMENT_3D ( 'NONE', #281, #56, #159 ) ;
#154 = ORIENTED_EDGE ( 'NONE', *, *, #245, .F. ) ;
#155 = DIRECTION ( 'NONE',  ( 0.0000000000000000000, 1.000000000000000000, 0.0000000000000000000 ) ) ;
#156 = DIRECTION ( 'NONE',  ( 3.491481338843133355E-15, -1.224646799147353207E-16, 1.000000000000000000 ) ) ;
#157 = DIRECTION ( 'NONE',  ( 0.0000000000000000000, 1.000000000000000000, 0.0000000000000000000 ) ) ;
#158 = CARTESIAN_POINT ( 'NONE',  ( 2.027263540767482629E-13, -1.800000000000007372, 58.00000000000000000 ) ) ;
#159 = DIRECTION ( 'NONE',  ( 4.275831445896957731E-31, 1.000000000000000000, 1.224646799147353207E-16 ) ) ;
#160 = PERSON_AND_ORGANIZATION_ROLE ( 'creator' ) ;
#161 = DATE_AND_TIME ( #60, #331 ) ;
#162 = CONICAL_SURFACE ( 'NONE', #94, 2.299999999999993161, 1.029744258676649649 ) ;
#163 = DIRECTION ( 'NONE',  ( 3.491481338843133355E-15, -1.224646799147353207E-16, 1.000000000000000000 ) ) ;
#164 = ORIENTED_EDGE ( 'NONE', *, *, #303, .T. ) ;
#165 = PRODUCT_DEFINITION ( 'UNKNOWN', '', #302, #105 ) ;
#166 = FACE_OUTER_BOUND ( 'NONE', #40, .T. ) ;
#167 = CARTESIAN_POINT ( 'NONE',  ( 2.007601769834801742E-13, -7.041719095097280485E-15, 57.50000000000000000 ) ) ;
#168 = LOCAL_TIME ( 9, 51, 16.00000000000000000, #299 ) ;
#169 = EDGE_CURVE ( 'NONE', #297, #83, #193, .T. ) ;
#170 = DIRECTION ( 'NONE',  ( 3.491481338843133355E-15, -1.224646799147353207E-16, 1.000000000000000000 ) ) ;
#171 = ORIENTED_EDGE ( 'NONE', *, *, #73, .T. ) ;
#172 = PERSON_AND_ORGANIZATION ( #179, #93 ) ;
#173 = EDGE_LOOP ( 'NONE', ( #117, #131, #292, #243 ) ) ;
#174 = LOCAL_TIME ( 9, 51, 16.00000000000000000, #67 ) ;
#175 = CARTESIAN_POINT ( 'NONE',  ( 2.007601769834801742E-13, -7.041719095097280485E-15, 57.50000000000000000 ) ) ;
#176 = LINE ( 'NONE', #158, #45 ) ;
#177 = DIRECTION ( 'NONE',  ( -3.349443381543029042E-31, -1.000000000000000000, -9.427844978134849783E-17 ) ) ;
#178 = CIRCLE ( 'NONE', #329, 2.299999999999995381 ) ;
#179 = PERSON ( 'UNSPECIFIED', 'UNSPECIFIED', 'UNSPECIFIED', ('UNSPECIFIED'), ('UNSPECIFIED'), ('UNSPECIFIED') ) ;
#180 = APPROVAL_PERSON_ORGANIZATION ( #239, #260, #263 ) ;
#181 = ADVANCED_FACE ( 'NONE', ( #259 ), #74, .T. ) ;
#182 = LINE ( 'NONE', #203, #142 ) ;
#183 = FACE_OUTER_BOUND ( 'NONE', #41, .T. ) ;
#184 = APPROVAL_ROLE ( '' ) ;
#185 = DIRECTION ( 'NONE',  ( -3.491481338843133355E-15, 1.224646799147353207E-16, -1.000000000000000000 ) ) ;
#186 = ORIENTED_EDGE ( 'NONE', *, *, #58, .F. ) ;
#187 = EDGE_CURVE ( 'NONE', #210, #192, #178, .T. ) ;
#188 = ORIENTED_EDGE ( 'NONE', *, *, #150, .F. ) ;
#189 =( NAMED_UNIT ( * ) PLANE_ANGLE_UNIT ( ) SI_UNIT ( $, .RADIAN. ) );
#190 = AXIS2_PLACEMENT_3D ( 'NONE', #175, #25, #283 ) ;
#191 = DATE_AND_TIME ( #69, #323 ) ;
#192 = VERTEX_POINT ( 'NONE', #286 ) ;
#193 = CIRCLE ( 'NONE', #190, 2.299999999999999822 ) ;
#194 = DIRECTION ( 'NONE',  ( -3.491481338843133355E-15, 1.224646799147353207E-16, -1.000000000000000000 ) ) ;
#195 = VECTOR ( 'NONE', #39, 1000.000000000000000 ) ;
#196 = EDGE_CURVE ( 'NONE', #333, #83, #176, .T. ) ;
#197 = ORIENTED_EDGE ( 'NONE', *, *, #298, .T. ) ;
#198 = PERSON_AND_ORGANIZATION ( #179, #93 ) ;
#199 = ORIENTED_EDGE ( 'NONE', *, *, #134, .F. ) ;
#200 = DIRECTION ( 'NONE',  ( -3.491481338843133355E-15, 1.224646799147353207E-16, -1.000000000000000000 ) ) ;
#201 = PRODUCT_RELATED_PRODUCT_CATEGORY ( 'detail', '', ( #324 ) ) ;
#202 = DIRECTION ( 'NONE',  ( -3.491481338843133355E-15, 1.224646799147353207E-16, -1.000000000000000000 ) ) ;
#203 = CARTESIAN_POINT ( 'NONE',  ( 9.834412325562977295E-31, 2.299999999999994049, 2.816687638038905153E-16 ) ) ;
#204 = ADVANCED_FACE ( 'NONE', ( #78 ), #162, .T. ) ;
#205 = DIRECTION ( 'NONE',  ( -3.491481338843133355E-15, 1.224646799147353207E-16, -1.000000000000000000 ) ) ;
#206 = CIRCLE ( 'NONE', #248, 2.299999999999995381 ) ;
#207 = FACE_OUTER_BOUND ( 'NONE', #17, .T. ) ;
#208 = CARTESIAN_POINT ( 'NONE',  ( 5.106824132538988728E-15, 2.299999999999993161, 1.381979423763399994 ) ) ;
#209 = CARTESIAN_POINT ( 'NONE',  ( 0.0000000000000000000, 0.0000000000000000000, 0.0000000000000000000 ) ) ;
#210 = VERTEX_POINT ( 'NONE', #108 ) ;
#211 = ADVANCED_FACE ( 'NONE', ( #207 ), #337, .F. ) ;
#212 = AXIS2_PLACEMENT_3D ( 'NONE', #101, #202, #155 ) ;
#213 = LINE ( 'NONE', #241, #285 ) ;
#214 = CC_DESIGN_DATE_AND_TIME_ASSIGNMENT ( #279, #332, ( #77 ) ) ;
#215 = APPROVAL_DATE_TIME ( #315, #257 ) ;
#216 = MANIFOLD_SOLID_BREP ( 'Corps-Déplacer/Copier1[1]', #55 ) ;
#217 = APPROVAL_STATUS ( 'not_yet_approved' ) ;
#218 = CALENDAR_DATE ( 2021, 3, 9 ) ;
#219 = PLANE ( 'NONE',  #98 ) ;
#220 = PERSON_AND_ORGANIZATION ( #179, #93 ) ;
#221 = VERTEX_POINT ( 'NONE', #103 ) ;
#222 = EDGE_CURVE ( 'NONE', #318, #13, #234, .T. ) ;
#223 = CC_DESIGN_APPROVAL ( #10, ( #77 ) ) ;
#224 = ORIENTED_EDGE ( 'NONE', *, *, #31, .F. ) ;
#225 = AXIS2_PLACEMENT_3D ( 'NONE', #136, #256, #26 ) ;
#226 = PERSON_AND_ORGANIZATION_ROLE ( 'creator' ) ;
#227 = VERTEX_POINT ( 'NONE', #208 ) ;
#228 = EDGE_CURVE ( 'NONE', #13, #318, #206, .T. ) ;
#229 = CARTESIAN_POINT ( 'NONE',  ( 0.0000000000000000000, 0.0000000000000000000, 0.0000000000000000000 ) ) ;
#230 = CARTESIAN_POINT ( 'NONE',  ( 6.284666409917640040E-14, -2.204364238465235428E-15, 18.00000000000000000 ) ) ;
#231 = CARTESIAN_POINT ( 'NONE',  ( 2.025059176529017346E-13, -7.102951435054648059E-15, 58.00000000000000000 ) ) ;
#232 = CARTESIAN_POINT ( 'NONE',  ( 0.0000000000000000000, 0.0000000000000000000, 0.0000000000000000000 ) ) ;
#233 = CARTESIAN_POINT ( 'NONE',  ( 4.825155368735097572E-15, -1.692436677799351268E-16, 1.381979423763399772 ) ) ;
#234 = CIRCLE ( 'NONE', #265, 2.299999999999995381 ) ;
#235 = DIRECTION ( 'NONE',  ( 0.0000000000000000000, 1.000000000000000000, 0.0000000000000000000 ) ) ;
#236 = APPLICATION_CONTEXT ( 'configuration controlled 3d designs of mechanical parts and assemblies' ) ;
#237 = ADVANCED_FACE ( 'NONE', ( #254 ), #36, .T. ) ;
#238 = CARTESIAN_POINT ( 'NONE',  ( 2.816687638038895293E-16, -2.299999999999994049, -2.816687638038914521E-16 ) ) ;
#239 = PERSON_AND_ORGANIZATION ( #179, #93 ) ;
#240 = EDGE_LOOP ( 'NONE', ( #121, #316, #97 ) ) ;
#241 = CARTESIAN_POINT ( 'NONE',  ( 2.025059176529017346E-13, 1.799999999999992939, 58.00000000000000000 ) ) ;
#242 = DIRECTION ( 'NONE',  ( 1.000000000000000000, 0.0000000000000000000, 0.0000000000000000000 ) ) ;
#243 = ORIENTED_EDGE ( 'NONE', *, *, #325, .F. ) ;
#244 = DIRECTION ( 'NONE',  ( -3.491481338843133355E-15, 1.224646799147353207E-16, -1.000000000000000000 ) ) ;
#245 = EDGE_CURVE ( 'NONE', #333, #301, #264, .T. ) ;
#246 = ORIENTED_EDGE ( 'NONE', *, *, #51, .T. ) ;
#247 = ORIENTED_EDGE ( 'NONE', *, *, #245, .T. ) ;
#248 = AXIS2_PLACEMENT_3D ( 'NONE', #230, #205, #258 ) ;
#249 = CARTESIAN_POINT ( 'NONE',  ( 5.106824132538988728E-15, 2.299999999999993161, 1.381979423763399994 ) ) ;
#250 = AXIS2_PLACEMENT_3D ( 'NONE', #231, #288, #309 ) ;
#251 = PERSON_AND_ORGANIZATION ( #179, #93 ) ;
#252 = CARTESIAN_POINT ( 'NONE',  ( 4.825155368735097572E-15, -1.692436677799351268E-16, 1.381979423763399772 ) ) ;
#253 = DIRECTION ( 'NONE',  ( -3.491481338843133355E-15, 1.224646799147353207E-16, -1.000000000000000000 ) ) ;
#254 = FACE_OUTER_BOUND ( 'NONE', #110, .T. ) ;
#255 = AXIS2_PLACEMENT_3D ( 'NONE', #307, #253, #137 ) ;
#256 = DIRECTION ( 'NONE',  ( -3.491481338843133355E-15, 1.224646799147353207E-16, -1.000000000000000000 ) ) ;
#257 = APPROVAL ( #314, 'UNSPECIFIED' ) ;
#258 = DIRECTION ( 'NONE',  ( 0.0000000000000000000, 1.000000000000000000, 0.0000000000000000000 ) ) ;
#259 = FACE_OUTER_BOUND ( 'NONE', #173, .T. ) ;
#260 = APPROVAL ( #82, 'UNSPECIFIED' ) ;
#261 = DIRECTION ( 'NONE',  ( 0.0000000000000000000, 0.0000000000000000000, 1.000000000000000000 ) ) ;
#262 = EDGE_LOOP ( 'NONE', ( #199, #171, #152, #328 ) ) ;
#263 = APPROVAL_ROLE ( '' ) ;
#264 = CIRCLE ( 'NONE', #225, 1.800000000000000266 ) ;
#265 = AXIS2_PLACEMENT_3D ( 'NONE', #29, #100, #235 ) ;
#266 = VECTOR ( 'NONE', #300, 1000.000000000000000 ) ;
#267 =( NAMED_UNIT ( * ) SI_UNIT ( $, .STERADIAN. ) SOLID_ANGLE_UNIT ( ) );
#268 = ADVANCED_BREP_SHAPE_REPRESENTATION ( '54580', ( #216, #109, #114 ), #62 ) ;
#269 = PRODUCT_DEFINITION_SHAPE ( 'NONE', 'NONE',  #165 ) ;
#270 = ORIENTED_EDGE ( 'NONE', *, *, #228, .T. ) ;
#271 = CC_DESIGN_DATE_AND_TIME_ASSIGNMENT ( #161, #138, ( #165 ) ) ;
#272 = DATE_AND_TIME ( #218, #168 ) ;
#273 = DIRECTION ( 'NONE',  ( -3.349443381543029042E-31, -1.000000000000000000, -9.427844978134849783E-17 ) ) ;
#274 = CALENDAR_DATE ( 2021, 3, 9 ) ;
#275 = ORIENTED_EDGE ( 'NONE', *, *, #169, .F. ) ;
#276 = VECTOR ( 'NONE', #306, 999.9999999999998863 ) ;
#277 = CARTESIAN_POINT ( 'NONE',  ( 4.825155368735096783E-15, -2.299999999999993161, 1.381979423763399550 ) ) ;
#278 = CC_DESIGN_PERSON_AND_ORGANIZATION_ASSIGNMENT ( #198, #71, ( #77 ) ) ;
#279 = DATE_AND_TIME ( #274, #174 ) ;
#280 = ORIENTED_EDGE ( 'NONE', *, *, #31, .T. ) ;
#281 = CARTESIAN_POINT ( 'NONE',  ( 0.0000000000000000000, 0.0000000000000000000, 0.0000000000000000000 ) ) ;
#282 = DIRECTION ( 'NONE',  ( -2.382254525458718258E-15, -0.7071067811865469066, -0.7071067811865482389 ) ) ;
#283 = DIRECTION ( 'NONE',  ( 0.0000000000000000000, 1.000000000000000000, 0.0000000000000000000 ) ) ;
#284 = LOCAL_TIME ( 9, 51, 16.00000000000000000, #290 ) ;
#285 = VECTOR ( 'NONE', #116, 1000.000000000000000 ) ;
#286 = CARTESIAN_POINT ( 'NONE',  ( 6.284666409917640040E-14, 2.299999999999993161, 18.00000000000000000 ) ) ;
#287 = AXIS2_PLACEMENT_3D ( 'NONE', #229, #89, #92 ) ;
#288 = DIRECTION ( 'NONE',  ( -3.491481338843133355E-15, 1.224646799147353207E-16, -1.000000000000000000 ) ) ;
#289 = EDGE_CURVE ( 'NONE', #227, #221, #311, .T. ) ;
#290 = COORDINATED_UNIVERSAL_TIME_OFFSET ( 1, 0, .AHEAD. ) ;
#291 = PLANE ( 'NONE',  #294 ) ;
#292 = ORIENTED_EDGE ( 'NONE', *, *, #222, .F. ) ;
#293 = EDGE_LOOP ( 'NONE', ( #19, #95, #321, #330 ) ) ;
#294 = AXIS2_PLACEMENT_3D ( 'NONE', #296, #163, #6 ) ;
#295 = APPLICATION_CONTEXT ( 'configuration controlled 3d designs of mechanical parts and assemblies' ) ;
#296 = CARTESIAN_POINT ( 'NONE',  ( 6.284666409917640040E-14, 1.724723750061129407E-32, 18.00000000000000000 ) ) ;
#297 = VERTEX_POINT ( 'NONE', #106 ) ;
#298 = EDGE_CURVE ( 'NONE', #301, #297, #213, .T. ) ;
#299 = COORDINATED_UNIVERSAL_TIME_OFFSET ( 1, 0, .AHEAD. ) ;
#300 = DIRECTION ( 'NONE',  ( 1.798245827342160317E-15, -0.8571673007021098911, 0.5150380749100582634 ) ) ;
#301 = VERTEX_POINT ( 'NONE', #139 ) ;
#302 = PRODUCT_DEFINITION_FORMATION_WITH_SPECIFIED_SOURCE ( 'ANY', '', #324, .NOT_KNOWN. ) ;
#303 = EDGE_CURVE ( 'NONE', #210, #221, #320, .T. ) ;
#304 = ORIENTED_EDGE ( 'NONE', *, *, #222, .T. ) ;
#305 = LINE ( 'NONE', #249, #276 ) ;
#306 = DIRECTION ( 'NONE',  ( 1.903218546456022717E-15, 0.8571673007021097801, 0.5150380749100585964 ) ) ;
#307 = CARTESIAN_POINT ( 'NONE',  ( 0.0000000000000000000, 0.0000000000000000000, 0.0000000000000000000 ) ) ;
#308 = EDGE_CURVE ( 'NONE', #221, #227, #35, .T. ) ;
#309 = DIRECTION ( 'NONE',  ( 0.0000000000000000000, 1.000000000000000000, 0.0000000000000000000 ) ) ;
#310 = DIRECTION ( 'NONE',  ( -3.491481338843133355E-15, 1.224646799147353207E-16, -1.000000000000000000 ) ) ;
#311 = CIRCLE ( 'NONE', #317, 2.299999999999993161 ) ;
#312 = CC_DESIGN_SECURITY_CLASSIFICATION ( #77, ( #302 ) ) ;
#313 = CYLINDRICAL_SURFACE ( 'NONE', #153, 2.299999999999994049 ) ;
#314 = APPROVAL_STATUS ( 'not_yet_approved' ) ;
#315 = DATE_AND_TIME ( #14, #284 ) ;
#316 = ORIENTED_EDGE ( 'NONE', *, *, #58, .T. ) ;
#317 = AXIS2_PLACEMENT_3D ( 'NONE', #233, #135, #3 ) ;
#318 = VERTEX_POINT ( 'NONE', #119 ) ;
#319 = CC_DESIGN_PERSON_AND_ORGANIZATION_ASSIGNMENT ( #172, #151, ( #302 ) ) ;
#320 = LINE ( 'NONE', #238, #79 ) ;
#321 = ORIENTED_EDGE ( 'NONE', *, *, #150, .T. ) ;
#322 = CARTESIAN_POINT ( 'NONE',  ( 4.825155368735097572E-15, -1.692436677799351268E-16, 1.381979423763399772 ) ) ;
#323 = LOCAL_TIME ( 9, 51, 16.00000000000000000, #34 ) ;
#324 = PRODUCT ( '54580', '54580', '', ( #140 ) ) ;
#325 = EDGE_CURVE ( 'NONE', #297, #318, #85, .T. ) ;
#326 = SECURITY_CLASSIFICATION_LEVEL ( 'unclassified' ) ;
#327 = DIRECTION ( 'NONE',  ( -3.491481338843133355E-15, 1.224646799147353207E-16, -1.000000000000000000 ) ) ;
#328 = ORIENTED_EDGE ( 'NONE', *, *, #228, .F. ) ;
#329 = AXIS2_PLACEMENT_3D ( 'NONE', #75, #48, #28 ) ;
#330 = ORIENTED_EDGE ( 'NONE', *, *, #308, .F. ) ;
#331 = LOCAL_TIME ( 9, 51, 16.00000000000000000, #30 ) ;
#332 = DATE_TIME_ROLE ( 'classification_date' ) ;
#333 = VERTEX_POINT ( 'NONE', #87 ) ;
#334 = CARTESIAN_POINT ( 'NONE',  ( 6.284666409917640040E-14, -2.204364238465235428E-15, 18.00000000000000000 ) ) ;
#335 = DIRECTION ( 'NONE',  ( 3.491481338843133355E-15, -1.224646799147353207E-16, 1.000000000000000000 ) ) ;
#336 = ADVANCED_FACE ( 'NONE', ( #12 ), #291, .T. ) ;
#337 = PLANE ( 'NONE',  #50 ) ;
ENDSEC;
END-ISO-10303-21;
