ISO-10303-21;
HEADER;
FILE_DESCRIPTION (( 'STEP AP203' ),
    '1' );
FILE_NAME ('54579.step',
    '2021-09-03T07:51:12',
    ( '' ),
    ( '' ),
    'SwSTEP 2.0',
    'SolidWorks 2019',
    '' );
FILE_SCHEMA (( 'CONFIG_CONTROL_DESIGN' ));
ENDSEC;

DATA;
#1 = CONICAL_SURFACE ( 'NONE', #234, 1.775000000000000355, 0.7853981633974476129 ) ;
#2 = ORIENTED_EDGE ( 'NONE', *, *, #173, .F. ) ;
#3 = ORIENTED_EDGE ( 'NONE', *, *, #307, .F. ) ;
#4 = FACE_OUTER_BOUND ( 'NONE', #244, .T. ) ;
#5 = DIRECTION ( 'NONE',  ( -3.491481338843133355E-15, 1.224646799147353207E-16, -1.000000000000000000 ) ) ;
#6 = VECTOR ( 'NONE', #215, 1000.000000000000000 ) ;
#7 = ADVANCED_FACE ( 'NONE', ( #191 ), #1, .T. ) ;
#8 = VECTOR ( 'NONE', #42, 999.9999999999998863 ) ;
#9 = CARTESIAN_POINT ( 'NONE',  ( 2.786071468060215844E-16, -2.274999999999997691, -2.786071468060234580E-16 ) ) ;
#10 = DIRECTION ( 'NONE',  ( -3.491481338843133355E-15, 1.224646799147353207E-16, -1.000000000000000000 ) ) ;
#11 = ADVANCED_FACE ( 'NONE', ( #89 ), #323, .T. ) ;
#12 = CARTESIAN_POINT ( 'NONE',  ( 6.284666409917640040E-14, 1.705976752777856323E-32, 18.00000000000000000 ) ) ;
#13 = DIRECTION ( 'NONE',  ( -3.491481338843133355E-15, 1.224646799147353207E-16, -1.000000000000000000 ) ) ;
#14 = DIRECTION ( 'NONE',  ( 0.0000000000000000000, 1.000000000000000000, 0.0000000000000000000 ) ) ;
#15 = DIRECTION ( 'NONE',  ( -3.491481338843133355E-15, 1.224646799147353207E-16, -1.000000000000000000 ) ) ;
#16 = VECTOR ( 'NONE', #239, 1000.000000000000000 ) ;
#17 = DIRECTION ( 'NONE',  ( 3.386250451669875101E-31, 1.000000000000000000, 9.531447670202264550E-17 ) ) ;
#18 = CARTESIAN_POINT ( 'NONE',  ( 0.0000000000000000000, 0.0000000000000000000, 0.0000000000000000000 ) ) ;
#19 = EDGE_LOOP ( 'NONE', ( #50, #209, #134 ) ) ;
#20 = APPROVAL_PERSON_ORGANIZATION ( #110, #298, #104 ) ;
#21 = MECHANICAL_CONTEXT ( 'NONE', #236, 'mechanical' ) ;
#22 = ORIENTED_EDGE ( 'NONE', *, *, #70, .F. ) ;
#23 = PERSON_AND_ORGANIZATION ( #255, #179 ) ;
#24 = ORIENTED_EDGE ( 'NONE', *, *, #238, .F. ) ;
#25 = DATE_AND_TIME ( #174, #311 ) ;
#26 = EDGE_LOOP ( 'NONE', ( #337, #233, #22, #3 ) ) ;
#27 = DIRECTION ( 'NONE',  ( 0.0000000000000000000, 1.000000000000000000, 0.0000000000000000000 ) ) ;
#28 = ADVANCED_FACE ( 'NONE', ( #4 ), #266, .F. ) ;
#29 = CARTESIAN_POINT ( 'NONE',  ( 0.0000000000000000000, 0.0000000000000000000, 0.0000000000000000000 ) ) ;
#30 = AXIS2_PLACEMENT_3D ( 'NONE', #318, #86, #35 ) ;
#31 = CARTESIAN_POINT ( 'NONE',  ( 6.284666409917640040E-14, 1.705976752777856323E-32, 18.00000000000000000 ) ) ;
#32 = SECURITY_CLASSIFICATION ( '', '', #333 ) ;
#33 = DIRECTION ( 'NONE',  ( -3.491481338843133355E-15, 1.224646799147353207E-16, -1.000000000000000000 ) ) ;
#34 = CARTESIAN_POINT ( 'NONE',  ( 6.284666409917640040E-14, -2.204364238465235428E-15, 18.00000000000000000 ) ) ;
#35 = DIRECTION ( 'NONE',  ( -3.386250451669875101E-31, -1.000000000000000000, -9.531447670202264550E-17 ) ) ;
#36 = APPROVAL_PERSON_ORGANIZATION ( #153, #164, #313 ) ;
#37 = CARTESIAN_POINT ( 'NONE',  ( 4.772708027770584184E-15, -2.274999999999993250, 1.366957908287710355 ) ) ;
#38 = ADVANCED_FACE ( 'NONE', ( #272 ), #295, .T. ) ;
#39 = CARTESIAN_POINT ( 'NONE',  ( 5.051315174576607593E-15, 2.274999999999993250, 1.366957908287710799 ) ) ;
#40 = DIRECTION ( 'NONE',  ( 0.0000000000000000000, 1.000000000000000000, 0.0000000000000000000 ) ) ;
#41 = LOCAL_TIME ( 9, 51, 12.00000000000000000, #99 ) ;
#42 = DIRECTION ( 'NONE',  ( 1.903218546456022717E-15, 0.8571673007021097801, 0.5150380749100585964 ) ) ;
#43 = DIRECTION ( 'NONE',  ( 1.000000000000000000, 0.0000000000000000000, 0.0000000000000000000 ) ) ;
#44 = PRODUCT_DEFINITION_SHAPE ( 'NONE', 'NONE',  #186 ) ;
#45 = DATE_TIME_ROLE ( 'classification_date' ) ;
#46 = ORIENTED_EDGE ( 'NONE', *, *, #334, .F. ) ;
#47 = AXIS2_PLACEMENT_3D ( 'NONE', #18, #132, #43 ) ;
#48 = CC_DESIGN_PERSON_AND_ORGANIZATION_ASSIGNMENT ( #229, #126, ( #186 ) ) ;
#49 = CALENDAR_DATE ( 2021, 3, 9 ) ;
#50 = ORIENTED_EDGE ( 'NONE', *, *, #116, .F. ) ;
#51 = PERSON_AND_ORGANIZATION_ROLE ( 'design_supplier' ) ;
#52 = PERSON_AND_ORGANIZATION ( #255, #179 ) ;
#53 = AXIS2_PLACEMENT_3D ( 'NONE', #31, #61, #163 ) ;
#54 = CIRCLE ( 'NONE', #275, 2.274999999999993250 ) ;
#55 = ORIENTED_EDGE ( 'NONE', *, *, #167, .F. ) ;
#56 = ADVANCED_FACE ( 'NONE', ( #161 ), #218, .F. ) ;
#57 = DIRECTION ( 'NONE',  ( 3.386250451669875101E-31, 1.000000000000000000, 9.531447670202264550E-17 ) ) ;
#58 = CARTESIAN_POINT ( 'NONE',  ( 2.025059176529017346E-13, 1.331036807112388364E-32, 58.00000000000000000 ) ) ;
#59 = AXIS2_PLACEMENT_3D ( 'NONE', #291, #5, #57 ) ;
#60 = CARTESIAN_POINT ( 'NONE',  ( 4.772708027770584184E-15, -2.274999999999993250, 1.366957908287710355 ) ) ;
#61 = DIRECTION ( 'NONE',  ( 3.491481338843133355E-15, -1.224646799147353207E-16, 1.000000000000000000 ) ) ;
#62 = FACE_OUTER_BOUND ( 'NONE', #26, .T. ) ;
#63 = DIRECTION ( 'NONE',  ( -3.491481338843133355E-15, 1.224646799147353207E-16, -1.000000000000000000 ) ) ;
#64 = CIRCLE ( 'NONE', #150, 2.274999999999999911 ) ;
#65 = CC_DESIGN_APPROVAL ( #164, ( #32 ) ) ;
#66 = APPROVAL ( #205, 'UNSPECIFIED' ) ;
#67 = CARTESIAN_POINT ( 'NONE',  ( 9.727516539415555475E-31, 2.274999999999994138, 2.786071468060221268E-16 ) ) ;
#68 = DIRECTION ( 'NONE',  ( 0.0000000000000000000, 1.000000000000000000, 0.0000000000000000000 ) ) ;
#69 = DIRECTION ( 'NONE',  ( -3.491481338843133355E-15, 1.224646799147353207E-16, -1.000000000000000000 ) ) ;
#70 = EDGE_CURVE ( 'NONE', #203, #152, #75, .T. ) ;
#71 = AXIS2_PLACEMENT_3D ( 'NONE', #12, #217, #119 ) ;
#72 = APPROVAL_STATUS ( 'not_yet_approved' ) ;
#73 = PERSON_AND_ORGANIZATION ( #255, #179 ) ;
#74 = ORIENTED_EDGE ( 'NONE', *, *, #288, .F. ) ;
#75 = CIRCLE ( 'NONE', #212, 2.274999999999995470 ) ;
#76 = AXIS2_PLACEMENT_3D ( 'NONE', #121, #13, #326 ) ;
#77 = ADVANCED_FACE ( 'NONE', ( #62 ), #296, .T. ) ;
#78 = EDGE_LOOP ( 'NONE', ( #232, #81, #157, #112 ) ) ;
#79 = DATE_TIME_ROLE ( 'creation_date' ) ;
#80 = ORIENTED_EDGE ( 'NONE', *, *, #274, .T. ) ;
#81 = ORIENTED_EDGE ( 'NONE', *, *, #199, .T. ) ;
#82 = EDGE_CURVE ( 'NONE', #175, #284, #64, .T. ) ;
#83 = CLOSED_SHELL ( 'NONE', ( #322, #77, #56, #11, #7, #28 ) ) ;
#84 = CC_DESIGN_SECURITY_CLASSIFICATION ( #32, ( #189 ) ) ;
#85 = CARTESIAN_POINT ( 'NONE',  ( 2.025059176529017346E-13, -7.102951435054648059E-15, 58.00000000000000000 ) ) ;
#86 = DIRECTION ( 'NONE',  ( 3.491481338843133355E-15, -1.224646799147353207E-16, 1.000000000000000000 ) ) ;
#87 = CC_DESIGN_PERSON_AND_ORGANIZATION_ASSIGNMENT ( #52, #336, ( #189 ) ) ;
#88 = DIRECTION ( 'NONE',  ( 0.0000000000000000000, 1.000000000000000000, 0.0000000000000000000 ) ) ;
#89 = FACE_OUTER_BOUND ( 'NONE', #312, .T. ) ;
#90 = AXIS2_PLACEMENT_3D ( 'NONE', #248, #219, #226 ) ;
#91 = LINE ( 'NONE', #9, #6 ) ;
#92 = CARTESIAN_POINT ( 'NONE',  ( 6.284666409917640040E-14, 2.274999999999993250, 18.00000000000000000 ) ) ;
#93 = EDGE_CURVE ( 'NONE', #284, #152, #91, .T. ) ;
#94 = LINE ( 'NONE', #39, #8 ) ;
#95 = VECTOR ( 'NONE', #185, 1000.000000000000000 ) ;
#96 = DIRECTION ( 'NONE',  ( -3.491481338843133355E-15, 1.224646799147353207E-16, -1.000000000000000000 ) ) ;
#97 = CIRCLE ( 'NONE', #290, 2.274999999999999911 ) ;
#98 = CONICAL_SURFACE ( 'NONE', #144, 1.775000000000000355, 0.7853981633974476129 ) ;
#99 = COORDINATED_UNIVERSAL_TIME_OFFSET ( 1, 0, .AHEAD. ) ;
#100 = ORIENTED_EDGE ( 'NONE', *, *, #124, .T. ) ;
#101 = DATE_AND_TIME ( #156, #106 ) ;
#102 = VERTEX_POINT ( 'NONE', #118 ) ;
#103 = ADVANCED_FACE ( 'NONE', ( #297 ), #113, .T. ) ;
#104 = APPROVAL_ROLE ( '' ) ;
#105 = ORIENTED_EDGE ( 'NONE', *, *, #274, .F. ) ;
#106 = LOCAL_TIME ( 9, 51, 12.00000000000000000, #130 ) ;
#107 = APPROVAL_DATE_TIME ( #25, #164 ) ;
#108 = ORIENTED_EDGE ( 'NONE', *, *, #216, .F. ) ;
#109 = EDGE_CURVE ( 'NONE', #284, #175, #97, .T. ) ;
#110 = PERSON_AND_ORGANIZATION ( #255, #179 ) ;
#111 = UNCERTAINTY_MEASURE_WITH_UNIT (LENGTH_MEASURE( 1.000000000000000082E-05 ), #254, 'distance_accuracy_value', 'NONE');
#112 = ORIENTED_EDGE ( 'NONE', *, *, #129, .F. ) ;
#113 = PLANE ( 'NONE',  #71 ) ;
#114 = VECTOR ( 'NONE', #15, 1000.000000000000000 ) ;
#115 = FACE_OUTER_BOUND ( 'NONE', #19, .T. ) ;
#116 = EDGE_CURVE ( 'NONE', #183, #306, #135, .T. ) ;
#117 = CARTESIAN_POINT ( 'NONE',  ( 4.772708027770584973E-15, -1.674040626953705755E-16, 1.366957908287710577 ) ) ;
#118 = CARTESIAN_POINT ( 'NONE',  ( 6.284666409917640040E-14, 2.274999999999993250, 18.00000000000000000 ) ) ;
#119 = DIRECTION ( 'NONE',  ( -4.275831445896958607E-31, -1.000000000000000000, -1.224646799147353207E-16 ) ) ;
#120 = CARTESIAN_POINT ( 'NONE',  ( 6.284666409917640040E-14, -2.204364238465235428E-15, 18.00000000000000000 ) ) ;
#121 = CARTESIAN_POINT ( 'NONE',  ( 0.0000000000000000000, 0.0000000000000000000, 0.0000000000000000000 ) ) ;
#122 = FACE_OUTER_BOUND ( 'NONE', #286, .T. ) ;
#123 = AXIS2_PLACEMENT_3D ( 'NONE', #214, #33, #243 ) ;
#124 = EDGE_CURVE ( 'NONE', #282, #306, #319, .T. ) ;
#125 =( NAMED_UNIT ( * ) PLANE_ANGLE_UNIT ( ) SI_UNIT ( $, .RADIAN. ) );
#126 = PERSON_AND_ORGANIZATION_ROLE ( 'creator' ) ;
#127 = ORIENTED_EDGE ( 'NONE', *, *, #116, .T. ) ;
#128 = PERSON_AND_ORGANIZATION_ROLE ( 'design_owner' ) ;
#129 = EDGE_CURVE ( 'NONE', #306, #289, #142, .T. ) ;
#130 = COORDINATED_UNIVERSAL_TIME_OFFSET ( 1, 0, .AHEAD. ) ;
#131 = ORIENTED_EDGE ( 'NONE', *, *, #199, .F. ) ;
#132 = DIRECTION ( 'NONE',  ( 0.0000000000000000000, 0.0000000000000000000, 1.000000000000000000 ) ) ;
#133 = VERTEX_POINT ( 'NONE', #159 ) ;
#134 = ORIENTED_EDGE ( 'NONE', *, *, #238, .T. ) ;
#135 = LINE ( 'NONE', #60, #16 ) ;
#136 = CARTESIAN_POINT ( 'NONE',  ( 2.027232924597503889E-13, -1.775000000000007461, 58.00000000000000000 ) ) ;
#137 = CIRCLE ( 'NONE', #235, 2.274999999999995470 ) ;
#138 = CARTESIAN_POINT ( 'NONE',  ( 2.007601769834801742E-13, -7.041719095097280485E-15, 57.50000000000000000 ) ) ;
#139 = DIRECTION ( 'NONE',  ( -3.491481338843133355E-15, 1.224646799147353207E-16, -1.000000000000000000 ) ) ;
#140 = DIRECTION ( 'NONE',  ( 4.275831445896958607E-31, 1.000000000000000000, 1.224646799147353207E-16 ) ) ;
#141 = CC_DESIGN_PERSON_AND_ORGANIZATION_ASSIGNMENT ( #310, #128, ( #332 ) ) ;
#142 = CIRCLE ( 'NONE', #59, 2.274999999999993250 ) ;
#143 = LINE ( 'NONE', #302, #166 ) ;
#144 = AXIS2_PLACEMENT_3D ( 'NONE', #301, #96, #68 ) ;
#145 = CARTESIAN_POINT ( 'NONE',  ( 2.025059176529017346E-13, -7.102951435054648059E-15, 58.00000000000000000 ) ) ;
#146 = LINE ( 'NONE', #170, #114 ) ;
#147 = EDGE_CURVE ( 'NONE', #287, #284, #267, .T. ) ;
#148 = CARTESIAN_POINT ( 'NONE',  ( 3.408829321027948335E-14, -2.274999999999997691, 18.00000000000000000 ) ) ;
#149 = ORIENTED_EDGE ( 'NONE', *, *, #129, .T. ) ;
#150 = AXIS2_PLACEMENT_3D ( 'NONE', #162, #10, #271 ) ;
#151 = APPROVAL_ROLE ( '' ) ;
#152 = VERTEX_POINT ( 'NONE', #188 ) ;
#153 = PERSON_AND_ORGANIZATION ( #255, #179 ) ;
#154 = ORIENTED_EDGE ( 'NONE', *, *, #70, .T. ) ;
#155 = ADVANCED_FACE ( 'NONE', ( #115 ), #327, .T. ) ;
#156 = CALENDAR_DATE ( 2021, 3, 9 ) ;
#157 = ORIENTED_EDGE ( 'NONE', *, *, #173, .T. ) ;
#158 = ORIENTED_EDGE ( 'NONE', *, *, #334, .T. ) ;
#159 = CARTESIAN_POINT ( 'NONE',  ( 2.025059176529017346E-13, 1.774999999999993250, 58.00000000000000000 ) ) ;
#160 = CC_DESIGN_PERSON_AND_ORGANIZATION_ASSIGNMENT ( #208, #258, ( #32 ) ) ;
#161 = FACE_OUTER_BOUND ( 'NONE', #316, .T. ) ;
#162 = CARTESIAN_POINT ( 'NONE',  ( 2.007601769834801742E-13, -7.041719095097280485E-15, 57.50000000000000000 ) ) ;
#163 = DIRECTION ( 'NONE',  ( -4.275831445896958607E-31, -1.000000000000000000, -1.224646799147353207E-16 ) ) ;
#164 = APPROVAL ( #72, 'UNSPECIFIED' ) ;
#165 = CARTESIAN_POINT ( 'NONE',  ( 2.025059176529017346E-13, -7.102951435054648059E-15, 58.00000000000000000 ) ) ;
#166 = VECTOR ( 'NONE', #196, 1000.000000000000000 ) ;
#167 = EDGE_CURVE ( 'NONE', #133, #287, #222, .T. ) ;
#168 = CARTESIAN_POINT ( 'NONE',  ( 1.320820276881341451E-13, -2.275000000000007017, 57.50000000000000000 ) ) ;
#169 = CARTESIAN_POINT ( 'NONE',  ( 6.284666409917640040E-14, -2.204364238465235428E-15, 18.00000000000000000 ) ) ;
#170 = CARTESIAN_POINT ( 'NONE',  ( 9.727516539415571240E-31, 2.274999999999997691, 2.786071468060225705E-16 ) ) ;
#171 = CC_DESIGN_APPROVAL ( #66, ( #189 ) ) ;
#172 = APPLICATION_PROTOCOL_DEFINITION ( 'international standard', 'config_control_design', 1994, #293 ) ;
#173 = EDGE_CURVE ( 'NONE', #102, #289, #280, .T. ) ;
#174 = CALENDAR_DATE ( 2021, 3, 9 ) ;
#175 = VERTEX_POINT ( 'NONE', #273 ) ;
#176 = COORDINATED_UNIVERSAL_TIME_OFFSET ( 1, 0, .AHEAD. ) ;
#177 = ORIENTED_EDGE ( 'NONE', *, *, #211, .F. ) ;
#178 = AXIS2_PLACEMENT_3D ( 'NONE', #117, #292, #294 ) ;
#179 = ORGANIZATION ( 'UNSPECIFIED', 'UNSPECIFIED', '' ) ;
#180 = APPROVAL_STATUS ( 'not_yet_approved' ) ;
#181 = ORIENTED_EDGE ( 'NONE', *, *, #82, .F. ) ;
#182 = SHAPE_DEFINITION_REPRESENTATION ( #44, #268 ) ;
#183 = VERTEX_POINT ( 'NONE', #328 ) ;
#184 = VECTOR ( 'NONE', #240, 999.9999999999998863 ) ;
#185 = DIRECTION ( 'NONE',  ( -3.491481338843133355E-15, 1.224646799147353207E-16, -1.000000000000000000 ) ) ;
#186 = PRODUCT_DEFINITION ( 'UNKNOWN', '', #189, #315 ) ;
#187 = DIRECTION ( 'NONE',  ( -3.491481338843133355E-15, 1.224646799147353207E-16, -1.000000000000000000 ) ) ;
#188 = CARTESIAN_POINT ( 'NONE',  ( 1.320820276881342713E-13, -2.274999999999997691, 18.00000000000000000 ) ) ;
#189 = PRODUCT_DEFINITION_FORMATION_WITH_SPECIFIED_SOURCE ( 'ANY', '', #332, .NOT_KNOWN. ) ;
#190 = DIRECTION ( 'NONE',  ( 4.275831445896958607E-31, 1.000000000000000000, 1.224646799147353207E-16 ) ) ;
#191 = FACE_OUTER_BOUND ( 'NONE', #206, .T. ) ;
#192 = CYLINDRICAL_SURFACE ( 'NONE', #195, 2.274999999999994138 ) ;
#193 = AXIS2_PLACEMENT_3D ( 'NONE', #145, #194, #300 ) ;
#194 = DIRECTION ( 'NONE',  ( -3.491481338843133355E-15, 1.224646799147353207E-16, -1.000000000000000000 ) ) ;
#195 = AXIS2_PLACEMENT_3D ( 'NONE', #299, #63, #220 ) ;
#196 = DIRECTION ( 'NONE',  ( -2.468850131082267316E-15, 0.7071067811865471286, -0.7071067811865479058 ) ) ;
#197 = DIRECTION ( 'NONE',  ( -3.491481338843133355E-15, 1.224646799147353207E-16, -1.000000000000000000 ) ) ;
#198 = CLOSED_SHELL ( 'NONE', ( #249, #155, #38, #204, #103 ) ) ;
#199 = EDGE_CURVE ( 'NONE', #282, #102, #283, .T. ) ;
#200 = APPLICATION_PROTOCOL_DEFINITION ( 'international standard', 'config_control_design', 1994, #236 ) ;
#201 = EDGE_LOOP ( 'NONE', ( #257, #100, #24, #2 ) ) ;
#202 = DATE_AND_TIME ( #281, #242 ) ;
#203 = VERTEX_POINT ( 'NONE', #92 ) ;
#204 = ADVANCED_FACE ( 'NONE', ( #250 ), #251, .T. ) ;
#205 = APPROVAL_STATUS ( 'not_yet_approved' ) ;
#206 = EDGE_LOOP ( 'NONE', ( #228, #80, #309, #260 ) ) ;
#207 = ORIENTED_EDGE ( 'NONE', *, *, #93, .F. ) ;
#208 = PERSON_AND_ORGANIZATION ( #255, #179 ) ;
#209 = ORIENTED_EDGE ( 'NONE', *, *, #288, .T. ) ;
#210 = DIRECTION ( 'NONE',  ( -3.491481338843133355E-15, 1.224646799147353207E-16, -1.000000000000000000 ) ) ;
#211 = EDGE_CURVE ( 'NONE', #133, #175, #143, .T. ) ;
#212 = AXIS2_PLACEMENT_3D ( 'NONE', #34, #187, #88 ) ;
#213 = LOCAL_TIME ( 9, 51, 12.00000000000000000, #308 ) ;
#214 = CARTESIAN_POINT ( 'NONE',  ( 0.0000000000000000000, 0.0000000000000000000, 0.0000000000000000000 ) ) ;
#215 = DIRECTION ( 'NONE',  ( -3.491481338843133355E-15, 1.224646799147353207E-16, -1.000000000000000000 ) ) ;
#216 = EDGE_CURVE ( 'NONE', #102, #282, #137, .T. ) ;
#217 = DIRECTION ( 'NONE',  ( 3.491481338843133355E-15, -1.224646799147353207E-16, 1.000000000000000000 ) ) ;
#218 = PLANE ( 'NONE',  #53 ) ;
#219 = DIRECTION ( 'NONE',  ( -3.491481338843133355E-15, 1.224646799147353207E-16, -1.000000000000000000 ) ) ;
#220 = DIRECTION ( 'NONE',  ( 4.275831445896958607E-31, 1.000000000000000000, 1.224646799147353207E-16 ) ) ;
#221 = CC_DESIGN_DATE_AND_TIME_ASSIGNMENT ( #285, #79, ( #186 ) ) ;
#222 = CIRCLE ( 'NONE', #193, 1.775000000000000355 ) ;
#223 = CARTESIAN_POINT ( 'NONE',  ( 4.772708027770584973E-15, -1.674040626953705755E-16, 1.366957908287710577 ) ) ;
#224 = DIRECTION ( 'NONE',  ( -3.491481338843133355E-15, 1.224646799147353207E-16, -1.000000000000000000 ) ) ;
#225 = CC_DESIGN_DATE_AND_TIME_ASSIGNMENT ( #231, #45, ( #32 ) ) ;
#226 = DIRECTION ( 'NONE',  ( 0.0000000000000000000, 1.000000000000000000, 0.0000000000000000000 ) ) ;
#227 = CALENDAR_DATE ( 2021, 3, 9 ) ;
#228 = ORIENTED_EDGE ( 'NONE', *, *, #147, .F. ) ;
#229 = PERSON_AND_ORGANIZATION ( #255, #179 ) ;
#230 = ORIENTED_EDGE ( 'NONE', *, *, #147, .T. ) ;
#231 = DATE_AND_TIME ( #49, #41 ) ;
#232 = ORIENTED_EDGE ( 'NONE', *, *, #124, .F. ) ;
#233 = ORIENTED_EDGE ( 'NONE', *, *, #93, .T. ) ;
#234 = AXIS2_PLACEMENT_3D ( 'NONE', #85, #320, #245 ) ;
#235 = AXIS2_PLACEMENT_3D ( 'NONE', #120, #325, #14 ) ;
#236 = APPLICATION_CONTEXT ( 'configuration controlled 3d designs of mechanical parts and assemblies' ) ;
#237 = ORIENTED_EDGE ( 'NONE', *, *, #307, .T. ) ;
#238 = EDGE_CURVE ( 'NONE', #289, #306, #54, .T. ) ;
#239 = DIRECTION ( 'NONE',  ( 1.798245827342160317E-15, -0.8571673007021098911, 0.5150380749100582634 ) ) ;
#240 = DIRECTION ( 'NONE',  ( -2.382254525458718258E-15, -0.7071067811865469066, -0.7071067811865482389 ) ) ;
#241 = AXIS2_PLACEMENT_3D ( 'NONE', #58, #269, #190 ) ;
#242 = LOCAL_TIME ( 9, 51, 12.00000000000000000, #176 ) ;
#243 = DIRECTION ( 'NONE',  ( 4.275831445896958607E-31, 1.000000000000000000, 1.224646799147353207E-16 ) ) ;
#244 = EDGE_LOOP ( 'NONE', ( #55, #105 ) ) ;
#245 = DIRECTION ( 'NONE',  ( 0.0000000000000000000, 1.000000000000000000, 0.0000000000000000000 ) ) ;
#246 = AXIS2_PLACEMENT_3D ( 'NONE', #29, #139, #140 ) ;
#247 = AXIS2_PLACEMENT_3D ( 'NONE', #165, #197, #278 ) ;
#248 = CARTESIAN_POINT ( 'NONE',  ( 6.284666409917640040E-14, -2.204364238465235428E-15, 18.00000000000000000 ) ) ;
#249 = ADVANCED_FACE ( 'NONE', ( #330 ), #192, .T. ) ;
#250 = FACE_OUTER_BOUND ( 'NONE', #78, .T. ) ;
#251 = CYLINDRICAL_SURFACE ( 'NONE', #76, 2.274999999999994138 ) ;
#252 = VECTOR ( 'NONE', #69, 1000.000000000000000 ) ;
#253 =( GEOMETRIC_REPRESENTATION_CONTEXT ( 3 ) GLOBAL_UNCERTAINTY_ASSIGNED_CONTEXT ( ( #111 ) ) GLOBAL_UNIT_ASSIGNED_CONTEXT ( ( #254, #125, #329 ) ) REPRESENTATION_CONTEXT ( 'NONE', 'WORKASPACE' ) );
#254 =( LENGTH_UNIT ( ) NAMED_UNIT ( * ) SI_UNIT ( .MILLI., .METRE. ) );
#255 = PERSON ( 'UNSPECIFIED', 'UNSPECIFIED', 'UNSPECIFIED', ('UNSPECIFIED'), ('UNSPECIFIED'), ('UNSPECIFIED') ) ;
#256 = APPROVAL_DATE_TIME ( #202, #298 ) ;
#257 = ORIENTED_EDGE ( 'NONE', *, *, #216, .T. ) ;
#258 = PERSON_AND_ORGANIZATION_ROLE ( 'classification_officer' ) ;
#259 = PRODUCT_RELATED_PRODUCT_CATEGORY ( 'detail', '', ( #332 ) ) ;
#260 = ORIENTED_EDGE ( 'NONE', *, *, #109, .F. ) ;
#261 = COORDINATED_UNIVERSAL_TIME_OFFSET ( 1, 0, .AHEAD. ) ;
#262 = EDGE_LOOP ( 'NONE', ( #74, #127, #149 ) ) ;
#263 = EDGE_LOOP ( 'NONE', ( #108, #131 ) ) ;
#264 = AXIS2_PLACEMENT_3D ( 'NONE', #169, #304, #40 ) ;
#265 = CC_DESIGN_PERSON_AND_ORGANIZATION_ASSIGNMENT ( #73, #51, ( #189 ) ) ;
#266 = PLANE ( 'NONE',  #241 ) ;
#267 = LINE ( 'NONE', #136, #184 ) ;
#268 = ADVANCED_BREP_SHAPE_REPRESENTATION ( '54579', ( #331, #324, #47 ), #253 ) ;
#269 = DIRECTION ( 'NONE',  ( -3.491481338843133355E-15, 1.224646799147353207E-16, -1.000000000000000000 ) ) ;
#270 = APPROVAL_PERSON_ORGANIZATION ( #23, #66, #151 ) ;
#271 = DIRECTION ( 'NONE',  ( 0.0000000000000000000, 1.000000000000000000, 0.0000000000000000000 ) ) ;
#272 = FACE_OUTER_BOUND ( 'NONE', #262, .T. ) ;
#273 = CARTESIAN_POINT ( 'NONE',  ( 2.007601769834801742E-13, 2.274999999999993250, 57.50000000000000000 ) ) ;
#274 = EDGE_CURVE ( 'NONE', #287, #133, #303, .T. ) ;
#275 = AXIS2_PLACEMENT_3D ( 'NONE', #223, #224, #17 ) ;
#276 = CARTESIAN_POINT ( 'NONE',  ( 5.051315174576607593E-15, 2.274999999999993250, 1.366957908287710799 ) ) ;
#277 = CARTESIAN_POINT ( 'NONE',  ( 2.018810382950182735E-13, -1.775000000000007461, 58.00000000000000000 ) ) ;
#278 = DIRECTION ( 'NONE',  ( 0.0000000000000000000, 1.000000000000000000, 0.0000000000000000000 ) ) ;
#279 = CIRCLE ( 'NONE', #264, 2.274999999999995470 ) ;
#280 = LINE ( 'NONE', #67, #252 ) ;
#281 = CALENDAR_DATE ( 2021, 3, 9 ) ;
#282 = VERTEX_POINT ( 'NONE', #148 ) ;
#283 = CIRCLE ( 'NONE', #90, 2.274999999999995470 ) ;
#284 = VERTEX_POINT ( 'NONE', #168 ) ;
#285 = DATE_AND_TIME ( #227, #213 ) ;
#286 = EDGE_LOOP ( 'NONE', ( #314, #230, #181, #177 ) ) ;
#287 = VERTEX_POINT ( 'NONE', #277 ) ;
#288 = EDGE_CURVE ( 'NONE', #183, #289, #94, .T. ) ;
#289 = VERTEX_POINT ( 'NONE', #276 ) ;
#290 = AXIS2_PLACEMENT_3D ( 'NONE', #138, #210, #27 ) ;
#291 = CARTESIAN_POINT ( 'NONE',  ( 4.772708027770584973E-15, -1.674040626953705755E-16, 1.366957908287710577 ) ) ;
#292 = DIRECTION ( 'NONE',  ( 3.491481338843133355E-15, -1.224646799147353207E-16, 1.000000000000000000 ) ) ;
#293 = APPLICATION_CONTEXT ( 'configuration controlled 3d designs of mechanical parts and assemblies' ) ;
#294 = DIRECTION ( 'NONE',  ( -3.386250451669875101E-31, -1.000000000000000000, -9.531447670202264550E-17 ) ) ;
#295 = CONICAL_SURFACE ( 'NONE', #178, 2.274999999999993250, 1.029744258676649649 ) ;
#296 = CYLINDRICAL_SURFACE ( 'NONE', #246, 2.274999999999997691 ) ;
#297 = FACE_OUTER_BOUND ( 'NONE', #263, .T. ) ;
#298 = APPROVAL ( #180, 'UNSPECIFIED' ) ;
#299 = CARTESIAN_POINT ( 'NONE',  ( 0.0000000000000000000, 0.0000000000000000000, 0.0000000000000000000 ) ) ;
#300 = DIRECTION ( 'NONE',  ( 0.0000000000000000000, 1.000000000000000000, 0.0000000000000000000 ) ) ;
#301 = CARTESIAN_POINT ( 'NONE',  ( 2.025059176529017346E-13, -7.102951435054648059E-15, 58.00000000000000000 ) ) ;
#302 = CARTESIAN_POINT ( 'NONE',  ( 2.025059176529017346E-13, 1.774999999999993250, 58.00000000000000000 ) ) ;
#303 = CIRCLE ( 'NONE', #247, 1.775000000000000355 ) ;
#304 = DIRECTION ( 'NONE',  ( -3.491481338843133355E-15, 1.224646799147353207E-16, -1.000000000000000000 ) ) ;
#305 = APPROVAL_DATE_TIME ( #101, #66 ) ;
#306 = VERTEX_POINT ( 'NONE', #37 ) ;
#307 = EDGE_CURVE ( 'NONE', #175, #203, #146, .T. ) ;
#308 = COORDINATED_UNIVERSAL_TIME_OFFSET ( 1, 0, .AHEAD. ) ;
#309 = ORIENTED_EDGE ( 'NONE', *, *, #211, .T. ) ;
#310 = PERSON_AND_ORGANIZATION ( #255, #179 ) ;
#311 = LOCAL_TIME ( 9, 51, 12.00000000000000000, #261 ) ;
#312 = EDGE_LOOP ( 'NONE', ( #207, #335, #237, #46 ) ) ;
#313 = APPROVAL_ROLE ( '' ) ;
#314 = ORIENTED_EDGE ( 'NONE', *, *, #167, .T. ) ;
#315 = DESIGN_CONTEXT ( 'detailed design', #293, 'design' ) ;
#316 = EDGE_LOOP ( 'NONE', ( #154, #158 ) ) ;
#317 = CARTESIAN_POINT ( 'NONE',  ( 2.786071468060211900E-16, -2.274999999999994138, -2.786071468060231129E-16 ) ) ;
#318 = CARTESIAN_POINT ( 'NONE',  ( 4.772708027770584973E-15, -1.674040626953705755E-16, 1.366957908287710577 ) ) ;
#319 = LINE ( 'NONE', #317, #95 ) ;
#320 = DIRECTION ( 'NONE',  ( -3.491481338843133355E-15, 1.224646799147353207E-16, -1.000000000000000000 ) ) ;
#321 = CC_DESIGN_APPROVAL ( #298, ( #186 ) ) ;
#322 = ADVANCED_FACE ( 'NONE', ( #122 ), #98, .T. ) ;
#323 = CYLINDRICAL_SURFACE ( 'NONE', #123, 2.274999999999997691 ) ;
#324 = MANIFOLD_SOLID_BREP ( 'Corps-Déplacer/Copier1[2]', #198 ) ;
#325 = DIRECTION ( 'NONE',  ( -3.491481338843133355E-15, 1.224646799147353207E-16, -1.000000000000000000 ) ) ;
#326 = DIRECTION ( 'NONE',  ( 4.275831445896958607E-31, 1.000000000000000000, 1.224646799147353207E-16 ) ) ;
#327 = CONICAL_SURFACE ( 'NONE', #30, 2.274999999999993250, 1.029744258676649649 ) ;
#328 = CARTESIAN_POINT ( 'NONE',  ( 0.0000000000000000000, 0.0000000000000000000, 0.0000000000000000000 ) ) ;
#329 =( NAMED_UNIT ( * ) SI_UNIT ( $, .STERADIAN. ) SOLID_ANGLE_UNIT ( ) );
#330 = FACE_OUTER_BOUND ( 'NONE', #201, .T. ) ;
#331 = MANIFOLD_SOLID_BREP ( 'Corps-Déplacer/Copier1[1]', #83 ) ;
#332 = PRODUCT ( '54579', '54579', '', ( #21 ) ) ;
#333 = SECURITY_CLASSIFICATION_LEVEL ( 'unclassified' ) ;
#334 = EDGE_CURVE ( 'NONE', #152, #203, #279, .T. ) ;
#335 = ORIENTED_EDGE ( 'NONE', *, *, #109, .T. ) ;
#336 = PERSON_AND_ORGANIZATION_ROLE ( 'creator' ) ;
#337 = ORIENTED_EDGE ( 'NONE', *, *, #82, .T. ) ;
ENDSEC;
END-ISO-10303-21;
