ISO-10303-21;
HEADER;
FILE_DESCRIPTION (( 'STEP AP203' ),
    '1' );
FILE_NAME ('54578.step',
    '2021-09-03T07:51:09',
    ( '' ),
    ( '' ),
    'SwSTEP 2.0',
    'SolidWorks 2019',
    '' );
FILE_SCHEMA (( 'CONFIG_CONTROL_DESIGN' ));
ENDSEC;

DATA;
#1 = CARTESIAN_POINT ( 'NONE',  ( 0.0000000000000000000, 0.0000000000000000000, 0.0000000000000000000 ) ) ;
#2 = ADVANCED_FACE ( 'NONE', ( #271 ), #90, .T. ) ;
#3 = DESIGN_CONTEXT ( 'detailed design', #146, 'design' ) ;
#4 = CARTESIAN_POINT ( 'NONE',  ( 2.025059176529017346E-13, -7.102951435054648059E-15, 58.00000000000000000 ) ) ;
#5 = VECTOR ( 'NONE', #202, 1000.000000000000000 ) ;
#6 = DIRECTION ( 'NONE',  ( -3.491481338843133355E-15, 1.224646799147353207E-16, -1.000000000000000000 ) ) ;
#7 = DIRECTION ( 'NONE',  ( -3.491481338843133355E-15, 1.224646799147353207E-16, -1.000000000000000000 ) ) ;
#8 = DIRECTION ( 'NONE',  ( -3.491481338843133355E-15, 1.224646799147353207E-16, -1.000000000000000000 ) ) ;
#9 = ADVANCED_FACE ( 'NONE', ( #217 ), #267, .T. ) ;
#10 = CC_DESIGN_APPROVAL ( #165, ( #32 ) ) ;
#11 = VERTEX_POINT ( 'NONE', #46 ) ;
#12 = EDGE_CURVE ( 'NONE', #297, #324, #74, .T. ) ;
#13 = CARTESIAN_POINT ( 'NONE',  ( 4.720260686806072374E-15, -2.249999999999992895, 1.351936392812021159 ) ) ;
#14 = CARTESIAN_POINT ( 'NONE',  ( 0.0000000000000000000, 0.0000000000000000000, 0.0000000000000000000 ) ) ;
#15 = CALENDAR_DATE ( 2021, 3, 9 ) ;
#16 = EDGE_LOOP ( 'NONE', ( #123, #108 ) ) ;
#17 = PERSON_AND_ORGANIZATION ( #270, #85 ) ;
#18 = PERSON_AND_ORGANIZATION ( #270, #85 ) ;
#19 = AXIS2_PLACEMENT_3D ( 'NONE', #21, #204, #310 ) ;
#20 = ORIENTED_EDGE ( 'NONE', *, *, #104, .F. ) ;
#21 = CARTESIAN_POINT ( 'NONE',  ( 4.720260686806073163E-15, -1.655644576108060734E-16, 1.351936392812021381 ) ) ;
#22 = AXIS2_PLACEMENT_3D ( 'NONE', #107, #7, #186 ) ;
#23 = DIRECTION ( 'NONE',  ( 3.491481338843133355E-15, -1.224646799147353207E-16, 1.000000000000000000 ) ) ;
#24 = VECTOR ( 'NONE', #302, 999.9999999999998863 ) ;
#25 = CARTESIAN_POINT ( 'NONE',  ( 2.007601769834801742E-13, -7.041719095097280485E-15, 57.50000000000000000 ) ) ;
#26 = ADVANCED_FACE ( 'NONE', ( #243 ), #43, .T. ) ;
#27 = AXIS2_PLACEMENT_3D ( 'NONE', #67, #8, #40 ) ;
#28 = DIRECTION ( 'NONE',  ( -3.491481338843133355E-15, 1.224646799147353207E-16, -1.000000000000000000 ) ) ;
#29 = CARTESIAN_POINT ( 'NONE',  ( 2.025059176529017346E-13, 1.749999999999992895, 58.00000000000000000 ) ) ;
#30 = CARTESIAN_POINT ( 'NONE',  ( 1.320789660711363972E-13, -2.249999999999997335, 18.00000000000000000 ) ) ;
#31 = ORIENTED_EDGE ( 'NONE', *, *, #179, .T. ) ;
#32 = PRODUCT_DEFINITION_FORMATION_WITH_SPECIFIED_SOURCE ( 'ANY', '', #70, .NOT_KNOWN. ) ;
#33 = PRODUCT_DEFINITION ( 'UNKNOWN', '', #32, #3 ) ;
#34 = CARTESIAN_POINT ( 'NONE',  ( 4.720260686806072374E-15, -2.249999999999992895, 1.351936392812021159 ) ) ;
#35 = ORIENTED_EDGE ( 'NONE', *, *, #93, .T. ) ;
#36 = AXIS2_PLACEMENT_3D ( 'NONE', #80, #23, #316 ) ;
#37 = DIRECTION ( 'NONE',  ( 0.0000000000000000000, 0.0000000000000000000, 1.000000000000000000 ) ) ;
#38 = EDGE_CURVE ( 'NONE', #111, #297, #148, .T. ) ;
#39 = VERTEX_POINT ( 'NONE', #330 ) ;
#40 = DIRECTION ( 'NONE',  ( 4.275831445896958607E-31, 1.000000000000000000, 1.224646799147353207E-16 ) ) ;
#41 = VERTEX_POINT ( 'NONE', #94 ) ;
#42 = PERSON_AND_ORGANIZATION ( #270, #85 ) ;
#43 = CYLINDRICAL_SURFACE ( 'NONE', #228, 2.249999999999997780 ) ;
#44 = EDGE_CURVE ( 'NONE', #92, #11, #69, .T. ) ;
#45 = CONICAL_SURFACE ( 'NONE', #189, 1.750000000000000000, 0.7853981633974476129 ) ;
#46 = CARTESIAN_POINT ( 'NONE',  ( 1.320789660711362963E-13, -2.250000000000007105, 57.50000000000000000 ) ) ;
#47 = EDGE_LOOP ( 'NONE', ( #147, #136, #64, #163 ) ) ;
#48 = APPROVAL_PERSON_ORGANIZATION ( #42, #165, #244 ) ;
#49 = CARTESIAN_POINT ( 'NONE',  ( 3.405900792279936207E-14, -2.249999999999997335, 18.00000000000000000 ) ) ;
#50 = ADVANCED_FACE ( 'NONE', ( #71 ), #45, .T. ) ;
#51 = FACE_OUTER_BOUND ( 'NONE', #263, .T. ) ;
#52 = AXIS2_PLACEMENT_3D ( 'NONE', #337, #155, #258 ) ;
#53 = DIRECTION ( 'NONE',  ( -3.491481338843133355E-15, 1.224646799147353207E-16, -1.000000000000000000 ) ) ;
#54 = DIRECTION ( 'NONE',  ( -3.491481338843133355E-15, 1.224646799147353207E-16, -1.000000000000000000 ) ) ;
#55 = AXIS2_PLACEMENT_3D ( 'NONE', #325, #115, #294 ) ;
#56 = CARTESIAN_POINT ( 'NONE',  ( 2.025059176529017346E-13, -7.102951435054648059E-15, 58.00000000000000000 ) ) ;
#57 = EDGE_CURVE ( 'NONE', #120, #324, #102, .T. ) ;
#58 = EDGE_LOOP ( 'NONE', ( #246, #31, #317, #20 ) ) ;
#59 = AXIS2_PLACEMENT_3D ( 'NONE', #195, #268, #114 ) ;
#60 = PERSON_AND_ORGANIZATION ( #270, #85 ) ;
#61 = EDGE_LOOP ( 'NONE', ( #82, #221 ) ) ;
#62 = LOCAL_TIME ( 9, 51, 9.000000000000000000, #198 ) ;
#63 = FACE_OUTER_BOUND ( 'NONE', #47, .T. ) ;
#64 = ORIENTED_EDGE ( 'NONE', *, *, #12, .F. ) ;
#65 = EDGE_CURVE ( 'NONE', #120, #117, #196, .T. ) ;
#66 = ORIENTED_EDGE ( 'NONE', *, *, #38, .T. ) ;
#67 = CARTESIAN_POINT ( 'NONE',  ( 0.0000000000000000000, 0.0000000000000000000, 0.0000000000000000000 ) ) ;
#68 = ORIENTED_EDGE ( 'NONE', *, *, #299, .F. ) ;
#69 = LINE ( 'NONE', #169, #24 ) ;
#70 = PRODUCT ( '54578', '54578', '', ( #319 ) ) ;
#71 = FACE_OUTER_BOUND ( 'NONE', #141, .T. ) ;
#72 = SECURITY_CLASSIFICATION_LEVEL ( 'unclassified' ) ;
#73 = EDGE_CURVE ( 'NONE', #41, #157, #151, .T. ) ;
#74 = CIRCLE ( 'NONE', #318, 2.249999999999992895 ) ;
#75 = DIRECTION ( 'NONE',  ( -3.491481338843133355E-15, 1.224646799147353207E-16, -1.000000000000000000 ) ) ;
#76 = FACE_OUTER_BOUND ( 'NONE', #61, .T. ) ;
#77 = DIRECTION ( 'NONE',  ( -3.491481338843133355E-15, 1.224646799147353207E-16, -1.000000000000000000 ) ) ;
#78 = DIRECTION ( 'NONE',  ( 0.0000000000000000000, 1.000000000000000000, 0.0000000000000000000 ) ) ;
#79 = AXIS2_PLACEMENT_3D ( 'NONE', #126, #229, #103 ) ;
#80 = CARTESIAN_POINT ( 'NONE',  ( 6.284666409917640040E-14, 1.687229755494582967E-32, 18.00000000000000000 ) ) ;
#81 = DIRECTION ( 'NONE',  ( 3.423875456688429901E-31, 1.000000000000000000, 9.637352644315624825E-17 ) ) ;
#82 = ORIENTED_EDGE ( 'NONE', *, *, #84, .F. ) ;
#83 = PERSON_AND_ORGANIZATION_ROLE ( 'design_owner' ) ;
#84 = EDGE_CURVE ( 'NONE', #117, #120, #238, .T. ) ;
#85 = ORGANIZATION ( 'UNSPECIFIED', 'UNSPECIFIED', '' ) ;
#86 = CALENDAR_DATE ( 2021, 3, 9 ) ;
#87 = CARTESIAN_POINT ( 'NONE',  ( 4.720260686806073163E-15, -1.655644576108060734E-16, 1.351936392812021381 ) ) ;
#88 = APPROVAL_DATE_TIME ( #323, #95 ) ;
#89 = AXIS2_PLACEMENT_3D ( 'NONE', #134, #235, #110 ) ;
#90 = CYLINDRICAL_SURFACE ( 'NONE', #59, 2.249999999999994227 ) ;
#91 = AXIS2_PLACEMENT_3D ( 'NONE', #4, #205, #313 ) ;
#92 = VERTEX_POINT ( 'NONE', #99 ) ;
#93 = EDGE_CURVE ( 'NONE', #117, #297, #130, .T. ) ;
#94 = CARTESIAN_POINT ( 'NONE',  ( 2.025059176529017346E-13, 1.749999999999992895, 58.00000000000000000 ) ) ;
#95 = APPROVAL ( #298, 'UNSPECIFIED' ) ;
#96 = ORIENTED_EDGE ( 'NONE', *, *, #153, .T. ) ;
#97 = CIRCLE ( 'NONE', #22, 2.250000000000000000 ) ;
#98 = MANIFOLD_SOLID_BREP ( 'Corps-Déplacer/Copier1[2]', #109 ) ;
#99 = CARTESIAN_POINT ( 'NONE',  ( 2.018779766780203995E-13, -1.750000000000007105, 58.00000000000000000 ) ) ;
#100 = CARTESIAN_POINT ( 'NONE',  ( 2.755455298081532452E-16, -2.249999999999997780, -2.755455298081551187E-16 ) ) ;
#101 = CC_DESIGN_PERSON_AND_ORGANIZATION_ASSIGNMENT ( #18, #223, ( #144 ) ) ;
#102 = LINE ( 'NONE', #177, #156 ) ;
#103 = DIRECTION ( 'NONE',  ( 4.275831445896957731E-31, 1.000000000000000000, 1.224646799147353207E-16 ) ) ;
#104 = EDGE_CURVE ( 'NONE', #157, #39, #281, .T. ) ;
#105 = UNCERTAINTY_MEASURE_WITH_UNIT (LENGTH_MEASURE( 1.000000000000000082E-05 ), #184, 'distance_accuracy_value', 'NONE');
#106 = DIRECTION ( 'NONE',  ( 0.0000000000000000000, 1.000000000000000000, 0.0000000000000000000 ) ) ;
#107 = CARTESIAN_POINT ( 'NONE',  ( 2.007601769834801742E-13, -7.041719095097280485E-15, 57.50000000000000000 ) ) ;
#108 = ORIENTED_EDGE ( 'NONE', *, *, #125, .F. ) ;
#109 = CLOSED_SHELL ( 'NONE', ( #335, #9, #140, #2, #129 ) ) ;
#110 = DIRECTION ( 'NONE',  ( 4.275831445896958607E-31, 1.000000000000000000, 1.224646799147353207E-16 ) ) ;
#111 = VERTEX_POINT ( 'NONE', #1 ) ;
#112 = APPROVAL_PERSON_ORGANIZATION ( #17, #224, #197 ) ;
#113 = APPROVAL_ROLE ( '' ) ;
#114 = DIRECTION ( 'NONE',  ( 4.275831445896958607E-31, 1.000000000000000000, 1.224646799147353207E-16 ) ) ;
#115 = DIRECTION ( 'NONE',  ( 3.491481338843133355E-15, -1.224646799147353207E-16, 1.000000000000000000 ) ) ;
#116 = ADVANCED_BREP_SHAPE_REPRESENTATION ( '54578', ( #210, #98, #176 ), #137 ) ;
#117 = VERTEX_POINT ( 'NONE', #257 ) ;
#118 = DATE_TIME_ROLE ( 'classification_date' ) ;
#119 = AXIS2_PLACEMENT_3D ( 'NONE', #25, #54, #78 ) ;
#120 = VERTEX_POINT ( 'NONE', #49 ) ;
#121 = APPROVAL_DATE_TIME ( #328, #165 ) ;
#122 = EDGE_CURVE ( 'NONE', #39, #239, #326, .T. ) ;
#123 = ORIENTED_EDGE ( 'NONE', *, *, #216, .F. ) ;
#124 = DIRECTION ( 'NONE',  ( -3.491481338843133355E-15, 1.224646799147353207E-16, -1.000000000000000000 ) ) ;
#125 = EDGE_CURVE ( 'NONE', #92, #41, #180, .T. ) ;
#126 = CARTESIAN_POINT ( 'NONE',  ( 0.0000000000000000000, 0.0000000000000000000, 0.0000000000000000000 ) ) ;
#127 = DIRECTION ( 'NONE',  ( 0.0000000000000000000, 1.000000000000000000, 0.0000000000000000000 ) ) ;
#128 = CYLINDRICAL_SURFACE ( 'NONE', #79, 2.249999999999997780 ) ;
#129 = ADVANCED_FACE ( 'NONE', ( #76 ), #206, .T. ) ;
#130 = LINE ( 'NONE', #201, #283 ) ;
#131 = PLANE ( 'NONE',  #89 ) ;
#132 = AXIS2_PLACEMENT_3D ( 'NONE', #56, #181, #284 ) ;
#133 = LINE ( 'NONE', #13, #256 ) ;
#134 = CARTESIAN_POINT ( 'NONE',  ( 2.025059176529017346E-13, 1.312289809829114733E-32, 58.00000000000000000 ) ) ;
#135 = EDGE_LOOP ( 'NONE', ( #68, #66, #213 ) ) ;
#136 = ORIENTED_EDGE ( 'NONE', *, *, #57, .T. ) ;
#137 =( GEOMETRIC_REPRESENTATION_CONTEXT ( 3 ) GLOBAL_UNCERTAINTY_ASSIGNED_CONTEXT ( ( #105 ) ) GLOBAL_UNIT_ASSIGNED_CONTEXT ( ( #184, #191, #161 ) ) REPRESENTATION_CONTEXT ( 'NONE', 'WORKASPACE' ) );
#138 = DATE_AND_TIME ( #269, #167 ) ;
#139 = ORIENTED_EDGE ( 'NONE', *, *, #208, .T. ) ;
#140 = ADVANCED_FACE ( 'NONE', ( #51 ), #162, .T. ) ;
#141 = EDGE_LOOP ( 'NONE', ( #175, #334, #322, #253 ) ) ;
#142 = CIRCLE ( 'NONE', #119, 2.250000000000000000 ) ;
#143 = APPROVAL_DATE_TIME ( #277, #224 ) ;
#144 = SECURITY_CLASSIFICATION ( '', '', #72 ) ;
#145 = ADVANCED_FACE ( 'NONE', ( #311 ), #128, .T. ) ;
#146 = APPLICATION_CONTEXT ( 'configuration controlled 3d designs of mechanical parts and assemblies' ) ;
#147 = ORIENTED_EDGE ( 'NONE', *, *, #84, .T. ) ;
#148 = LINE ( 'NONE', #220, #252 ) ;
#149 = DIRECTION ( 'NONE',  ( 0.0000000000000000000, 1.000000000000000000, 0.0000000000000000000 ) ) ;
#150 = AXIS2_PLACEMENT_3D ( 'NONE', #87, #327, #187 ) ;
#151 = LINE ( 'NONE', #29, #200 ) ;
#152 = DIRECTION ( 'NONE',  ( -3.491481338843133355E-15, 1.224646799147353207E-16, -1.000000000000000000 ) ) ;
#153 = EDGE_CURVE ( 'NONE', #324, #297, #261, .T. ) ;
#154 = DIRECTION ( 'NONE',  ( -2.468850131082267316E-15, 0.7071067811865471286, -0.7071067811865479058 ) ) ;
#155 = DIRECTION ( 'NONE',  ( -3.491481338843133355E-15, 1.224646799147353207E-16, -1.000000000000000000 ) ) ;
#156 = VECTOR ( 'NONE', #53, 1000.000000000000000 ) ;
#157 = VERTEX_POINT ( 'NONE', #182 ) ;
#158 = PERSON_AND_ORGANIZATION ( #270, #85 ) ;
#159 = ORIENTED_EDGE ( 'NONE', *, *, #57, .F. ) ;
#160 = CC_DESIGN_PERSON_AND_ORGANIZATION_ASSIGNMENT ( #60, #83, ( #70 ) ) ;
#161 =( NAMED_UNIT ( * ) SI_UNIT ( $, .STERADIAN. ) SOLID_ANGLE_UNIT ( ) );
#162 = CONICAL_SURFACE ( 'NONE', #19, 2.249999999999992895, 1.029744258676649649 ) ;
#163 = ORIENTED_EDGE ( 'NONE', *, *, #93, .F. ) ;
#164 = DIRECTION ( 'NONE',  ( 1.000000000000000000, 0.0000000000000000000, 0.0000000000000000000 ) ) ;
#165 = APPROVAL ( #333, 'UNSPECIFIED' ) ;
#166 = ORIENTED_EDGE ( 'NONE', *, *, #73, .T. ) ;
#167 = LOCAL_TIME ( 9, 51, 9.000000000000000000, #296 ) ;
#168 = COORDINATED_UNIVERSAL_TIME_OFFSET ( 1, 0, .AHEAD. ) ;
#169 = CARTESIAN_POINT ( 'NONE',  ( 2.027202308427525400E-13, -1.750000000000007105, 58.00000000000000000 ) ) ;
#170 = EDGE_LOOP ( 'NONE', ( #209, #314 ) ) ;
#171 = ADVANCED_FACE ( 'NONE', ( #183 ), #233, .T. ) ;
#172 = LOCAL_TIME ( 9, 51, 9.000000000000000000, #305 ) ;
#173 = CALENDAR_DATE ( 2021, 3, 9 ) ;
#174 = AXIS2_PLACEMENT_3D ( 'NONE', #234, #124, #149 ) ;
#175 = ORIENTED_EDGE ( 'NONE', *, *, #216, .T. ) ;
#176 = AXIS2_PLACEMENT_3D ( 'NONE', #211, #37, #164 ) ;
#177 = CARTESIAN_POINT ( 'NONE',  ( 2.755455298081528014E-16, -2.249999999999994227, -2.755455298081546750E-16 ) ) ;
#178 = CARTESIAN_POINT ( 'NONE',  ( 2.025059176529017346E-13, -7.102951435054648059E-15, 58.00000000000000000 ) ) ;
#179 = EDGE_CURVE ( 'NONE', #11, #239, #287, .T. ) ;
#180 = CIRCLE ( 'NONE', #219, 1.750000000000000000 ) ;
#181 = DIRECTION ( 'NONE',  ( -3.491481338843133355E-15, 1.224646799147353207E-16, -1.000000000000000000 ) ) ;
#182 = CARTESIAN_POINT ( 'NONE',  ( 2.007601769834801742E-13, 2.249999999999992895, 57.50000000000000000 ) ) ;
#183 = FACE_OUTER_BOUND ( 'NONE', #241, .T. ) ;
#184 =( LENGTH_UNIT ( ) NAMED_UNIT ( * ) SI_UNIT ( .MILLI., .METRE. ) );
#185 = ORIENTED_EDGE ( 'NONE', *, *, #65, .T. ) ;
#186 = DIRECTION ( 'NONE',  ( 0.0000000000000000000, 1.000000000000000000, 0.0000000000000000000 ) ) ;
#187 = DIRECTION ( 'NONE',  ( -3.423875456688429901E-31, -1.000000000000000000, -9.637352644315624825E-17 ) ) ;
#188 = PERSON_AND_ORGANIZATION_ROLE ( 'creator' ) ;
#189 = AXIS2_PLACEMENT_3D ( 'NONE', #275, #152, #127 ) ;
#190 = ORIENTED_EDGE ( 'NONE', *, *, #299, .T. ) ;
#191 =( NAMED_UNIT ( * ) PLANE_ANGLE_UNIT ( ) SI_UNIT ( $, .RADIAN. ) );
#192 = LOCAL_TIME ( 9, 51, 9.000000000000000000, #321 ) ;
#193 = ORIENTED_EDGE ( 'NONE', *, *, #179, .F. ) ;
#194 = PERSON_AND_ORGANIZATION ( #270, #85 ) ;
#195 = CARTESIAN_POINT ( 'NONE',  ( 0.0000000000000000000, 0.0000000000000000000, 0.0000000000000000000 ) ) ;
#196 = CIRCLE ( 'NONE', #52, 2.249999999999995115 ) ;
#197 = APPROVAL_ROLE ( '' ) ;
#198 = COORDINATED_UNIVERSAL_TIME_OFFSET ( 1, 0, .AHEAD. ) ;
#199 = CARTESIAN_POINT ( 'NONE',  ( 4.720260686806073163E-15, -1.655644576108060734E-16, 1.351936392812021381 ) ) ;
#200 = VECTOR ( 'NONE', #154, 1000.000000000000000 ) ;
#201 = CARTESIAN_POINT ( 'NONE',  ( 9.620620753268131904E-31, 2.249999999999994227, 2.755455298081537875E-16 ) ) ;
#202 = DIRECTION ( 'NONE',  ( -3.491481338843133355E-15, 1.224646799147353207E-16, -1.000000000000000000 ) ) ;
#203 = EDGE_CURVE ( 'NONE', #239, #39, #278, .T. ) ;
#204 = DIRECTION ( 'NONE',  ( 3.491481338843133355E-15, -1.224646799147353207E-16, 1.000000000000000000 ) ) ;
#205 = DIRECTION ( 'NONE',  ( -3.491481338843133355E-15, 1.224646799147353207E-16, -1.000000000000000000 ) ) ;
#206 = PLANE ( 'NONE',  #36 ) ;
#207 = DIRECTION ( 'NONE',  ( 1.798245827342160317E-15, -0.8571673007021098911, 0.5150380749100582634 ) ) ;
#208 = EDGE_CURVE ( 'NONE', #11, #157, #142, .T. ) ;
#209 = ORIENTED_EDGE ( 'NONE', *, *, #122, .T. ) ;
#210 = MANIFOLD_SOLID_BREP ( 'Corps-Déplacer/Copier1[1]', #212 ) ;
#211 = CARTESIAN_POINT ( 'NONE',  ( 0.0000000000000000000, 0.0000000000000000000, 0.0000000000000000000 ) ) ;
#212 = CLOSED_SHELL ( 'NONE', ( #50, #26, #274, #145, #171, #303 ) ) ;
#213 = ORIENTED_EDGE ( 'NONE', *, *, #12, .T. ) ;
#214 = APPLICATION_PROTOCOL_DEFINITION ( 'international standard', 'config_control_design', 1994, #146 ) ;
#215 = DIRECTION ( 'NONE',  ( -3.491481338843133355E-15, 1.224646799147353207E-16, -1.000000000000000000 ) ) ;
#216 = EDGE_CURVE ( 'NONE', #41, #92, #291, .T. ) ;
#217 = FACE_OUTER_BOUND ( 'NONE', #135, .T. ) ;
#218 = PLANE ( 'NONE',  #55 ) ;
#219 = AXIS2_PLACEMENT_3D ( 'NONE', #178, #308, #106 ) ;
#220 = CARTESIAN_POINT ( 'NONE',  ( 4.995806216614227246E-15, 2.249999999999992895, 1.351936392812021603 ) ) ;
#221 = ORIENTED_EDGE ( 'NONE', *, *, #65, .F. ) ;
#222 = CC_DESIGN_PERSON_AND_ORGANIZATION_ASSIGNMENT ( #262, #188, ( #33 ) ) ;
#223 = PERSON_AND_ORGANIZATION_ROLE ( 'classification_officer' ) ;
#224 = APPROVAL ( #301, 'UNSPECIFIED' ) ;
#225 = CC_DESIGN_APPROVAL ( #95, ( #33 ) ) ;
#226 = ORIENTED_EDGE ( 'NONE', *, *, #125, .T. ) ;
#227 = DIRECTION ( 'NONE',  ( -3.491481338843133355E-15, 1.224646799147353207E-16, -1.000000000000000000 ) ) ;
#228 = AXIS2_PLACEMENT_3D ( 'NONE', #14, #75, #279 ) ;
#229 = DIRECTION ( 'NONE',  ( -3.491481338843133355E-15, 1.224646799147353207E-16, -1.000000000000000000 ) ) ;
#230 = CC_DESIGN_APPROVAL ( #224, ( #144 ) ) ;
#231 = DIRECTION ( 'NONE',  ( -3.491481338843133355E-15, 1.224646799147353207E-16, -1.000000000000000000 ) ) ;
#232 = CARTESIAN_POINT ( 'NONE',  ( 4.720260686806073163E-15, -1.655644576108060734E-16, 1.351936392812021381 ) ) ;
#233 = CONICAL_SURFACE ( 'NONE', #91, 1.750000000000000000, 0.7853981633974476129 ) ;
#234 = CARTESIAN_POINT ( 'NONE',  ( 6.284666409917640040E-14, -2.204364238465235428E-15, 18.00000000000000000 ) ) ;
#235 = DIRECTION ( 'NONE',  ( -3.491481338843133355E-15, 1.224646799147353207E-16, -1.000000000000000000 ) ) ;
#236 = ORIENTED_EDGE ( 'NONE', *, *, #208, .F. ) ;
#237 = CYLINDRICAL_SURFACE ( 'NONE', #27, 2.249999999999994227 ) ;
#238 = CIRCLE ( 'NONE', #174, 2.249999999999995115 ) ;
#239 = VERTEX_POINT ( 'NONE', #30 ) ;
#240 = CARTESIAN_POINT ( 'NONE',  ( 4.995806216614227246E-15, 2.249999999999992895, 1.351936392812021603 ) ) ;
#241 = EDGE_LOOP ( 'NONE', ( #260, #226, #166, #236 ) ) ;
#242 = DATE_TIME_ROLE ( 'creation_date' ) ;
#243 = FACE_OUTER_BOUND ( 'NONE', #58, .T. ) ;
#244 = APPROVAL_ROLE ( '' ) ;
#245 = AXIS2_PLACEMENT_3D ( 'NONE', #255, #6, #259 ) ;
#246 = ORIENTED_EDGE ( 'NONE', *, *, #312, .T. ) ;
#247 = PRODUCT_RELATED_PRODUCT_CATEGORY ( 'detail', '', ( #70 ) ) ;
#248 = SHAPE_DEFINITION_REPRESENTATION ( #272, #116 ) ;
#249 = CALENDAR_DATE ( 2021, 3, 9 ) ;
#250 = PERSON_AND_ORGANIZATION_ROLE ( 'creator' ) ;
#251 = CC_DESIGN_DATE_AND_TIME_ASSIGNMENT ( #138, #242, ( #33 ) ) ;
#252 = VECTOR ( 'NONE', #254, 999.9999999999998863 ) ;
#253 = ORIENTED_EDGE ( 'NONE', *, *, #73, .F. ) ;
#254 = DIRECTION ( 'NONE',  ( 1.903218546456022717E-15, 0.8571673007021097801, 0.5150380749100585964 ) ) ;
#255 = CARTESIAN_POINT ( 'NONE',  ( 6.284666409917640040E-14, -2.204364238465235428E-15, 18.00000000000000000 ) ) ;
#256 = VECTOR ( 'NONE', #207, 1000.000000000000000 ) ;
#257 = CARTESIAN_POINT ( 'NONE',  ( 6.284666409917640040E-14, 2.249999999999992895, 18.00000000000000000 ) ) ;
#258 = DIRECTION ( 'NONE',  ( 0.0000000000000000000, 1.000000000000000000, 0.0000000000000000000 ) ) ;
#259 = DIRECTION ( 'NONE',  ( 0.0000000000000000000, 1.000000000000000000, 0.0000000000000000000 ) ) ;
#260 = ORIENTED_EDGE ( 'NONE', *, *, #44, .F. ) ;
#261 = CIRCLE ( 'NONE', #289, 2.249999999999992895 ) ;
#262 = PERSON_AND_ORGANIZATION ( #270, #85 ) ;
#263 = EDGE_LOOP ( 'NONE', ( #290, #190, #96 ) ) ;
#264 = APPLICATION_PROTOCOL_DEFINITION ( 'international standard', 'config_control_design', 1994, #265 ) ;
#265 = APPLICATION_CONTEXT ( 'configuration controlled 3d designs of mechanical parts and assemblies' ) ;
#266 = FACE_OUTER_BOUND ( 'NONE', #170, .T. ) ;
#267 = CONICAL_SURFACE ( 'NONE', #150, 2.249999999999992895, 1.029744258676649649 ) ;
#268 = DIRECTION ( 'NONE',  ( -3.491481338843133355E-15, 1.224646799147353207E-16, -1.000000000000000000 ) ) ;
#269 = CALENDAR_DATE ( 2021, 3, 9 ) ;
#270 = PERSON ( 'UNSPECIFIED', 'UNSPECIFIED', 'UNSPECIFIED', ('UNSPECIFIED'), ('UNSPECIFIED'), ('UNSPECIFIED') ) ;
#271 = FACE_OUTER_BOUND ( 'NONE', #288, .T. ) ;
#272 = PRODUCT_DEFINITION_SHAPE ( 'NONE', 'NONE',  #33 ) ;
#273 = ORIENTED_EDGE ( 'NONE', *, *, #104, .T. ) ;
#274 = ADVANCED_FACE ( 'NONE', ( #266 ), #218, .F. ) ;
#275 = CARTESIAN_POINT ( 'NONE',  ( 2.025059176529017346E-13, -7.102951435054648059E-15, 58.00000000000000000 ) ) ;
#276 = PERSON_AND_ORGANIZATION_ROLE ( 'design_supplier' ) ;
#277 = DATE_AND_TIME ( #173, #315 ) ;
#278 = CIRCLE ( 'NONE', #307, 2.249999999999995115 ) ;
#279 = DIRECTION ( 'NONE',  ( 4.275831445896957731E-31, 1.000000000000000000, 1.224646799147353207E-16 ) ) ;
#280 = APPROVAL_PERSON_ORGANIZATION ( #158, #95, #113 ) ;
#281 = LINE ( 'NONE', #336, #332 ) ;
#282 = DIRECTION ( 'NONE',  ( 0.0000000000000000000, 1.000000000000000000, 0.0000000000000000000 ) ) ;
#283 = VECTOR ( 'NONE', #231, 1000.000000000000000 ) ;
#284 = DIRECTION ( 'NONE',  ( 0.0000000000000000000, 1.000000000000000000, 0.0000000000000000000 ) ) ;
#285 = CARTESIAN_POINT ( 'NONE',  ( 6.284666409917640040E-14, -2.204364238465235428E-15, 18.00000000000000000 ) ) ;
#286 = CC_DESIGN_PERSON_AND_ORGANIZATION_ASSIGNMENT ( #331, #276, ( #32 ) ) ;
#287 = LINE ( 'NONE', #100, #5 ) ;
#288 = EDGE_LOOP ( 'NONE', ( #159, #185, #35, #293 ) ) ;
#289 = AXIS2_PLACEMENT_3D ( 'NONE', #232, #227, #81 ) ;
#290 = ORIENTED_EDGE ( 'NONE', *, *, #38, .F. ) ;
#291 = CIRCLE ( 'NONE', #132, 1.750000000000000000 ) ;
#292 = FACE_OUTER_BOUND ( 'NONE', #16, .T. ) ;
#293 = ORIENTED_EDGE ( 'NONE', *, *, #153, .F. ) ;
#294 = DIRECTION ( 'NONE',  ( -4.275831445896958607E-31, -1.000000000000000000, -1.224646799147353207E-16 ) ) ;
#295 = EDGE_LOOP ( 'NONE', ( #193, #139, #273, #306 ) ) ;
#296 = COORDINATED_UNIVERSAL_TIME_OFFSET ( 1, 0, .AHEAD. ) ;
#297 = VERTEX_POINT ( 'NONE', #240 ) ;
#298 = APPROVAL_STATUS ( 'not_yet_approved' ) ;
#299 = EDGE_CURVE ( 'NONE', #111, #324, #133, .T. ) ;
#300 = DIRECTION ( 'NONE',  ( 3.423875456688429901E-31, 1.000000000000000000, 9.637352644315624825E-17 ) ) ;
#301 = APPROVAL_STATUS ( 'not_yet_approved' ) ;
#302 = DIRECTION ( 'NONE',  ( -2.382254525458718258E-15, -0.7071067811865469066, -0.7071067811865482389 ) ) ;
#303 = ADVANCED_FACE ( 'NONE', ( #292 ), #131, .F. ) ;
#304 = DATE_AND_TIME ( #15, #62 ) ;
#305 = COORDINATED_UNIVERSAL_TIME_OFFSET ( 1, 0, .AHEAD. ) ;
#306 = ORIENTED_EDGE ( 'NONE', *, *, #203, .F. ) ;
#307 = AXIS2_PLACEMENT_3D ( 'NONE', #285, #77, #282 ) ;
#308 = DIRECTION ( 'NONE',  ( -3.491481338843133355E-15, 1.224646799147353207E-16, -1.000000000000000000 ) ) ;
#309 = CC_DESIGN_PERSON_AND_ORGANIZATION_ASSIGNMENT ( #194, #250, ( #32 ) ) ;
#310 = DIRECTION ( 'NONE',  ( -3.423875456688429901E-31, -1.000000000000000000, -9.637352644315624825E-17 ) ) ;
#311 = FACE_OUTER_BOUND ( 'NONE', #295, .T. ) ;
#312 = EDGE_CURVE ( 'NONE', #157, #11, #97, .T. ) ;
#313 = DIRECTION ( 'NONE',  ( 0.0000000000000000000, 1.000000000000000000, 0.0000000000000000000 ) ) ;
#314 = ORIENTED_EDGE ( 'NONE', *, *, #203, .T. ) ;
#315 = LOCAL_TIME ( 9, 51, 9.000000000000000000, #168 ) ;
#316 = DIRECTION ( 'NONE',  ( -4.275831445896958607E-31, -1.000000000000000000, -1.224646799147353207E-16 ) ) ;
#317 = ORIENTED_EDGE ( 'NONE', *, *, #122, .F. ) ;
#318 = AXIS2_PLACEMENT_3D ( 'NONE', #199, #215, #300 ) ;
#319 = MECHANICAL_CONTEXT ( 'NONE', #265, 'mechanical' ) ;
#320 = CC_DESIGN_DATE_AND_TIME_ASSIGNMENT ( #304, #118, ( #144 ) ) ;
#321 = COORDINATED_UNIVERSAL_TIME_OFFSET ( 1, 0, .AHEAD. ) ;
#322 = ORIENTED_EDGE ( 'NONE', *, *, #312, .F. ) ;
#323 = DATE_AND_TIME ( #86, #192 ) ;
#324 = VERTEX_POINT ( 'NONE', #34 ) ;
#325 = CARTESIAN_POINT ( 'NONE',  ( 6.284666409917640040E-14, 1.687229755494582967E-32, 18.00000000000000000 ) ) ;
#326 = CIRCLE ( 'NONE', #245, 2.249999999999995115 ) ;
#327 = DIRECTION ( 'NONE',  ( 3.491481338843133355E-15, -1.224646799147353207E-16, 1.000000000000000000 ) ) ;
#328 = DATE_AND_TIME ( #249, #172 ) ;
#329 = CC_DESIGN_SECURITY_CLASSIFICATION ( #144, ( #32 ) ) ;
#330 = CARTESIAN_POINT ( 'NONE',  ( 6.284666409917640040E-14, 2.249999999999992895, 18.00000000000000000 ) ) ;
#331 = PERSON_AND_ORGANIZATION ( #270, #85 ) ;
#332 = VECTOR ( 'NONE', #28, 1000.000000000000000 ) ;
#333 = APPROVAL_STATUS ( 'not_yet_approved' ) ;
#334 = ORIENTED_EDGE ( 'NONE', *, *, #44, .T. ) ;
#335 = ADVANCED_FACE ( 'NONE', ( #63 ), #237, .T. ) ;
#336 = CARTESIAN_POINT ( 'NONE',  ( 9.620620753268145917E-31, 2.249999999999997780, 2.755455298081541820E-16 ) ) ;
#337 = CARTESIAN_POINT ( 'NONE',  ( 6.284666409917640040E-14, -2.204364238465235428E-15, 18.00000000000000000 ) ) ;
ENDSEC;
END-ISO-10303-21;
