ISO-10303-21;
HEADER;
FILE_DESCRIPTION (( 'STEP AP203' ),
    '1' );
FILE_NAME ('54577.step',
    '2021-09-03T07:51:05',
    ( '' ),
    ( '' ),
    'SwSTEP 2.0',
    'SolidWorks 2019',
    '' );
FILE_SCHEMA (( 'CONFIG_CONTROL_DESIGN' ));
ENDSEC;

DATA;
#1 = ORIENTED_EDGE ( 'NONE', *, *, #15, .F. ) ;
#2 = COORDINATED_UNIVERSAL_TIME_OFFSET ( 1, 0, .AHEAD. ) ;
#3 = AXIS2_PLACEMENT_3D ( 'NONE', #164, #314, #236 ) ;
#4 = VERTEX_POINT ( 'NONE', #10 ) ;
#5 = CARTESIAN_POINT ( 'NONE',  ( 0.0000000000000000000, 0.0000000000000000000, 0.0000000000000000000 ) ) ;
#6 = PERSON_AND_ORGANIZATION ( #281, #204 ) ;
#7 = DIRECTION ( 'NONE',  ( 1.798245827342160317E-15, -0.8571673007021098911, 0.5150380749100582634 ) ) ;
#8 = AXIS2_PLACEMENT_3D ( 'NONE', #64, #149, #225 ) ;
#9 = SECURITY_CLASSIFICATION ( '', '', #133 ) ;
#10 = CARTESIAN_POINT ( 'NONE',  ( 2.018749150610225507E-13, -1.725000000000007416, 58.00000000000000000 ) ) ;
#11 = CC_DESIGN_DATE_AND_TIME_ASSIGNMENT ( #52, #317, ( #110 ) ) ;
#12 = DIRECTION ( 'NONE',  ( -3.491481338843133355E-15, 1.224646799147353207E-16, -1.000000000000000000 ) ) ;
#13 = FACE_OUTER_BOUND ( 'NONE', #105, .T. ) ;
#14 = FACE_OUTER_BOUND ( 'NONE', #20, .T. ) ;
#15 = EDGE_CURVE ( 'NONE', #335, #44, #141, .T. ) ;
#16 = AXIS2_PLACEMENT_3D ( 'NONE', #297, #307, #101 ) ;
#17 = CARTESIAN_POINT ( 'NONE',  ( 4.667813345841560564E-15, -1.637248525262415467E-16, 1.336914877336332186 ) ) ;
#18 = CARTESIAN_POINT ( 'NONE',  ( 6.284666409917640040E-14, 1.668482758211309610E-32, 18.00000000000000000 ) ) ;
#19 = APPROVAL_PERSON_ORGANIZATION ( #193, #226, #75 ) ;
#20 = EDGE_LOOP ( 'NONE', ( #102, #253, #135, #51 ) ) ;
#21 = CARTESIAN_POINT ( 'NONE',  ( 6.284666409917640040E-14, -2.204364238465235428E-15, 18.00000000000000000 ) ) ;
#22 = VERTEX_POINT ( 'NONE', #112 ) ;
#23 = CONICAL_SURFACE ( 'NONE', #118, 1.725000000000000089, 0.7853981633974476129 ) ;
#24 = SHAPE_DEFINITION_REPRESENTATION ( #183, #246 ) ;
#25 = EDGE_LOOP ( 'NONE', ( #283, #159, #306 ) ) ;
#26 = CALENDAR_DATE ( 2021, 3, 9 ) ;
#27 = APPLICATION_CONTEXT ( 'configuration controlled 3d designs of mechanical parts and assemblies' ) ;
#28 = PERSON_AND_ORGANIZATION_ROLE ( 'classification_officer' ) ;
#29 = CIRCLE ( 'NONE', #40, 2.224999999999995204 ) ;
#30 = CC_DESIGN_APPROVAL ( #232, ( #9 ) ) ;
#31 = FACE_OUTER_BOUND ( 'NONE', #277, .T. ) ;
#32 = COORDINATED_UNIVERSAL_TIME_OFFSET ( 1, 0, .AHEAD. ) ;
#33 = FACE_OUTER_BOUND ( 'NONE', #129, .T. ) ;
#34 = ORIENTED_EDGE ( 'NONE', *, *, #250, .T. ) ;
#35 = EDGE_CURVE ( 'NONE', #303, #46, #290, .T. ) ;
#36 = CONICAL_SURFACE ( 'NONE', #106, 1.725000000000000089, 0.7853981633974476129 ) ;
#37 = CARTESIAN_POINT ( 'NONE',  ( 9.513724967120710085E-31, 2.224999999999994316, 2.724839128102853990E-16 ) ) ;
#38 = CARTESIAN_POINT ( 'NONE',  ( 2.025059176529017346E-13, 1.724999999999992983, 58.00000000000000000 ) ) ;
#39 = CARTESIAN_POINT ( 'NONE',  ( 2.724839128102848566E-16, -2.224999999999997868, -2.724839128102867302E-16 ) ) ;
#40 = AXIS2_PLACEMENT_3D ( 'NONE', #109, #294, #146 ) ;
#41 =( LENGTH_UNIT ( ) NAMED_UNIT ( * ) SI_UNIT ( .MILLI., .METRE. ) );
#42 = DIRECTION ( 'NONE',  ( -3.491481338843133355E-15, 1.224646799147353207E-16, -1.000000000000000000 ) ) ;
#43 = AXIS2_PLACEMENT_3D ( 'NONE', #291, #265, #295 ) ;
#44 = VERTEX_POINT ( 'NONE', #323 ) ;
#45 = FACE_OUTER_BOUND ( 'NONE', #156, .T. ) ;
#46 = VERTEX_POINT ( 'NONE', #245 ) ;
#47 = APPROVAL_STATUS ( 'not_yet_approved' ) ;
#48 = VERTEX_POINT ( 'NONE', #85 ) ;
#49 = CC_DESIGN_PERSON_AND_ORGANIZATION_ASSIGNMENT ( #263, #242, ( #110 ) ) ;
#50 = CALENDAR_DATE ( 2021, 3, 9 ) ;
#51 = ORIENTED_EDGE ( 'NONE', *, *, #68, .F. ) ;
#52 = DATE_AND_TIME ( #26, #268 ) ;
#53 = DIRECTION ( 'NONE',  ( 4.275831445896959482E-31, 1.000000000000000000, 1.224646799147353207E-16 ) ) ;
#54 = APPLICATION_PROTOCOL_DEFINITION ( 'international standard', 'config_control_design', 1994, #27 ) ;
#55 = CIRCLE ( 'NONE', #83, 1.725000000000000089 ) ;
#56 = CARTESIAN_POINT ( 'NONE',  ( 2.025059176529017346E-13, -7.102951435054648059E-15, 58.00000000000000000 ) ) ;
#57 = CALENDAR_DATE ( 2021, 3, 9 ) ;
#58 = EDGE_CURVE ( 'NONE', #4, #46, #220, .T. ) ;
#59 = DIRECTION ( 'NONE',  ( 0.0000000000000000000, 1.000000000000000000, 0.0000000000000000000 ) ) ;
#60 = CARTESIAN_POINT ( 'NONE',  ( 2.025059176529017346E-13, -7.102951435054648059E-15, 58.00000000000000000 ) ) ;
#61 = VECTOR ( 'NONE', #93, 999.9999999999998863 ) ;
#62 = CARTESIAN_POINT ( 'NONE',  ( 9.513724967120722346E-31, 2.224999999999997868, 2.724839128102858427E-16 ) ) ;
#63 = DIRECTION ( 'NONE',  ( 3.491481338843133355E-15, -1.224646799147353207E-16, 1.000000000000000000 ) ) ;
#64 = CARTESIAN_POINT ( 'NONE',  ( 2.025059176529017346E-13, 1.293542812545841650E-32, 58.00000000000000000 ) ) ;
#65 = CIRCLE ( 'NONE', #153, 2.224999999999995204 ) ;
#66 = DIRECTION ( 'NONE',  ( 0.0000000000000000000, 1.000000000000000000, 0.0000000000000000000 ) ) ;
#67 = DIRECTION ( 'NONE',  ( -3.462345967437738132E-31, -1.000000000000000000, -9.745637505487710580E-17 ) ) ;
#68 = EDGE_CURVE ( 'NONE', #303, #240, #319, .T. ) ;
#69 = ORIENTED_EDGE ( 'NONE', *, *, #35, .F. ) ;
#70 = EDGE_CURVE ( 'NONE', #22, #44, #321, .T. ) ;
#71 = ORIENTED_EDGE ( 'NONE', *, *, #161, .T. ) ;
#72 = LINE ( 'NONE', #327, #61 ) ;
#73 = DATE_AND_TIME ( #50, #148 ) ;
#74 = VERTEX_POINT ( 'NONE', #197 ) ;
#75 = APPROVAL_ROLE ( '' ) ;
#76 = ORIENTED_EDGE ( 'NONE', *, *, #206, .T. ) ;
#77 = EDGE_CURVE ( 'NONE', #240, #210, #170, .T. ) ;
#78 = PERSON_AND_ORGANIZATION_ROLE ( 'creator' ) ;
#79 = DIRECTION ( 'NONE',  ( 0.0000000000000000000, 1.000000000000000000, 0.0000000000000000000 ) ) ;
#80 = PRODUCT ( '54577', '54577', '', ( #282 ) ) ;
#81 = PERSON_AND_ORGANIZATION ( #281, #204 ) ;
#82 = DIRECTION ( 'NONE',  ( 0.0000000000000000000, 1.000000000000000000, 0.0000000000000000000 ) ) ;
#83 = AXIS2_PLACEMENT_3D ( 'NONE', #120, #301, #178 ) ;
#84 = APPROVAL_DATE_TIME ( #209, #132 ) ;
#85 = CARTESIAN_POINT ( 'NONE',  ( 2.025059176529017346E-13, 1.724999999999992983, 58.00000000000000000 ) ) ;
#86 = DIRECTION ( 'NONE',  ( -3.491481338843133355E-15, 1.224646799147353207E-16, -1.000000000000000000 ) ) ;
#87 = DIRECTION ( 'NONE',  ( -3.491481338843133355E-15, 1.224646799147353207E-16, -1.000000000000000000 ) ) ;
#88 = CC_DESIGN_DATE_AND_TIME_ASSIGNMENT ( #73, #215, ( #9 ) ) ;
#89 = VECTOR ( 'NONE', #243, 1000.000000000000000 ) ;
#90 = CC_DESIGN_APPROVAL ( #132, ( #110 ) ) ;
#91 = CARTESIAN_POINT ( 'NONE',  ( 6.284666409917640040E-14, 2.224999999999992983, 18.00000000000000000 ) ) ;
#92 = MANIFOLD_SOLID_BREP ( 'Corps-Déplacer/Copier1[1]', #99 ) ;
#93 = DIRECTION ( 'NONE',  ( 1.903218546456022717E-15, 0.8571673007021097801, 0.5150380749100585964 ) ) ;
#94 = APPLICATION_CONTEXT ( 'configuration controlled 3d designs of mechanical parts and assemblies' ) ;
#95 = FACE_OUTER_BOUND ( 'NONE', #188, .T. ) ;
#96 = EDGE_CURVE ( 'NONE', #46, #303, #203, .T. ) ;
#97 = CARTESIAN_POINT ( 'NONE',  ( 2.025059176529017346E-13, -7.102951435054648059E-15, 58.00000000000000000 ) ) ;
#98 = EDGE_CURVE ( 'NONE', #4, #48, #157, .T. ) ;
#99 = CLOSED_SHELL ( 'NONE', ( #174, #195, #222, #169, #184, #179 ) ) ;
#100 = ORIENTED_EDGE ( 'NONE', *, *, #68, .T. ) ;
#101 = DIRECTION ( 'NONE',  ( 4.275831445896957731E-31, 1.000000000000000000, 1.224646799147353207E-16 ) ) ;
#102 = ORIENTED_EDGE ( 'NONE', *, *, #35, .T. ) ;
#103 = ORIENTED_EDGE ( 'NONE', *, *, #58, .F. ) ;
#104 = PERSON_AND_ORGANIZATION_ROLE ( 'design_owner' ) ;
#105 = EDGE_LOOP ( 'NONE', ( #235, #131, #100, #108 ) ) ;
#106 = AXIS2_PLACEMENT_3D ( 'NONE', #60, #262, #168 ) ;
#107 = APPROVAL_DATE_TIME ( #237, #226 ) ;
#108 = ORIENTED_EDGE ( 'NONE', *, *, #161, .F. ) ;
#109 = CARTESIAN_POINT ( 'NONE',  ( 6.284666409917640040E-14, -2.204364238465235428E-15, 18.00000000000000000 ) ) ;
#110 = PRODUCT_DEFINITION ( 'UNKNOWN', '', #158, #111 ) ;
#111 = DESIGN_CONTEXT ( 'detailed design', #27, 'design' ) ;
#112 = CARTESIAN_POINT ( 'NONE',  ( 4.667813345841559775E-15, -2.224999999999992983, 1.336914877336331964 ) ) ;
#113 = AXIS2_PLACEMENT_3D ( 'NONE', #17, #254, #229 ) ;
#114 = APPROVAL_PERSON_ORGANIZATION ( #259, #132, #140 ) ;
#115 = CARTESIAN_POINT ( 'NONE',  ( 4.667813345841559775E-15, -2.224999999999992983, 1.336914877336331964 ) ) ;
#116 = EDGE_CURVE ( 'NONE', #74, #22, #172, .T. ) ;
#117 = ORIENTED_EDGE ( 'NONE', *, *, #250, .F. ) ;
#118 = AXIS2_PLACEMENT_3D ( 'NONE', #97, #200, #230 ) ;
#119 = LOCAL_TIME ( 9, 51, 5.000000000000000000, #219 ) ;
#120 = CARTESIAN_POINT ( 'NONE',  ( 2.025059176529017346E-13, -7.102951435054648059E-15, 58.00000000000000000 ) ) ;
#121 = DIRECTION ( 'NONE',  ( 0.0000000000000000000, 1.000000000000000000, 0.0000000000000000000 ) ) ;
#122 = CARTESIAN_POINT ( 'NONE',  ( 4.667813345841560564E-15, -1.637248525262415467E-16, 1.336914877336332186 ) ) ;
#123 = AXIS2_PLACEMENT_3D ( 'NONE', #21, #202, #121 ) ;
#124 = CC_DESIGN_SECURITY_CLASSIFICATION ( #9, ( #158 ) ) ;
#125 = PRODUCT_RELATED_PRODUCT_CATEGORY ( 'detail', '', ( #80 ) ) ;
#126 = EDGE_LOOP ( 'NONE', ( #117, #278 ) ) ;
#127 = LINE ( 'NONE', #333, #171 ) ;
#128 = CONICAL_SURFACE ( 'NONE', #136, 2.224999999999992983, 1.029744258676649649 ) ;
#129 = EDGE_LOOP ( 'NONE', ( #34, #308, #255, #1 ) ) ;
#130 =( NAMED_UNIT ( * ) SI_UNIT ( $, .STERADIAN. ) SOLID_ANGLE_UNIT ( ) );
#131 = ORIENTED_EDGE ( 'NONE', *, *, #96, .T. ) ;
#132 = APPROVAL ( #287, 'UNSPECIFIED' ) ;
#133 = SECURITY_CLASSIFICATION_LEVEL ( 'unclassified' ) ;
#134 = ORIENTED_EDGE ( 'NONE', *, *, #98, .F. ) ;
#135 = ORIENTED_EDGE ( 'NONE', *, *, #77, .F. ) ;
#136 = AXIS2_PLACEMENT_3D ( 'NONE', #151, #199, #249 ) ;
#137 = DATE_AND_TIME ( #57, #331 ) ;
#138 = CC_DESIGN_PERSON_AND_ORGANIZATION_ASSIGNMENT ( #217, #104, ( #80 ) ) ;
#139 = PLANE ( 'NONE',  #8 ) ;
#140 = APPROVAL_ROLE ( '' ) ;
#141 = LINE ( 'NONE', #37, #227 ) ;
#142 = CYLINDRICAL_SURFACE ( 'NONE', #176, 2.224999999999994316 ) ;
#143 = CLOSED_SHELL ( 'NONE', ( #150, #274, #328, #145, #302 ) ) ;
#144 = CARTESIAN_POINT ( 'NONE',  ( 4.667813345841560564E-15, -1.637248525262415467E-16, 1.336914877336332186 ) ) ;
#145 = ADVANCED_FACE ( 'NONE', ( #269 ), #324, .T. ) ;
#146 = DIRECTION ( 'NONE',  ( 0.0000000000000000000, 1.000000000000000000, 0.0000000000000000000 ) ) ;
#147 = DIRECTION ( 'NONE',  ( -4.275831445896958607E-31, -1.000000000000000000, -1.224646799147353207E-16 ) ) ;
#148 = LOCAL_TIME ( 9, 51, 5.000000000000000000, #160 ) ;
#149 = DIRECTION ( 'NONE',  ( -3.491481338843133355E-15, 1.224646799147353207E-16, -1.000000000000000000 ) ) ;
#150 = ADVANCED_FACE ( 'NONE', ( #33 ), #142, .T. ) ;
#151 = CARTESIAN_POINT ( 'NONE',  ( 4.667813345841560564E-15, -1.637248525262415467E-16, 1.336914877336332186 ) ) ;
#152 = EDGE_CURVE ( 'NONE', #48, #303, #247, .T. ) ;
#153 = AXIS2_PLACEMENT_3D ( 'NONE', #299, #234, #66 ) ;
#154 = ORIENTED_EDGE ( 'NONE', *, *, #77, .T. ) ;
#155 = FACE_OUTER_BOUND ( 'NONE', #126, .T. ) ;
#156 = EDGE_LOOP ( 'NONE', ( #205, #238, #266 ) ) ;
#157 = CIRCLE ( 'NONE', #198, 1.725000000000000089 ) ;
#158 = PRODUCT_DEFINITION_FORMATION_WITH_SPECIFIED_SOURCE ( 'ANY', '', #80, .NOT_KNOWN. ) ;
#159 = ORIENTED_EDGE ( 'NONE', *, *, #116, .T. ) ;
#160 = COORDINATED_UNIVERSAL_TIME_OFFSET ( 1, 0, .AHEAD. ) ;
#161 = EDGE_CURVE ( 'NONE', #210, #240, #29, .T. ) ;
#162 = DIRECTION ( 'NONE',  ( -3.491481338843133355E-15, 1.224646799147353207E-16, -1.000000000000000000 ) ) ;
#163 = APPROVAL_PERSON_ORGANIZATION ( #190, #232, #292 ) ;
#164 = CARTESIAN_POINT ( 'NONE',  ( 0.0000000000000000000, 0.0000000000000000000, 0.0000000000000000000 ) ) ;
#165 = CARTESIAN_POINT ( 'NONE',  ( 6.284666409917640040E-14, -2.204364238465235428E-15, 18.00000000000000000 ) ) ;
#166 = APPROVAL_DATE_TIME ( #137, #232 ) ;
#167 = DIRECTION ( 'NONE',  ( 4.275831445896959482E-31, 1.000000000000000000, 1.224646799147353207E-16 ) ) ;
#168 = DIRECTION ( 'NONE',  ( 0.0000000000000000000, 1.000000000000000000, 0.0000000000000000000 ) ) ;
#169 = ADVANCED_FACE ( 'NONE', ( #13 ), #216, .T. ) ;
#170 = CIRCLE ( 'NONE', #312, 2.224999999999995204 ) ;
#171 = VECTOR ( 'NONE', #173, 1000.000000000000000 ) ;
#172 = LINE ( 'NONE', #115, #221 ) ;
#173 = DIRECTION ( 'NONE',  ( -3.491481338843133355E-15, 1.224646799147353207E-16, -1.000000000000000000 ) ) ;
#174 = ADVANCED_FACE ( 'NONE', ( #196 ), #36, .T. ) ;
#175 = PLANE ( 'NONE',  #213 ) ;
#176 = AXIS2_PLACEMENT_3D ( 'NONE', #5, #12, #53 ) ;
#177 = LINE ( 'NONE', #39, #276 ) ;
#178 = DIRECTION ( 'NONE',  ( 0.0000000000000000000, 1.000000000000000000, 0.0000000000000000000 ) ) ;
#179 = ADVANCED_FACE ( 'NONE', ( #31 ), #139, .F. ) ;
#180 =( GEOMETRIC_REPRESENTATION_CONTEXT ( 3 ) GLOBAL_UNCERTAINTY_ASSIGNED_CONTEXT ( ( #284 ) ) GLOBAL_UNIT_ASSIGNED_CONTEXT ( ( #41, #329, #130 ) ) REPRESENTATION_CONTEXT ( 'NONE', 'WORKASPACE' ) );
#181 = ORIENTED_EDGE ( 'NONE', *, *, #152, .F. ) ;
#182 = ORIENTED_EDGE ( 'NONE', *, *, #206, .F. ) ;
#183 = PRODUCT_DEFINITION_SHAPE ( 'NONE', 'NONE',  #110 ) ;
#184 = ADVANCED_FACE ( 'NONE', ( #95 ), #23, .T. ) ;
#185 = EDGE_LOOP ( 'NONE', ( #76, #244, #69, #181 ) ) ;
#186 = VECTOR ( 'NONE', #325, 1000.000000000000000 ) ;
#187 = ORIENTED_EDGE ( 'NONE', *, *, #96, .F. ) ;
#188 = EDGE_LOOP ( 'NONE', ( #103, #233, #311, #187 ) ) ;
#189 = EDGE_CURVE ( 'NONE', #332, #335, #304, .T. ) ;
#190 = PERSON_AND_ORGANIZATION ( #281, #204 ) ;
#191 = DIRECTION ( 'NONE',  ( 3.462345967437738132E-31, 1.000000000000000000, 9.745637505487710580E-17 ) ) ;
#192 = DIRECTION ( 'NONE',  ( -3.491481338843133355E-15, 1.224646799147353207E-16, -1.000000000000000000 ) ) ;
#193 = PERSON_AND_ORGANIZATION ( #281, #204 ) ;
#194 = DIRECTION ( 'NONE',  ( -3.491481338843133355E-15, 1.224646799147353207E-16, -1.000000000000000000 ) ) ;
#195 = ADVANCED_FACE ( 'NONE', ( #14 ), #275, .T. ) ;
#196 = FACE_OUTER_BOUND ( 'NONE', #185, .T. ) ;
#197 = CARTESIAN_POINT ( 'NONE',  ( 0.0000000000000000000, 0.0000000000000000000, 0.0000000000000000000 ) ) ;
#198 = AXIS2_PLACEMENT_3D ( 'NONE', #56, #192, #59 ) ;
#199 = DIRECTION ( 'NONE',  ( 3.491481338843133355E-15, -1.224646799147353207E-16, 1.000000000000000000 ) ) ;
#200 = DIRECTION ( 'NONE',  ( -3.491481338843133355E-15, 1.224646799147353207E-16, -1.000000000000000000 ) ) ;
#201 = CARTESIAN_POINT ( 'NONE',  ( 1.320759044541385484E-13, -2.224999999999997424, 18.00000000000000000 ) ) ;
#202 = DIRECTION ( 'NONE',  ( -3.491481338843133355E-15, 1.224646799147353207E-16, -1.000000000000000000 ) ) ;
#203 = CIRCLE ( 'NONE', #43, 2.225000000000000089 ) ;
#204 = ORGANIZATION ( 'UNSPECIFIED', 'UNSPECIFIED', '' ) ;
#205 = ORIENTED_EDGE ( 'NONE', *, *, #116, .F. ) ;
#206 = EDGE_CURVE ( 'NONE', #48, #4, #55, .T. ) ;
#207 = FACE_OUTER_BOUND ( 'NONE', #25, .T. ) ;
#208 = ORIENTED_EDGE ( 'NONE', *, *, #189, .T. ) ;
#209 = DATE_AND_TIME ( #320, #119 ) ;
#210 = VERTEX_POINT ( 'NONE', #201 ) ;
#211 = APPLICATION_PROTOCOL_DEFINITION ( 'international standard', 'config_control_design', 1994, #94 ) ;
#212 = EDGE_CURVE ( 'NONE', #44, #22, #272, .T. ) ;
#213 = AXIS2_PLACEMENT_3D ( 'NONE', #330, #228, #147 ) ;
#214 = ORIENTED_EDGE ( 'NONE', *, *, #15, .T. ) ;
#215 = DATE_TIME_ROLE ( 'classification_date' ) ;
#216 = CYLINDRICAL_SURFACE ( 'NONE', #261, 2.224999999999997868 ) ;
#217 = PERSON_AND_ORGANIZATION ( #281, #204 ) ;
#218 = DIRECTION ( 'NONE',  ( -2.382254525458718258E-15, -0.7071067811865469066, -0.7071067811865482389 ) ) ;
#219 = COORDINATED_UNIVERSAL_TIME_OFFSET ( 1, 0, .AHEAD. ) ;
#220 = LINE ( 'NONE', #224, #251 ) ;
#221 = VECTOR ( 'NONE', #7, 1000.000000000000000 ) ;
#222 = ADVANCED_FACE ( 'NONE', ( #273 ), #175, .F. ) ;
#223 = CARTESIAN_POINT ( 'NONE',  ( 0.0000000000000000000, 0.0000000000000000000, 0.0000000000000000000 ) ) ;
#224 = CARTESIAN_POINT ( 'NONE',  ( 2.027171692257546407E-13, -1.725000000000007416, 58.00000000000000000 ) ) ;
#225 = DIRECTION ( 'NONE',  ( 4.275831445896958607E-31, 1.000000000000000000, 1.224646799147353207E-16 ) ) ;
#226 = APPROVAL ( #239, 'UNSPECIFIED' ) ;
#227 = VECTOR ( 'NONE', #194, 1000.000000000000000 ) ;
#228 = DIRECTION ( 'NONE',  ( 3.491481338843133355E-15, -1.224646799147353207E-16, 1.000000000000000000 ) ) ;
#229 = DIRECTION ( 'NONE',  ( 3.462345967437738132E-31, 1.000000000000000000, 9.745637505487710580E-17 ) ) ;
#230 = DIRECTION ( 'NONE',  ( 0.0000000000000000000, 1.000000000000000000, 0.0000000000000000000 ) ) ;
#231 = AXIS2_PLACEMENT_3D ( 'NONE', #264, #241, #167 ) ;
#232 = APPROVAL ( #47, 'UNSPECIFIED' ) ;
#233 = ORIENTED_EDGE ( 'NONE', *, *, #98, .T. ) ;
#234 = DIRECTION ( 'NONE',  ( -3.491481338843133355E-15, 1.224646799147353207E-16, -1.000000000000000000 ) ) ;
#235 = ORIENTED_EDGE ( 'NONE', *, *, #298, .F. ) ;
#236 = DIRECTION ( 'NONE',  ( 1.000000000000000000, 0.0000000000000000000, 0.0000000000000000000 ) ) ;
#237 = DATE_AND_TIME ( #309, #305 ) ;
#238 = ORIENTED_EDGE ( 'NONE', *, *, #336, .T. ) ;
#239 = APPROVAL_STATUS ( 'not_yet_approved' ) ;
#240 = VERTEX_POINT ( 'NONE', #91 ) ;
#241 = DIRECTION ( 'NONE',  ( -3.491481338843133355E-15, 1.224646799147353207E-16, -1.000000000000000000 ) ) ;
#242 = PERSON_AND_ORGANIZATION_ROLE ( 'creator' ) ;
#243 = DIRECTION ( 'NONE',  ( -2.468850131082267316E-15, 0.7071067811865471286, -0.7071067811865479058 ) ) ;
#244 = ORIENTED_EDGE ( 'NONE', *, *, #58, .T. ) ;
#245 = CARTESIAN_POINT ( 'NONE',  ( 1.320759044541384474E-13, -2.225000000000006750, 57.50000000000000000 ) ) ;
#246 = ADVANCED_BREP_SHAPE_REPRESENTATION ( '54577', ( #92, #318, #3 ), #180 ) ;
#247 = LINE ( 'NONE', #38, #89 ) ;
#248 = CARTESIAN_POINT ( 'NONE',  ( 6.284666409917640040E-14, 2.224999999999992983, 18.00000000000000000 ) ) ;
#249 = DIRECTION ( 'NONE',  ( -3.462345967437738132E-31, -1.000000000000000000, -9.745637505487710580E-17 ) ) ;
#250 = EDGE_CURVE ( 'NONE', #335, #332, #65, .T. ) ;
#251 = VECTOR ( 'NONE', #218, 999.9999999999998863 ) ;
#252 = AXIS2_PLACEMENT_3D ( 'NONE', #122, #270, #67 ) ;
#253 = ORIENTED_EDGE ( 'NONE', *, *, #298, .T. ) ;
#254 = DIRECTION ( 'NONE',  ( -3.491481338843133355E-15, 1.224646799147353207E-16, -1.000000000000000000 ) ) ;
#255 = ORIENTED_EDGE ( 'NONE', *, *, #212, .F. ) ;
#256 = AXIS2_PLACEMENT_3D ( 'NONE', #293, #162, #79 ) ;
#257 = ORIENTED_EDGE ( 'NONE', *, *, #310, .F. ) ;
#258 = CC_DESIGN_PERSON_AND_ORGANIZATION_ASSIGNMENT ( #81, #78, ( #158 ) ) ;
#259 = PERSON_AND_ORGANIZATION ( #281, #204 ) ;
#260 = COORDINATED_UNIVERSAL_TIME_OFFSET ( 1, 0, .AHEAD. ) ;
#261 = AXIS2_PLACEMENT_3D ( 'NONE', #223, #86, #315 ) ;
#262 = DIRECTION ( 'NONE',  ( -3.491481338843133355E-15, 1.224646799147353207E-16, -1.000000000000000000 ) ) ;
#263 = PERSON_AND_ORGANIZATION ( #281, #204 ) ;
#264 = CARTESIAN_POINT ( 'NONE',  ( 0.0000000000000000000, 0.0000000000000000000, 0.0000000000000000000 ) ) ;
#265 = DIRECTION ( 'NONE',  ( -3.491481338843133355E-15, 1.224646799147353207E-16, -1.000000000000000000 ) ) ;
#266 = ORIENTED_EDGE ( 'NONE', *, *, #212, .T. ) ;
#267 = AXIS2_PLACEMENT_3D ( 'NONE', #144, #288, #191 ) ;
#268 = LOCAL_TIME ( 9, 51, 5.000000000000000000, #32 ) ;
#269 = FACE_OUTER_BOUND ( 'NONE', #313, .T. ) ;
#270 = DIRECTION ( 'NONE',  ( 3.491481338843133355E-15, -1.224646799147353207E-16, 1.000000000000000000 ) ) ;
#271 = CARTESIAN_POINT ( 'NONE',  ( 2.007601769834801742E-13, 2.224999999999992983, 57.50000000000000000 ) ) ;
#272 = CIRCLE ( 'NONE', #113, 2.224999999999992983 ) ;
#273 = FACE_OUTER_BOUND ( 'NONE', #286, .T. ) ;
#274 = ADVANCED_FACE ( 'NONE', ( #45 ), #128, .T. ) ;
#275 = CYLINDRICAL_SURFACE ( 'NONE', #16, 2.224999999999997868 ) ;
#276 = VECTOR ( 'NONE', #42, 1000.000000000000000 ) ;
#277 = EDGE_LOOP ( 'NONE', ( #182, #134 ) ) ;
#278 = ORIENTED_EDGE ( 'NONE', *, *, #189, .F. ) ;
#279 = CARTESIAN_POINT ( 'NONE',  ( 3.402972263531924078E-14, -2.224999999999997424, 18.00000000000000000 ) ) ;
#280 = ORIENTED_EDGE ( 'NONE', *, *, #70, .F. ) ;
#281 = PERSON ( 'UNSPECIFIED', 'UNSPECIFIED', 'UNSPECIFIED', ('UNSPECIFIED'), ('UNSPECIFIED'), ('UNSPECIFIED') ) ;
#282 = MECHANICAL_CONTEXT ( 'NONE', #94, 'mechanical' ) ;
#283 = ORIENTED_EDGE ( 'NONE', *, *, #336, .F. ) ;
#284 = UNCERTAINTY_MEASURE_WITH_UNIT (LENGTH_MEASURE( 1.000000000000000082E-05 ), #41, 'distance_accuracy_value', 'NONE');
#285 = PERSON_AND_ORGANIZATION ( #281, #204 ) ;
#286 = EDGE_LOOP ( 'NONE', ( #154, #71 ) ) ;
#287 = APPROVAL_STATUS ( 'not_yet_approved' ) ;
#288 = DIRECTION ( 'NONE',  ( -3.491481338843133355E-15, 1.224646799147353207E-16, -1.000000000000000000 ) ) ;
#289 = CC_DESIGN_PERSON_AND_ORGANIZATION_ASSIGNMENT ( #285, #28, ( #9 ) ) ;
#290 = CIRCLE ( 'NONE', #256, 2.225000000000000089 ) ;
#291 = CARTESIAN_POINT ( 'NONE',  ( 2.007601769834801742E-13, -7.041719095097280485E-15, 57.50000000000000000 ) ) ;
#292 = APPROVAL_ROLE ( '' ) ;
#293 = CARTESIAN_POINT ( 'NONE',  ( 2.007601769834801742E-13, -7.041719095097280485E-15, 57.50000000000000000 ) ) ;
#294 = DIRECTION ( 'NONE',  ( -3.491481338843133355E-15, 1.224646799147353207E-16, -1.000000000000000000 ) ) ;
#295 = DIRECTION ( 'NONE',  ( 0.0000000000000000000, 1.000000000000000000, 0.0000000000000000000 ) ) ;
#296 = DIRECTION ( 'NONE',  ( -4.275831445896958607E-31, -1.000000000000000000, -1.224646799147353207E-16 ) ) ;
#297 = CARTESIAN_POINT ( 'NONE',  ( 0.0000000000000000000, 0.0000000000000000000, 0.0000000000000000000 ) ) ;
#298 = EDGE_CURVE ( 'NONE', #46, #210, #177, .T. ) ;
#299 = CARTESIAN_POINT ( 'NONE',  ( 6.284666409917640040E-14, -2.204364238465235428E-15, 18.00000000000000000 ) ) ;
#300 = AXIS2_PLACEMENT_3D ( 'NONE', #18, #63, #296 ) ;
#301 = DIRECTION ( 'NONE',  ( -3.491481338843133355E-15, 1.224646799147353207E-16, -1.000000000000000000 ) ) ;
#302 = ADVANCED_FACE ( 'NONE', ( #155 ), #326, .T. ) ;
#303 = VERTEX_POINT ( 'NONE', #271 ) ;
#304 = CIRCLE ( 'NONE', #123, 2.224999999999995204 ) ;
#305 = LOCAL_TIME ( 9, 51, 5.000000000000000000, #2 ) ;
#306 = ORIENTED_EDGE ( 'NONE', *, *, #70, .T. ) ;
#307 = DIRECTION ( 'NONE',  ( -3.491481338843133355E-15, 1.224646799147353207E-16, -1.000000000000000000 ) ) ;
#308 = ORIENTED_EDGE ( 'NONE', *, *, #310, .T. ) ;
#309 = CALENDAR_DATE ( 2021, 3, 9 ) ;
#310 = EDGE_CURVE ( 'NONE', #332, #22, #127, .T. ) ;
#311 = ORIENTED_EDGE ( 'NONE', *, *, #152, .T. ) ;
#312 = AXIS2_PLACEMENT_3D ( 'NONE', #165, #87, #82 ) ;
#313 = EDGE_LOOP ( 'NONE', ( #257, #208, #214, #280 ) ) ;
#314 = DIRECTION ( 'NONE',  ( 0.0000000000000000000, 0.0000000000000000000, 1.000000000000000000 ) ) ;
#315 = DIRECTION ( 'NONE',  ( 4.275831445896957731E-31, 1.000000000000000000, 1.224646799147353207E-16 ) ) ;
#316 = CC_DESIGN_PERSON_AND_ORGANIZATION_ASSIGNMENT ( #6, #337, ( #158 ) ) ;
#317 = DATE_TIME_ROLE ( 'creation_date' ) ;
#318 = MANIFOLD_SOLID_BREP ( 'Corps-Déplacer/Copier1[2]', #143 ) ;
#319 = LINE ( 'NONE', #62, #186 ) ;
#320 = CALENDAR_DATE ( 2021, 3, 9 ) ;
#321 = CIRCLE ( 'NONE', #267, 2.224999999999992983 ) ;
#322 = CC_DESIGN_APPROVAL ( #226, ( #158 ) ) ;
#323 = CARTESIAN_POINT ( 'NONE',  ( 4.940297258651846900E-15, 2.224999999999992983, 1.336914877336332408 ) ) ;
#324 = CYLINDRICAL_SURFACE ( 'NONE', #231, 2.224999999999994316 ) ;
#325 = DIRECTION ( 'NONE',  ( -3.491481338843133355E-15, 1.224646799147353207E-16, -1.000000000000000000 ) ) ;
#326 = PLANE ( 'NONE',  #300 ) ;
#327 = CARTESIAN_POINT ( 'NONE',  ( 4.940297258651846900E-15, 2.224999999999992983, 1.336914877336332408 ) ) ;
#328 = ADVANCED_FACE ( 'NONE', ( #207 ), #334, .T. ) ;
#329 =( NAMED_UNIT ( * ) PLANE_ANGLE_UNIT ( ) SI_UNIT ( $, .RADIAN. ) );
#330 = CARTESIAN_POINT ( 'NONE',  ( 6.284666409917640040E-14, 1.668482758211309610E-32, 18.00000000000000000 ) ) ;
#331 = LOCAL_TIME ( 9, 51, 5.000000000000000000, #260 ) ;
#332 = VERTEX_POINT ( 'NONE', #279 ) ;
#333 = CARTESIAN_POINT ( 'NONE',  ( 2.724839128102844622E-16, -2.224999999999994316, -2.724839128102863357E-16 ) ) ;
#334 = CONICAL_SURFACE ( 'NONE', #252, 2.224999999999992983, 1.029744258676649649 ) ;
#335 = VERTEX_POINT ( 'NONE', #248 ) ;
#336 = EDGE_CURVE ( 'NONE', #74, #44, #72, .T. ) ;
#337 = PERSON_AND_ORGANIZATION_ROLE ( 'design_supplier' ) ;
ENDSEC;
END-ISO-10303-21;
