ISO-10303-21;
HEADER;
FILE_DESCRIPTION (( 'STEP AP203' ),
    '1' );
FILE_NAME ('54576.step',
    '2021-09-03T07:51:02',
    ( '' ),
    ( '' ),
    'SwSTEP 2.0',
    'SolidWorks 2019',
    '' );
FILE_SCHEMA (( 'CONFIG_CONTROL_DESIGN' ));
ENDSEC;

DATA;
#1 = DIRECTION ( 'NONE',  ( -3.491481338843133355E-15, 1.224646799147353207E-16, -1.000000000000000000 ) ) ;
#2 = DIRECTION ( 'NONE',  ( 0.0000000000000000000, 1.000000000000000000, 0.0000000000000000000 ) ) ;
#3 = LINE ( 'NONE', #270, #59 ) ;
#4 = CONICAL_SURFACE ( 'NONE', #291, 1.700000000000000400, 0.7853981633974476129 ) ;
#5 = AXIS2_PLACEMENT_3D ( 'NONE', #249, #8, #253 ) ;
#6 = CARTESIAN_POINT ( 'NONE',  ( 6.284666409917640040E-14, 2.199999999999993072, 18.00000000000000000 ) ) ;
#7 = DIRECTION ( 'NONE',  ( -3.491481338843133355E-15, 1.224646799147353207E-16, -1.000000000000000000 ) ) ;
#8 = DIRECTION ( 'NONE',  ( 0.0000000000000000000, 0.0000000000000000000, 1.000000000000000000 ) ) ;
#9 = DIRECTION ( 'NONE',  ( 3.491481338843133355E-15, -1.224646799147353207E-16, 1.000000000000000000 ) ) ;
#10 = PERSON_AND_ORGANIZATION_ROLE ( 'creator' ) ;
#11 = EDGE_LOOP ( 'NONE', ( #163, #224, #94, #220 ) ) ;
#12 = VERTEX_POINT ( 'NONE', #198 ) ;
#13 = CALENDAR_DATE ( 2021, 3, 9 ) ;
#14 = AXIS2_PLACEMENT_3D ( 'NONE', #80, #28, #47 ) ;
#15 = DIRECTION ( 'NONE',  ( 4.275831445896958607E-31, 1.000000000000000000, 1.224646799147353207E-16 ) ) ;
#16 = SECURITY_CLASSIFICATION ( '', '', #328 ) ;
#17 = APPROVAL_STATUS ( 'not_yet_approved' ) ;
#18 = EDGE_LOOP ( 'NONE', ( #72, #205, #88, #256 ) ) ;
#19 = CC_DESIGN_PERSON_AND_ORGANIZATION_ASSIGNMENT ( #87, #95, ( #155 ) ) ;
#20 = DATE_AND_TIME ( #37, #330 ) ;
#21 = EDGE_LOOP ( 'NONE', ( #301, #43 ) ) ;
#22 = DIRECTION ( 'NONE',  ( -3.491481338843133355E-15, 1.224646799147353207E-16, -1.000000000000000000 ) ) ;
#23 = AXIS2_PLACEMENT_3D ( 'NONE', #152, #309, #54 ) ;
#24 = ADVANCED_FACE ( 'NONE', ( #148 ), #66, .T. ) ;
#25 = FACE_OUTER_BOUND ( 'NONE', #176, .T. ) ;
#26 = DIRECTION ( 'NONE',  ( -3.491481338843133355E-15, 1.224646799147353207E-16, -1.000000000000000000 ) ) ;
#27 = VECTOR ( 'NONE', #247, 1000.000000000000000 ) ;
#28 = DIRECTION ( 'NONE',  ( -3.491481338843133355E-15, 1.224646799147353207E-16, -1.000000000000000000 ) ) ;
#29 = DIRECTION ( 'NONE',  ( -3.491481338843133355E-15, 1.224646799147353207E-16, -1.000000000000000000 ) ) ;
#30 = CARTESIAN_POINT ( 'NONE',  ( 2.018718534440247018E-13, -1.700000000000007505, 58.00000000000000000 ) ) ;
#31 = AXIS2_PLACEMENT_3D ( 'NONE', #182, #236, #262 ) ;
#32 = ADVANCED_FACE ( 'NONE', ( #122 ), #229, .T. ) ;
#33 = DIRECTION ( 'NONE',  ( 0.0000000000000000000, 1.000000000000000000, 0.0000000000000000000 ) ) ;
#34 = DIRECTION ( 'NONE',  ( 1.798245827342160317E-15, -0.8571673007021098911, 0.5150380749100582634 ) ) ;
#35 = DIRECTION ( 'NONE',  ( -2.382254525458718258E-15, -0.7071067811865469066, -0.7071067811865482389 ) ) ;
#36 = ADVANCED_FACE ( 'NONE', ( #306 ), #264, .T. ) ;
#37 = CALENDAR_DATE ( 2021, 3, 9 ) ;
#38 = ORIENTED_EDGE ( 'NONE', *, *, #56, .T. ) ;
#39 = DATE_AND_TIME ( #146, #100 ) ;
#40 = ORIENTED_EDGE ( 'NONE', *, *, #52, .T. ) ;
#41 = APPROVAL_ROLE ( '' ) ;
#42 = AXIS2_PLACEMENT_3D ( 'NONE', #332, #22, #102 ) ;
#43 = ORIENTED_EDGE ( 'NONE', *, *, #138, .T. ) ;
#44 = PERSON_AND_ORGANIZATION ( #169, #287 ) ;
#45 = VERTEX_POINT ( 'NONE', #284 ) ;
#46 = ORIENTED_EDGE ( 'NONE', *, *, #275, .F. ) ;
#47 = DIRECTION ( 'NONE',  ( 4.275831445896958607E-31, 1.000000000000000000, 1.224646799147353207E-16 ) ) ;
#48 = VECTOR ( 'NONE', #189, 1000.000000000000000 ) ;
#49 = CIRCLE ( 'NONE', #221, 2.199999999999995293 ) ;
#50 = FACE_OUTER_BOUND ( 'NONE', #226, .T. ) ;
#51 = DIRECTION ( 'NONE',  ( -3.491481338843133355E-15, 1.224646799147353207E-16, -1.000000000000000000 ) ) ;
#52 = EDGE_CURVE ( 'NONE', #276, #322, #184, .T. ) ;
#53 = DIRECTION ( 'NONE',  ( 3.491481338843133355E-15, -1.224646799147353207E-16, 1.000000000000000000 ) ) ;
#54 = DIRECTION ( 'NONE',  ( -3.501690807976803527E-31, -1.000000000000000000, -9.856383386231889642E-17 ) ) ;
#55 = LINE ( 'NONE', #271, #127 ) ;
#56 = EDGE_CURVE ( 'NONE', #64, #196, #336, .T. ) ;
#57 = CARTESIAN_POINT ( 'NONE',  ( 2.694222958124161229E-16, -2.199999999999994404, -2.694222958124179472E-16 ) ) ;
#58 = AXIS2_PLACEMENT_3D ( 'NONE', #78, #75, #265 ) ;
#59 = VECTOR ( 'NONE', #113, 1000.000000000000000 ) ;
#60 = PLANE ( 'NONE',  #266 ) ;
#61 = CARTESIAN_POINT ( 'NONE',  ( 9.406829180973300527E-31, 2.199999999999997957, 2.694222958124174541E-16 ) ) ;
#62 = APPROVAL_ROLE ( '' ) ;
#63 = CALENDAR_DATE ( 2021, 3, 9 ) ;
#64 = VERTEX_POINT ( 'NONE', #242 ) ;
#65 = APPROVAL_DATE_TIME ( #67, #134 ) ;
#66 = CYLINDRICAL_SURFACE ( 'NONE', #120, 2.199999999999997957 ) ;
#67 = DATE_AND_TIME ( #63, #209 ) ;
#68 = ORIENTED_EDGE ( 'NONE', *, *, #178, .T. ) ;
#69 = COORDINATED_UNIVERSAL_TIME_OFFSET ( 1, 0, .AHEAD. ) ;
#70 = VERTEX_POINT ( 'NONE', #154 ) ;
#71 = CC_DESIGN_APPROVAL ( #156, ( #337 ) ) ;
#72 = ORIENTED_EDGE ( 'NONE', *, *, #234, .F. ) ;
#73 = DIRECTION ( 'NONE',  ( -3.501690807976803527E-31, -1.000000000000000000, -9.856383386231889642E-17 ) ) ;
#74 = PRODUCT_RELATED_PRODUCT_CATEGORY ( 'detail', '', ( #155 ) ) ;
#75 = DIRECTION ( 'NONE',  ( -3.491481338843133355E-15, 1.224646799147353207E-16, -1.000000000000000000 ) ) ;
#76 = CLOSED_SHELL ( 'NONE', ( #92, #79, #97, #32, #153 ) ) ;
#77 = VECTOR ( 'NONE', #245, 999.9999999999998863 ) ;
#78 = CARTESIAN_POINT ( 'NONE',  ( 2.025059176529017346E-13, -7.102951435054648059E-15, 58.00000000000000000 ) ) ;
#79 = ADVANCED_FACE ( 'NONE', ( #210 ), #227, .T. ) ;
#80 = CARTESIAN_POINT ( 'NONE',  ( 2.025059176529017346E-13, 1.274795815262568293E-32, 58.00000000000000000 ) ) ;
#81 = CARTESIAN_POINT ( 'NONE',  ( 2.694222958124165667E-16, -2.199999999999997957, -2.694222958124183909E-16 ) ) ;
#82 = CIRCLE ( 'NONE', #86, 2.199999999999993072 ) ;
#83 = CARTESIAN_POINT ( 'NONE',  ( 2.027141076087567919E-13, -1.700000000000007505, 58.00000000000000000 ) ) ;
#84 = AXIS2_PLACEMENT_3D ( 'NONE', #161, #7, #112 ) ;
#85 = AXIS2_PLACEMENT_3D ( 'NONE', #207, #26, #334 ) ;
#86 = AXIS2_PLACEMENT_3D ( 'NONE', #167, #137, #115 ) ;
#87 = PERSON_AND_ORGANIZATION ( #169, #287 ) ;
#88 = ORIENTED_EDGE ( 'NONE', *, *, #275, .T. ) ;
#89 = CIRCLE ( 'NONE', #103, 1.700000000000000400 ) ;
#90 = AXIS2_PLACEMENT_3D ( 'NONE', #126, #235, #73 ) ;
#91 = EDGE_LOOP ( 'NONE', ( #280, #303 ) ) ;
#92 = ADVANCED_FACE ( 'NONE', ( #335 ), #133, .T. ) ;
#93 = DATE_AND_TIME ( #13, #217 ) ;
#94 = ORIENTED_EDGE ( 'NONE', *, *, #317, .F. ) ;
#95 = PERSON_AND_ORGANIZATION_ROLE ( 'design_owner' ) ;
#96 = ORIENTED_EDGE ( 'NONE', *, *, #188, .T. ) ;
#97 = ADVANCED_FACE ( 'NONE', ( #50 ), #215, .T. ) ;
#98 = PERSON_AND_ORGANIZATION ( #169, #287 ) ;
#99 = ORIENTED_EDGE ( 'NONE', *, *, #263, .F. ) ;
#100 = LOCAL_TIME ( 9, 51, 2.000000000000000000, #277 ) ;
#101 = CARTESIAN_POINT ( 'NONE',  ( 0.0000000000000000000, 0.0000000000000000000, 0.0000000000000000000 ) ) ;
#102 = DIRECTION ( 'NONE',  ( 4.275831445896958607E-31, 1.000000000000000000, 1.224646799147353207E-16 ) ) ;
#103 = AXIS2_PLACEMENT_3D ( 'NONE', #289, #292, #139 ) ;
#104 = PRODUCT_DEFINITION_SHAPE ( 'NONE', 'NONE',  #327 ) ;
#105 = DIRECTION ( 'NONE',  ( -4.275831445896958607E-31, -1.000000000000000000, -1.224646799147353207E-16 ) ) ;
#106 = APPROVAL_PERSON_ORGANIZATION ( #44, #156, #41 ) ;
#107 = CARTESIAN_POINT ( 'NONE',  ( 6.284666409917640040E-14, -2.204364238465235428E-15, 18.00000000000000000 ) ) ;
#108 = CC_DESIGN_DATE_AND_TIME_ASSIGNMENT ( #93, #204, ( #16 ) ) ;
#109 = DIRECTION ( 'NONE',  ( -3.491481338843133355E-15, 1.224646799147353207E-16, -1.000000000000000000 ) ) ;
#110 = LINE ( 'NONE', #135, #77 ) ;
#111 = CIRCLE ( 'NONE', #197, 2.199999999999993072 ) ;
#112 = DIRECTION ( 'NONE',  ( 0.0000000000000000000, 1.000000000000000000, 0.0000000000000000000 ) ) ;
#113 = DIRECTION ( 'NONE',  ( -2.468850131082267316E-15, 0.7071067811865471286, -0.7071067811865479058 ) ) ;
#114 = LINE ( 'NONE', #83, #248 ) ;
#115 = DIRECTION ( 'NONE',  ( 3.501690807976803527E-31, 1.000000000000000000, 9.856383386231889642E-17 ) ) ;
#116 = PERSON_AND_ORGANIZATION_ROLE ( 'classification_officer' ) ;
#117 = EDGE_LOOP ( 'NONE', ( #278, #281, #231, #203 ) ) ;
#118 = EDGE_CURVE ( 'NONE', #322, #276, #145, .T. ) ;
#119 = ORIENTED_EDGE ( 'NONE', *, *, #234, .T. ) ;
#120 = AXIS2_PLACEMENT_3D ( 'NONE', #144, #254, #15 ) ;
#121 = PERSON_AND_ORGANIZATION ( #169, #287 ) ;
#122 = FACE_OUTER_BOUND ( 'NONE', #142, .T. ) ;
#123 = ORIENTED_EDGE ( 'NONE', *, *, #312, .T. ) ;
#124 = PERSON_AND_ORGANIZATION_ROLE ( 'creator' ) ;
#125 = ORIENTED_EDGE ( 'NONE', *, *, #138, .F. ) ;
#126 = CARTESIAN_POINT ( 'NONE',  ( 4.615366004877048754E-15, -1.618852474416770446E-16, 1.321893361860643212 ) ) ;
#127 = VECTOR ( 'NONE', #136, 1000.000000000000000 ) ;
#128 = DIRECTION ( 'NONE',  ( 4.275831445896958607E-31, 1.000000000000000000, 1.224646799147353207E-16 ) ) ;
#129 = DIRECTION ( 'NONE',  ( -3.491481338843133355E-15, 1.224646799147353207E-16, -1.000000000000000000 ) ) ;
#130 = DIRECTION ( 'NONE',  ( 0.0000000000000000000, 1.000000000000000000, 0.0000000000000000000 ) ) ;
#131 = CONICAL_SURFACE ( 'NONE', #58, 1.700000000000000400, 0.7853981633974476129 ) ;
#132 = VECTOR ( 'NONE', #34, 1000.000000000000000 ) ;
#133 = CYLINDRICAL_SURFACE ( 'NONE', #165, 2.199999999999994404 ) ;
#134 = APPROVAL ( #232, 'UNSPECIFIED' ) ;
#135 = CARTESIAN_POINT ( 'NONE',  ( 4.884788300689467342E-15, 2.199999999999993072, 1.321893361860643434 ) ) ;
#136 = DIRECTION ( 'NONE',  ( -3.491481338843133355E-15, 1.224646799147353207E-16, -1.000000000000000000 ) ) ;
#137 = DIRECTION ( 'NONE',  ( -3.491481338843133355E-15, 1.224646799147353207E-16, -1.000000000000000000 ) ) ;
#138 = EDGE_CURVE ( 'NONE', #12, #70, #308, .T. ) ;
#139 = DIRECTION ( 'NONE',  ( 0.0000000000000000000, 1.000000000000000000, 0.0000000000000000000 ) ) ;
#140 = ADVANCED_FACE ( 'NONE', ( #282 ), #286, .F. ) ;
#141 = PERSON_AND_ORGANIZATION_ROLE ( 'design_supplier' ) ;
#142 = EDGE_LOOP ( 'NONE', ( #99, #40, #123, #149 ) ) ;
#143 = APPROVAL_DATE_TIME ( #20, #156 ) ;
#144 = CARTESIAN_POINT ( 'NONE',  ( 0.0000000000000000000, 0.0000000000000000000, 0.0000000000000000000 ) ) ;
#145 = CIRCLE ( 'NONE', #31, 2.199999999999995293 ) ;
#146 = CALENDAR_DATE ( 2021, 3, 9 ) ;
#147 = ORIENTED_EDGE ( 'NONE', *, *, #219, .F. ) ;
#148 = FACE_OUTER_BOUND ( 'NONE', #200, .T. ) ;
#149 = ORIENTED_EDGE ( 'NONE', *, *, #333, .F. ) ;
#150 = AXIS2_PLACEMENT_3D ( 'NONE', #185, #283, #130 ) ;
#151 = CC_DESIGN_SECURITY_CLASSIFICATION ( #16, ( #337 ) ) ;
#152 = CARTESIAN_POINT ( 'NONE',  ( 4.615366004877048754E-15, -1.618852474416770446E-16, 1.321893361860643212 ) ) ;
#153 = ADVANCED_FACE ( 'NONE', ( #25 ), #288, .T. ) ;
#154 = CARTESIAN_POINT ( 'NONE',  ( 6.284666409917640040E-14, 2.199999999999993072, 18.00000000000000000 ) ) ;
#155 = PRODUCT ( '54576', '54576', '', ( #324 ) ) ;
#156 = APPROVAL ( #17, 'UNSPECIFIED' ) ;
#157 = FACE_OUTER_BOUND ( 'NONE', #297, .T. ) ;
#158 = DIRECTION ( 'NONE',  ( 0.0000000000000000000, 1.000000000000000000, 0.0000000000000000000 ) ) ;
#159 = LOCAL_TIME ( 9, 51, 2.000000000000000000, #69 ) ;
#160 = CIRCLE ( 'NONE', #84, 2.200000000000000178 ) ;
#161 = CARTESIAN_POINT ( 'NONE',  ( 2.007601769834801742E-13, -7.041719095097280485E-15, 57.50000000000000000 ) ) ;
#162 = CARTESIAN_POINT ( 'NONE',  ( 4.884788300689467342E-15, 2.199999999999993072, 1.321893361860643434 ) ) ;
#163 = ORIENTED_EDGE ( 'NONE', *, *, #267, .T. ) ;
#164 = FACE_OUTER_BOUND ( 'NONE', #21, .T. ) ;
#165 = AXIS2_PLACEMENT_3D ( 'NONE', #259, #206, #128 ) ;
#166 = ADVANCED_FACE ( 'NONE', ( #307 ), #131, .T. ) ;
#167 = CARTESIAN_POINT ( 'NONE',  ( 4.615366004877048754E-15, -1.618852474416770446E-16, 1.321893361860643212 ) ) ;
#168 = LINE ( 'NONE', #61, #27 ) ;
#169 = PERSON ( 'UNSPECIFIED', 'UNSPECIFIED', 'UNSPECIFIED', ('UNSPECIFIED'), ('UNSPECIFIED'), ('UNSPECIFIED') ) ;
#170 = PERSON_AND_ORGANIZATION ( #169, #287 ) ;
#171 = AXIS2_PLACEMENT_3D ( 'NONE', #101, #109, #261 ) ;
#172 = CC_DESIGN_APPROVAL ( #134, ( #327 ) ) ;
#173 = EDGE_LOOP ( 'NONE', ( #325, #305, #96 ) ) ;
#174 = ORIENTED_EDGE ( 'NONE', *, *, #118, .F. ) ;
#175 = DATE_AND_TIME ( #321, #159 ) ;
#176 = EDGE_LOOP ( 'NONE', ( #174, #274 ) ) ;
#177 = SHAPE_DEFINITION_REPRESENTATION ( #104, #304 ) ;
#178 = EDGE_CURVE ( 'NONE', #252, #45, #260, .T. ) ;
#179 = APPROVAL_PERSON_ORGANIZATION ( #121, #246, #62 ) ;
#180 = ORIENTED_EDGE ( 'NONE', *, *, #333, .T. ) ;
#181 = VERTEX_POINT ( 'NONE', #213 ) ;
#182 = CARTESIAN_POINT ( 'NONE',  ( 6.284666409917640040E-14, -2.204364238465235428E-15, 18.00000000000000000 ) ) ;
#183 = ADVANCED_FACE ( 'NONE', ( #157 ), #4, .T. ) ;
#184 = CIRCLE ( 'NONE', #150, 2.199999999999995293 ) ;
#185 = CARTESIAN_POINT ( 'NONE',  ( 6.284666409917640040E-14, -2.204364238465235428E-15, 18.00000000000000000 ) ) ;
#186 = CARTESIAN_POINT ( 'NONE',  ( 2.007601769834801742E-13, -7.041719095097280485E-15, 57.50000000000000000 ) ) ;
#187 = DIRECTION ( 'NONE',  ( 3.501690807976803527E-31, 1.000000000000000000, 9.856383386231889642E-17 ) ) ;
#188 = EDGE_CURVE ( 'NONE', #326, #181, #111, .T. ) ;
#189 = DIRECTION ( 'NONE',  ( -3.491481338843133355E-15, 1.224646799147353207E-16, -1.000000000000000000 ) ) ;
#190 = DIRECTION ( 'NONE',  ( -4.275831445896958607E-31, -1.000000000000000000, -1.224646799147353207E-16 ) ) ;
#191 = CLOSED_SHELL ( 'NONE', ( #183, #36, #230, #24, #166, #140 ) ) ;
#192 = CARTESIAN_POINT ( 'NONE',  ( 6.284666409917640040E-14, -2.204364238465235428E-15, 18.00000000000000000 ) ) ;
#193 =( NAMED_UNIT ( * ) SI_UNIT ( $, .STERADIAN. ) SOLID_ANGLE_UNIT ( ) );
#194 = EDGE_CURVE ( 'NONE', #252, #12, #313, .T. ) ;
#195 = PERSON_AND_ORGANIZATION ( #169, #287 ) ;
#196 = VERTEX_POINT ( 'NONE', #30 ) ;
#197 = AXIS2_PLACEMENT_3D ( 'NONE', #310, #29, #187 ) ;
#198 = CARTESIAN_POINT ( 'NONE',  ( 1.320728428371406996E-13, -2.199999999999997513, 18.00000000000000000 ) ) ;
#199 = PERSON_AND_ORGANIZATION ( #169, #287 ) ;
#200 = EDGE_LOOP ( 'NONE', ( #323, #68, #233, #125 ) ) ;
#201 = DATE_TIME_ROLE ( 'creation_date' ) ;
#202 = APPLICATION_CONTEXT ( 'configuration controlled 3d designs of mechanical parts and assemblies' ) ;
#203 = ORIENTED_EDGE ( 'NONE', *, *, #312, .F. ) ;
#204 = DATE_TIME_ROLE ( 'classification_date' ) ;
#205 = ORIENTED_EDGE ( 'NONE', *, *, #250, .T. ) ;
#206 = DIRECTION ( 'NONE',  ( -3.491481338843133355E-15, 1.224646799147353207E-16, -1.000000000000000000 ) ) ;
#207 = CARTESIAN_POINT ( 'NONE',  ( 2.025059176529017346E-13, -7.102951435054648059E-15, 58.00000000000000000 ) ) ;
#208 = AXIS2_PLACEMENT_3D ( 'NONE', #237, #53, #105 ) ;
#209 = LOCAL_TIME ( 9, 51, 2.000000000000000000, #257 ) ;
#210 = FACE_OUTER_BOUND ( 'NONE', #173, .T. ) ;
#211 = DIRECTION ( 'NONE',  ( 0.0000000000000000000, 1.000000000000000000, 0.0000000000000000000 ) ) ;
#212 = MANIFOLD_SOLID_BREP ( 'Corps-Déplacer/Copier1[1]', #191 ) ;
#213 = CARTESIAN_POINT ( 'NONE',  ( 4.615366004877047965E-15, -2.199999999999993072, 1.321893361860642990 ) ) ;
#214 = CC_DESIGN_PERSON_AND_ORGANIZATION_ASSIGNMENT ( #223, #141, ( #337 ) ) ;
#215 = CONICAL_SURFACE ( 'NONE', #90, 2.199999999999993072, 1.029744258676649649 ) ;
#216 = LINE ( 'NONE', #318, #132 ) ;
#217 = LOCAL_TIME ( 9, 51, 2.000000000000000000, #279 ) ;
#218 = DIRECTION ( 'NONE',  ( -3.491481338843133355E-15, 1.224646799147353207E-16, -1.000000000000000000 ) ) ;
#219 = EDGE_CURVE ( 'NONE', #258, #326, #110, .T. ) ;
#220 = ORIENTED_EDGE ( 'NONE', *, *, #240, .F. ) ;
#221 = AXIS2_PLACEMENT_3D ( 'NONE', #192, #218, #33 ) ;
#222 = CARTESIAN_POINT ( 'NONE',  ( 6.284666409917640040E-14, 1.649735760928036800E-32, 18.00000000000000000 ) ) ;
#223 = PERSON_AND_ORGANIZATION ( #169, #287 ) ;
#224 = ORIENTED_EDGE ( 'NONE', *, *, #194, .T. ) ;
#225 = APPLICATION_PROTOCOL_DEFINITION ( 'international standard', 'config_control_design', 1994, #202 ) ;
#226 = EDGE_LOOP ( 'NONE', ( #147, #299, #180 ) ) ;
#227 = CONICAL_SURFACE ( 'NONE', #23, 2.199999999999993072, 1.029744258676649649 ) ;
#228 = COORDINATED_UNIVERSAL_TIME_OFFSET ( 1, 0, .AHEAD. ) ;
#229 = CYLINDRICAL_SURFACE ( 'NONE', #171, 2.199999999999994404 ) ;
#230 = ADVANCED_FACE ( 'NONE', ( #164 ), #60, .F. ) ;
#231 = ORIENTED_EDGE ( 'NONE', *, *, #188, .F. ) ;
#232 = APPROVAL_STATUS ( 'not_yet_approved' ) ;
#233 = ORIENTED_EDGE ( 'NONE', *, *, #240, .T. ) ;
#234 = EDGE_CURVE ( 'NONE', #196, #252, #114, .T. ) ;
#235 = DIRECTION ( 'NONE',  ( 3.491481338843133355E-15, -1.224646799147353207E-16, 1.000000000000000000 ) ) ;
#236 = DIRECTION ( 'NONE',  ( -3.491481338843133355E-15, 1.224646799147353207E-16, -1.000000000000000000 ) ) ;
#237 = CARTESIAN_POINT ( 'NONE',  ( 6.284666409917640040E-14, 1.649735760928036800E-32, 18.00000000000000000 ) ) ;
#238 = APPROVAL_PERSON_ORGANIZATION ( #98, #134, #251 ) ;
#239 = CARTESIAN_POINT ( 'NONE',  ( 2.025059176529017346E-13, -7.102951435054648059E-15, 58.00000000000000000 ) ) ;
#240 = EDGE_CURVE ( 'NONE', #45, #70, #168, .T. ) ;
#241 = APPLICATION_CONTEXT ( 'configuration controlled 3d designs of mechanical parts and assemblies' ) ;
#242 = CARTESIAN_POINT ( 'NONE',  ( 2.025059176529017346E-13, 1.699999999999993072, 58.00000000000000000 ) ) ;
#243 = CARTESIAN_POINT ( 'NONE',  ( 3.400043734783911319E-14, -2.199999999999997513, 18.00000000000000000 ) ) ;
#244 = AXIS2_PLACEMENT_3D ( 'NONE', #107, #129, #158 ) ;
#245 = DIRECTION ( 'NONE',  ( 1.903218546456022717E-15, 0.8571673007021097801, 0.5150380749100585964 ) ) ;
#246 = APPROVAL ( #300, 'UNSPECIFIED' ) ;
#247 = DIRECTION ( 'NONE',  ( -3.491481338843133355E-15, 1.224646799147353207E-16, -1.000000000000000000 ) ) ;
#248 = VECTOR ( 'NONE', #35, 999.9999999999998863 ) ;
#249 = CARTESIAN_POINT ( 'NONE',  ( 0.0000000000000000000, 0.0000000000000000000, 0.0000000000000000000 ) ) ;
#250 = EDGE_CURVE ( 'NONE', #196, #64, #89, .T. ) ;
#251 = APPROVAL_ROLE ( '' ) ;
#252 = VERTEX_POINT ( 'NONE', #295 ) ;
#253 = DIRECTION ( 'NONE',  ( 1.000000000000000000, 0.0000000000000000000, 0.0000000000000000000 ) ) ;
#254 = DIRECTION ( 'NONE',  ( -3.491481338843133355E-15, 1.224646799147353207E-16, -1.000000000000000000 ) ) ;
#255 = AXIS2_PLACEMENT_3D ( 'NONE', #186, #51, #2 ) ;
#256 = ORIENTED_EDGE ( 'NONE', *, *, #178, .F. ) ;
#257 = COORDINATED_UNIVERSAL_TIME_OFFSET ( 1, 0, .AHEAD. ) ;
#258 = VERTEX_POINT ( 'NONE', #315 ) ;
#259 = CARTESIAN_POINT ( 'NONE',  ( 0.0000000000000000000, 0.0000000000000000000, 0.0000000000000000000 ) ) ;
#260 = CIRCLE ( 'NONE', #255, 2.200000000000000178 ) ;
#261 = DIRECTION ( 'NONE',  ( 4.275831445896958607E-31, 1.000000000000000000, 1.224646799147353207E-16 ) ) ;
#262 = DIRECTION ( 'NONE',  ( 0.0000000000000000000, 1.000000000000000000, 0.0000000000000000000 ) ) ;
#263 = EDGE_CURVE ( 'NONE', #276, #181, #320, .T. ) ;
#264 = CYLINDRICAL_SURFACE ( 'NONE', #42, 2.199999999999997957 ) ;
#265 = DIRECTION ( 'NONE',  ( 0.0000000000000000000, 1.000000000000000000, 0.0000000000000000000 ) ) ;
#266 = AXIS2_PLACEMENT_3D ( 'NONE', #222, #9, #190 ) ;
#267 = EDGE_CURVE ( 'NONE', #45, #252, #160, .T. ) ;
#268 =( NAMED_UNIT ( * ) PLANE_ANGLE_UNIT ( ) SI_UNIT ( $, .RADIAN. ) );
#269 = CC_DESIGN_PERSON_AND_ORGANIZATION_ASSIGNMENT ( #170, #124, ( #337 ) ) ;
#270 = CARTESIAN_POINT ( 'NONE',  ( 2.025059176529017346E-13, 1.699999999999993072, 58.00000000000000000 ) ) ;
#271 = CARTESIAN_POINT ( 'NONE',  ( 9.406829180973284762E-31, 2.199999999999994404, 2.694222958124170104E-16 ) ) ;
#272 = CC_DESIGN_PERSON_AND_ORGANIZATION_ASSIGNMENT ( #199, #10, ( #327 ) ) ;
#273 = APPROVAL_DATE_TIME ( #39, #246 ) ;
#274 = ORIENTED_EDGE ( 'NONE', *, *, #52, .F. ) ;
#275 = EDGE_CURVE ( 'NONE', #64, #45, #3, .T. ) ;
#276 = VERTEX_POINT ( 'NONE', #243 ) ;
#277 = COORDINATED_UNIVERSAL_TIME_OFFSET ( 1, 0, .AHEAD. ) ;
#278 = ORIENTED_EDGE ( 'NONE', *, *, #118, .T. ) ;
#279 = COORDINATED_UNIVERSAL_TIME_OFFSET ( 1, 0, .AHEAD. ) ;
#280 = ORIENTED_EDGE ( 'NONE', *, *, #56, .F. ) ;
#281 = ORIENTED_EDGE ( 'NONE', *, *, #263, .T. ) ;
#282 = FACE_OUTER_BOUND ( 'NONE', #91, .T. ) ;
#283 = DIRECTION ( 'NONE',  ( -3.491481338843133355E-15, 1.224646799147353207E-16, -1.000000000000000000 ) ) ;
#284 = CARTESIAN_POINT ( 'NONE',  ( 2.007601769834801742E-13, 2.199999999999993072, 57.50000000000000000 ) ) ;
#285 = DESIGN_CONTEXT ( 'detailed design', #202, 'design' ) ;
#286 = PLANE ( 'NONE',  #14 ) ;
#287 = ORGANIZATION ( 'UNSPECIFIED', 'UNSPECIFIED', '' ) ;
#288 = PLANE ( 'NONE',  #208 ) ;
#289 = CARTESIAN_POINT ( 'NONE',  ( 2.025059176529017346E-13, -7.102951435054648059E-15, 58.00000000000000000 ) ) ;
#290 = APPLICATION_PROTOCOL_DEFINITION ( 'international standard', 'config_control_design', 1994, #241 ) ;
#291 = AXIS2_PLACEMENT_3D ( 'NONE', #239, #1, #211 ) ;
#292 = DIRECTION ( 'NONE',  ( -3.491481338843133355E-15, 1.224646799147353207E-16, -1.000000000000000000 ) ) ;
#293 = CC_DESIGN_APPROVAL ( #246, ( #16 ) ) ;
#294 = CC_DESIGN_DATE_AND_TIME_ASSIGNMENT ( #175, #201, ( #327 ) ) ;
#295 = CARTESIAN_POINT ( 'NONE',  ( 1.320728428371405734E-13, -2.200000000000007283, 57.50000000000000000 ) ) ;
#296 = DIRECTION ( 'NONE',  ( -3.491481338843133355E-15, 1.224646799147353207E-16, -1.000000000000000000 ) ) ;
#297 = EDGE_LOOP ( 'NONE', ( #38, #119, #329, #46 ) ) ;
#298 = EDGE_CURVE ( 'NONE', #258, #181, #216, .T. ) ;
#299 = ORIENTED_EDGE ( 'NONE', *, *, #298, .T. ) ;
#300 = APPROVAL_STATUS ( 'not_yet_approved' ) ;
#301 = ORIENTED_EDGE ( 'NONE', *, *, #317, .T. ) ;
#302 = VECTOR ( 'NONE', #296, 1000.000000000000000 ) ;
#303 = ORIENTED_EDGE ( 'NONE', *, *, #250, .F. ) ;
#304 = ADVANCED_BREP_SHAPE_REPRESENTATION ( '54576', ( #212, #314, #5 ), #319 ) ;
#305 = ORIENTED_EDGE ( 'NONE', *, *, #219, .T. ) ;
#306 = FACE_OUTER_BOUND ( 'NONE', #11, .T. ) ;
#307 = FACE_OUTER_BOUND ( 'NONE', #18, .T. ) ;
#308 = CIRCLE ( 'NONE', #244, 2.199999999999995293 ) ;
#309 = DIRECTION ( 'NONE',  ( 3.491481338843133355E-15, -1.224646799147353207E-16, 1.000000000000000000 ) ) ;
#310 = CARTESIAN_POINT ( 'NONE',  ( 4.615366004877048754E-15, -1.618852474416770446E-16, 1.321893361860643212 ) ) ;
#311 = UNCERTAINTY_MEASURE_WITH_UNIT (LENGTH_MEASURE( 1.000000000000000082E-05 ), #316, 'distance_accuracy_value', 'NONE');
#312 = EDGE_CURVE ( 'NONE', #322, #326, #55, .T. ) ;
#313 = LINE ( 'NONE', #81, #48 ) ;
#314 = MANIFOLD_SOLID_BREP ( 'Corps-Déplacer/Copier1[2]', #76 ) ;
#315 = CARTESIAN_POINT ( 'NONE',  ( 0.0000000000000000000, 0.0000000000000000000, 0.0000000000000000000 ) ) ;
#316 =( LENGTH_UNIT ( ) NAMED_UNIT ( * ) SI_UNIT ( .MILLI., .METRE. ) );
#317 = EDGE_CURVE ( 'NONE', #70, #12, #49, .T. ) ;
#318 = CARTESIAN_POINT ( 'NONE',  ( 4.615366004877047965E-15, -2.199999999999993072, 1.321893361860642990 ) ) ;
#319 =( GEOMETRIC_REPRESENTATION_CONTEXT ( 3 ) GLOBAL_UNCERTAINTY_ASSIGNED_CONTEXT ( ( #311 ) ) GLOBAL_UNIT_ASSIGNED_CONTEXT ( ( #316, #268, #193 ) ) REPRESENTATION_CONTEXT ( 'NONE', 'WORKASPACE' ) );
#320 = LINE ( 'NONE', #57, #302 ) ;
#321 = CALENDAR_DATE ( 2021, 3, 9 ) ;
#322 = VERTEX_POINT ( 'NONE', #6 ) ;
#323 = ORIENTED_EDGE ( 'NONE', *, *, #194, .F. ) ;
#324 = MECHANICAL_CONTEXT ( 'NONE', #241, 'mechanical' ) ;
#325 = ORIENTED_EDGE ( 'NONE', *, *, #298, .F. ) ;
#326 = VERTEX_POINT ( 'NONE', #162 ) ;
#327 = PRODUCT_DEFINITION ( 'UNKNOWN', '', #337, #285 ) ;
#328 = SECURITY_CLASSIFICATION_LEVEL ( 'unclassified' ) ;
#329 = ORIENTED_EDGE ( 'NONE', *, *, #267, .F. ) ;
#330 = LOCAL_TIME ( 9, 51, 2.000000000000000000, #228 ) ;
#331 = CC_DESIGN_PERSON_AND_ORGANIZATION_ASSIGNMENT ( #195, #116, ( #16 ) ) ;
#332 = CARTESIAN_POINT ( 'NONE',  ( 0.0000000000000000000, 0.0000000000000000000, 0.0000000000000000000 ) ) ;
#333 = EDGE_CURVE ( 'NONE', #181, #326, #82, .T. ) ;
#334 = DIRECTION ( 'NONE',  ( 0.0000000000000000000, 1.000000000000000000, 0.0000000000000000000 ) ) ;
#335 = FACE_OUTER_BOUND ( 'NONE', #117, .T. ) ;
#336 = CIRCLE ( 'NONE', #85, 1.700000000000000400 ) ;
#337 = PRODUCT_DEFINITION_FORMATION_WITH_SPECIFIED_SOURCE ( 'ANY', '', #155, .NOT_KNOWN. ) ;
ENDSEC;
END-ISO-10303-21;
