ISO-10303-21;
HEADER;
FILE_DESCRIPTION (( 'STEP AP203' ),
    '1' );
FILE_NAME ('54575.step',
    '2021-09-03T07:50:58',
    ( '' ),
    ( '' ),
    'SwSTEP 2.0',
    'SolidWorks 2019',
    '' );
FILE_SCHEMA (( 'CONFIG_CONTROL_DESIGN' ));
ENDSEC;

DATA;
#1 = APPROVAL_ROLE ( '' ) ;
#2 = DIRECTION ( 'NONE',  ( 0.0000000000000000000, 1.000000000000000000, 0.0000000000000000000 ) ) ;
#3 = ORIENTED_EDGE ( 'NONE', *, *, #266, .T. ) ;
#4 = DESIGN_CONTEXT ( 'detailed design', #278, 'design' ) ;
#5 = LOCAL_TIME ( 9, 50, 58.00000000000000000, #277 ) ;
#6 = DIRECTION ( 'NONE',  ( 0.0000000000000000000, 1.000000000000000000, 0.0000000000000000000 ) ) ;
#7 = DIRECTION ( 'NONE',  ( 4.275831445896959482E-31, 1.000000000000000000, 1.224646799147353454E-16 ) ) ;
#8 = CYLINDRICAL_SURFACE ( 'NONE', #332, 2.174999999999997158 ) ;
#9 = VECTOR ( 'NONE', #84, 1000.000000000000000 ) ;
#10 = DIRECTION ( 'NONE',  ( -3.491481338843133355E-15, 1.224646799147353207E-16, -1.000000000000000000 ) ) ;
#11 = CARTESIAN_POINT ( 'NONE',  ( 6.284666409917640040E-14, -2.204364238465235428E-15, 18.00000000000000000 ) ) ;
#12 = CARTESIAN_POINT ( 'NONE',  ( 4.562918663912535366E-15, -1.600456423571124932E-16, 1.306871846384953795 ) ) ;
#13 = CC_DESIGN_DATE_AND_TIME_ASSIGNMENT ( #126, #153, ( #267 ) ) ;
#14 = DIRECTION ( 'NONE',  ( 0.0000000000000000000, 1.000000000000000000, 0.0000000000000000000 ) ) ;
#15 = ORIENTED_EDGE ( 'NONE', *, *, #293, .T. ) ;
#16 = APPROVAL_ROLE ( '' ) ;
#17 = ORIENTED_EDGE ( 'NONE', *, *, #24, .T. ) ;
#18 = APPLICATION_PROTOCOL_DEFINITION ( 'international standard', 'config_control_design', 1994, #117 ) ;
#19 = EDGE_CURVE ( 'NONE', #154, #238, #30, .T. ) ;
#20 = VECTOR ( 'NONE', #294, 999.9999999999998863 ) ;
#21 = APPROVAL_PERSON_ORGANIZATION ( #299, #133, #66 ) ;
#22 = ORIENTED_EDGE ( 'NONE', *, *, #19, .T. ) ;
#23 = DIRECTION ( 'NONE',  ( -3.541940127608721328E-31, -1.000000000000000000, -9.969675149292027764E-17 ) ) ;
#24 = EDGE_CURVE ( 'NONE', #233, #224, #181, .T. ) ;
#25 = FACE_OUTER_BOUND ( 'NONE', #42, .T. ) ;
#26 = LINE ( 'NONE', #337, #9 ) ;
#27 = EDGE_LOOP ( 'NONE', ( #236, #129, #78, #93 ) ) ;
#28 = ORIENTED_EDGE ( 'NONE', *, *, #24, .F. ) ;
#29 = AXIS2_PLACEMENT_3D ( 'NONE', #38, #87, #140 ) ;
#30 = LINE ( 'NONE', #107, #159 ) ;
#31 = FACE_OUTER_BOUND ( 'NONE', #132, .T. ) ;
#32 = CC_DESIGN_PERSON_AND_ORGANIZATION_ASSIGNMENT ( #71, #280, ( #124 ) ) ;
#33 = CARTESIAN_POINT ( 'NONE',  ( 3.397115206035897928E-14, -2.174999999999997158, 18.00000000000000000 ) ) ;
#34 = CARTESIAN_POINT ( 'NONE',  ( 6.284666409917640040E-14, -2.204364238465235428E-15, 18.00000000000000000 ) ) ;
#35 = FACE_OUTER_BOUND ( 'NONE', #195, .T. ) ;
#36 = EDGE_CURVE ( 'NONE', #298, #37, #239, .T. ) ;
#37 = VERTEX_POINT ( 'NONE', #258 ) ;
#38 = CARTESIAN_POINT ( 'NONE',  ( 0.0000000000000000000, 0.0000000000000000000, 0.0000000000000000000 ) ) ;
#39 =( LENGTH_UNIT ( ) NAMED_UNIT ( * ) SI_UNIT ( .MILLI., .METRE. ) );
#40 = AXIS2_PLACEMENT_3D ( 'NONE', #295, #190, #108 ) ;
#41 = CALENDAR_DATE ( 2021, 3, 9 ) ;
#42 = EDGE_LOOP ( 'NONE', ( #199, #22, #208 ) ) ;
#43 = DIRECTION ( 'NONE',  ( 0.0000000000000000000, 0.0000000000000000000, 1.000000000000000000 ) ) ;
#44 = EDGE_CURVE ( 'NONE', #242, #114, #137, .T. ) ;
#45 = ORIENTED_EDGE ( 'NONE', *, *, #185, .F. ) ;
#46 = ORIENTED_EDGE ( 'NONE', *, *, #300, .T. ) ;
#47 = APPROVAL_STATUS ( 'not_yet_approved' ) ;
#48 = LINE ( 'NONE', #148, #197 ) ;
#49 = APPROVAL_DATE_TIME ( #262, #158 ) ;
#50 = DIRECTION ( 'NONE',  ( -3.491481338843133355E-15, 1.224646799147353207E-16, -1.000000000000000000 ) ) ;
#51 = DIRECTION ( 'NONE',  ( -3.491481338843133355E-15, 1.224646799147353207E-16, -1.000000000000000000 ) ) ;
#52 = EDGE_CURVE ( 'NONE', #224, #297, #165, .T. ) ;
#53 = ORIENTED_EDGE ( 'NONE', *, *, #178, .T. ) ;
#54 = COORDINATED_UNIVERSAL_TIME_OFFSET ( 1, 0, .AHEAD. ) ;
#55 = DIRECTION ( 'NONE',  ( -3.491481338843133355E-15, 1.224646799147353207E-16, -1.000000000000000000 ) ) ;
#56 = AXIS2_PLACEMENT_3D ( 'NONE', #283, #50, #316 ) ;
#57 = CARTESIAN_POINT ( 'NONE',  ( 4.562918663912535366E-15, -1.600456423571124932E-16, 1.306871846384953795 ) ) ;
#58 = CC_DESIGN_PERSON_AND_ORGANIZATION_ASSIGNMENT ( #231, #174, ( #118 ) ) ;
#59 = CARTESIAN_POINT ( 'NONE',  ( 0.0000000000000000000, 0.0000000000000000000, 0.0000000000000000000 ) ) ;
#60 = CARTESIAN_POINT ( 'NONE',  ( 2.007601769834801742E-13, 2.174999999999992717, 57.50000000000000000 ) ) ;
#61 = DIRECTION ( 'NONE',  ( -3.491481338843133355E-15, 1.224646799147353207E-16, -1.000000000000000000 ) ) ;
#62 = AXIS2_PLACEMENT_3D ( 'NONE', #156, #309, #103 ) ;
#63 = CC_DESIGN_SECURITY_CLASSIFICATION ( #267, ( #124 ) ) ;
#64 = PRODUCT_RELATED_PRODUCT_CATEGORY ( 'detail', '', ( #121 ) ) ;
#65 = DIRECTION ( 'NONE',  ( 0.0000000000000000000, 1.000000000000000000, 0.0000000000000000000 ) ) ;
#66 = APPROVAL_ROLE ( '' ) ;
#67 = PERSON_AND_ORGANIZATION ( #72, #272 ) ;
#68 = EDGE_LOOP ( 'NONE', ( #139, #162, #53, #329 ) ) ;
#69 =( NAMED_UNIT ( * ) PLANE_ANGLE_UNIT ( ) SI_UNIT ( $, .RADIAN. ) );
#70 = ORIENTED_EDGE ( 'NONE', *, *, #255, .F. ) ;
#71 = PERSON_AND_ORGANIZATION ( #72, #272 ) ;
#72 = PERSON ( 'UNSPECIFIED', 'UNSPECIFIED', 'UNSPECIFIED', ('UNSPECIFIED'), ('UNSPECIFIED'), ('UNSPECIFIED') ) ;
#73 = CLOSED_SHELL ( 'NONE', ( #284, #315, #192, #276, #232 ) ) ;
#74 = CONICAL_SURFACE ( 'NONE', #290, 2.174999999999992717, 1.029744258676649649 ) ;
#75 = CC_DESIGN_PERSON_AND_ORGANIZATION_ASSIGNMENT ( #67, #172, ( #267 ) ) ;
#76 = FACE_OUTER_BOUND ( 'NONE', #83, .T. ) ;
#77 = MANIFOLD_SOLID_BREP ( 'Corps-Déplacer/Copier1[1]', #259 ) ;
#78 = ORIENTED_EDGE ( 'NONE', *, *, #138, .T. ) ;
#79 = DIRECTION ( 'NONE',  ( -3.491481338843133355E-15, 1.224646799147353207E-16, -1.000000000000000000 ) ) ;
#80 = EDGE_LOOP ( 'NONE', ( #15, #3, #213, #264 ) ) ;
#81 = EDGE_CURVE ( 'NONE', #238, #304, #229, .T. ) ;
#82 = AXIS2_PLACEMENT_3D ( 'NONE', #57, #322, #113 ) ;
#83 = EDGE_LOOP ( 'NONE', ( #173, #324 ) ) ;
#84 = DIRECTION ( 'NONE',  ( -3.491481338843133355E-15, 1.224646799147353207E-16, -1.000000000000000000 ) ) ;
#85 = DIRECTION ( 'NONE',  ( -3.491481338843133355E-15, 1.224646799147353207E-16, -1.000000000000000000 ) ) ;
#86 = CIRCLE ( 'NONE', #176, 2.174999999999994937 ) ;
#87 = DIRECTION ( 'NONE',  ( -3.491481338843133355E-15, 1.224646799147353207E-16, -1.000000000000000000 ) ) ;
#88 = CIRCLE ( 'NONE', #250, 2.174999999999992717 ) ;
#89 = CARTESIAN_POINT ( 'NONE',  ( 4.829279342727084629E-15, 2.174999999999992717, 1.306871846384954017 ) ) ;
#90 = FACE_OUTER_BOUND ( 'NONE', #80, .T. ) ;
#91 = CARTESIAN_POINT ( 'NONE',  ( 2.663606788145476358E-16, -2.174999999999993605, -2.663606788145494600E-16 ) ) ;
#92 = AXIS2_PLACEMENT_3D ( 'NONE', #186, #287, #6 ) ;
#93 = ORIENTED_EDGE ( 'NONE', *, *, #81, .F. ) ;
#94 = MECHANICAL_CONTEXT ( 'NONE', #117, 'mechanical' ) ;
#95 = CC_DESIGN_DATE_AND_TIME_ASSIGNMENT ( #328, #145, ( #118 ) ) ;
#96 = PERSON_AND_ORGANIZATION ( #72, #272 ) ;
#97 = AXIS2_PLACEMENT_3D ( 'NONE', #193, #248, #274 ) ;
#98 = CC_DESIGN_APPROVAL ( #158, ( #267 ) ) ;
#99 = COORDINATED_UNIVERSAL_TIME_OFFSET ( 1, 0, .AHEAD. ) ;
#100 = EDGE_CURVE ( 'NONE', #297, #242, #134, .T. ) ;
#101 =( NAMED_UNIT ( * ) SI_UNIT ( $, .STERADIAN. ) SOLID_ANGLE_UNIT ( ) );
#102 = VECTOR ( 'NONE', #292, 1000.000000000000000 ) ;
#103 = DIRECTION ( 'NONE',  ( 0.0000000000000000000, 1.000000000000000000, 0.0000000000000000000 ) ) ;
#104 = DIRECTION ( 'NONE',  ( -3.491481338843133355E-15, 1.224646799147353207E-16, -1.000000000000000000 ) ) ;
#105 = PLANE ( 'NONE',  #325 ) ;
#106 = AXIS2_PLACEMENT_3D ( 'NONE', #122, #43, #327 ) ;
#107 = CARTESIAN_POINT ( 'NONE',  ( 4.562918663912534577E-15, -2.174999999999992717, 1.306871846384953573 ) ) ;
#108 = DIRECTION ( 'NONE',  ( -4.275831445896958607E-31, -1.000000000000000000, -1.224646799147353207E-16 ) ) ;
#109 = DIRECTION ( 'NONE',  ( -3.491481338843133355E-15, 1.224646799147353207E-16, -1.000000000000000000 ) ) ;
#110 = CARTESIAN_POINT ( 'NONE',  ( 4.562918663912535366E-15, -1.600456423571124932E-16, 1.306871846384953795 ) ) ;
#111 = AXIS2_PLACEMENT_3D ( 'NONE', #225, #253, #306 ) ;
#112 = CARTESIAN_POINT ( 'NONE',  ( 0.0000000000000000000, 0.0000000000000000000, 0.0000000000000000000 ) ) ;
#113 = DIRECTION ( 'NONE',  ( -3.541940127608721328E-31, -1.000000000000000000, -9.969675149292027764E-17 ) ) ;
#114 = VERTEX_POINT ( 'NONE', #130 ) ;
#115 = FACE_OUTER_BOUND ( 'NONE', #200, .T. ) ;
#116 = CIRCLE ( 'NONE', #175, 2.174999999999999822 ) ;
#117 = APPLICATION_CONTEXT ( 'configuration controlled 3d designs of mechanical parts and assemblies' ) ;
#118 = PRODUCT_DEFINITION ( 'UNKNOWN', '', #124, #4 ) ;
#119 = DATE_AND_TIME ( #41, #146 ) ;
#120 = CALENDAR_DATE ( 2021, 3, 9 ) ;
#121 = PRODUCT ( '54575', '54575', '', ( #94 ) ) ;
#122 = CARTESIAN_POINT ( 'NONE',  ( 0.0000000000000000000, 0.0000000000000000000, 0.0000000000000000000 ) ) ;
#123 = AXIS2_PLACEMENT_3D ( 'NONE', #179, #79, #261 ) ;
#124 = PRODUCT_DEFINITION_FORMATION_WITH_SPECIFIED_SOURCE ( 'ANY', '', #121, .NOT_KNOWN. ) ;
#125 = ORIENTED_EDGE ( 'NONE', *, *, #163, .T. ) ;
#126 = DATE_AND_TIME ( #183, #260 ) ;
#127 = ORIENTED_EDGE ( 'NONE', *, *, #331, .T. ) ;
#128 = CC_DESIGN_APPROVAL ( #133, ( #118 ) ) ;
#129 = ORIENTED_EDGE ( 'NONE', *, *, #36, .T. ) ;
#130 = CARTESIAN_POINT ( 'NONE',  ( 6.284666409917640040E-14, 2.174999999999992717, 18.00000000000000000 ) ) ;
#131 = PERSON_AND_ORGANIZATION ( #72, #272 ) ;
#132 = EDGE_LOOP ( 'NONE', ( #257, #215 ) ) ;
#133 = APPROVAL ( #228, 'UNSPECIFIED' ) ;
#134 = LINE ( 'NONE', #308, #152 ) ;
#135 = LINE ( 'NONE', #136, #249 ) ;
#136 = CARTESIAN_POINT ( 'NONE',  ( 2.027110459917589179E-13, -1.675000000000007150, 58.00000000000000000 ) ) ;
#137 = CIRCLE ( 'NONE', #62, 2.174999999999994937 ) ;
#138 = EDGE_CURVE ( 'NONE', #37, #304, #26, .T. ) ;
#139 = ORIENTED_EDGE ( 'NONE', *, *, #100, .F. ) ;
#140 = DIRECTION ( 'NONE',  ( 4.275831445896957731E-31, 1.000000000000000000, 1.224646799147353454E-16 ) ) ;
#141 = PLANE ( 'NONE',  #40 ) ;
#142 = PLANE ( 'NONE',  #97 ) ;
#143 = PERSON_AND_ORGANIZATION ( #72, #272 ) ;
#144 = APPROVAL_PERSON_ORGANIZATION ( #143, #333, #16 ) ;
#145 = DATE_TIME_ROLE ( 'creation_date' ) ;
#146 = LOCAL_TIME ( 9, 50, 58.00000000000000000, #301 ) ;
#147 = APPLICATION_PROTOCOL_DEFINITION ( 'international standard', 'config_control_design', 1994, #278 ) ;
#148 = CARTESIAN_POINT ( 'NONE',  ( 9.299933394825871701E-31, 2.174999999999997158, 2.663606788145490163E-16 ) ) ;
#149 = CC_DESIGN_PERSON_AND_ORGANIZATION_ASSIGNMENT ( #252, #194, ( #121 ) ) ;
#150 = DIRECTION ( 'NONE',  ( -2.468850131082267316E-15, 0.7071067811865471286, -0.7071067811865479058 ) ) ;
#151 = EDGE_LOOP ( 'NONE', ( #169, #286, #46 ) ) ;
#152 = VECTOR ( 'NONE', #51, 1000.000000000000000 ) ;
#153 = DATE_TIME_ROLE ( 'classification_date' ) ;
#154 = VERTEX_POINT ( 'NONE', #207 ) ;
#155 = ADVANCED_FACE ( 'NONE', ( #76 ), #105, .F. ) ;
#156 = CARTESIAN_POINT ( 'NONE',  ( 6.284666409917640040E-14, -2.204364238465235428E-15, 18.00000000000000000 ) ) ;
#157 = DIRECTION ( 'NONE',  ( 0.0000000000000000000, 1.000000000000000000, 0.0000000000000000000 ) ) ;
#158 = APPROVAL ( #47, 'UNSPECIFIED' ) ;
#159 = VECTOR ( 'NONE', #281, 1000.000000000000000 ) ;
#160 = CYLINDRICAL_SURFACE ( 'NONE', #234, 2.174999999999993605 ) ;
#161 = CARTESIAN_POINT ( 'NONE',  ( 1.320697812201426488E-13, -2.175000000000006928, 57.50000000000000000 ) ) ;
#162 = ORIENTED_EDGE ( 'NONE', *, *, #185, .T. ) ;
#163 = EDGE_CURVE ( 'NONE', #233, #310, #271, .T. ) ;
#164 = LINE ( 'NONE', #246, #20 ) ;
#165 = CIRCLE ( 'NONE', #123, 2.174999999999999822 ) ;
#166 = DIRECTION ( 'NONE',  ( 4.275831445896959482E-31, 1.000000000000000000, 1.224646799147353454E-16 ) ) ;
#167 = AXIS2_PLACEMENT_3D ( 'NONE', #201, #223, #14 ) ;
#168 = CARTESIAN_POINT ( 'NONE',  ( 2.025059176529017346E-13, 1.674999999999992939, 58.00000000000000000 ) ) ;
#169 = ORIENTED_EDGE ( 'NONE', *, *, #19, .F. ) ;
#170 = CALENDAR_DATE ( 2021, 3, 9 ) ;
#171 = DIRECTION ( 'NONE',  ( 3.491481338843133355E-15, -1.224646799147353207E-16, 1.000000000000000000 ) ) ;
#172 = PERSON_AND_ORGANIZATION_ROLE ( 'classification_officer' ) ;
#173 = ORIENTED_EDGE ( 'NONE', *, *, #255, .T. ) ;
#174 = PERSON_AND_ORGANIZATION_ROLE ( 'creator' ) ;
#175 = AXIS2_PLACEMENT_3D ( 'NONE', #288, #55, #157 ) ;
#176 = AXIS2_PLACEMENT_3D ( 'NONE', #34, #109, #217 ) ;
#177 = CARTESIAN_POINT ( 'NONE',  ( 6.284666409917640040E-14, 1.630988763644763169E-32, 18.00000000000000000 ) ) ;
#178 = EDGE_CURVE ( 'NONE', #224, #114, #48, .T. ) ;
#179 = CARTESIAN_POINT ( 'NONE',  ( 2.007601769834801742E-13, -7.041719095097280485E-15, 57.50000000000000000 ) ) ;
#180 = EDGE_LOOP ( 'NONE', ( #205, #303, #70, #336 ) ) ;
#181 = LINE ( 'NONE', #204, #221 ) ;
#182 = AXIS2_PLACEMENT_3D ( 'NONE', #240, #104, #2 ) ;
#183 = CALENDAR_DATE ( 2021, 3, 9 ) ;
#184 = EDGE_LOOP ( 'NONE', ( #125, #305, #285, #28 ) ) ;
#185 = EDGE_CURVE ( 'NONE', #297, #224, #116, .T. ) ;
#186 = CARTESIAN_POINT ( 'NONE',  ( 2.025059176529017346E-13, -7.102951435054648059E-15, 58.00000000000000000 ) ) ;
#187 = FACE_OUTER_BOUND ( 'NONE', #184, .T. ) ;
#188 = LINE ( 'NONE', #91, #102 ) ;
#189 = CARTESIAN_POINT ( 'NONE',  ( 2.018687918270268025E-13, -1.675000000000007150, 58.00000000000000000 ) ) ;
#190 = DIRECTION ( 'NONE',  ( 3.491481338843133355E-15, -1.224646799147353207E-16, 1.000000000000000000 ) ) ;
#191 = MANIFOLD_SOLID_BREP ( 'Corps-Déplacer/Copier1[2]', #73 ) ;
#192 = ADVANCED_FACE ( 'NONE', ( #25 ), #265, .T. ) ;
#193 = CARTESIAN_POINT ( 'NONE',  ( 2.025059176529017346E-13, 1.256048817979295209E-32, 58.00000000000000000 ) ) ;
#194 = PERSON_AND_ORGANIZATION_ROLE ( 'design_owner' ) ;
#195 = EDGE_LOOP ( 'NONE', ( #335, #235 ) ) ;
#196 = PERSON_AND_ORGANIZATION_ROLE ( 'design_supplier' ) ;
#197 = VECTOR ( 'NONE', #263, 1000.000000000000000 ) ;
#198 = LOCAL_TIME ( 9, 50, 58.00000000000000000, #99 ) ;
#199 = ORIENTED_EDGE ( 'NONE', *, *, #237, .F. ) ;
#200 = EDGE_LOOP ( 'NONE', ( #282, #127, #17, #45 ) ) ;
#201 = CARTESIAN_POINT ( 'NONE',  ( 2.025059176529017346E-13, -7.102951435054648059E-15, 58.00000000000000000 ) ) ;
#202 = CC_DESIGN_PERSON_AND_ORGANIZATION_ASSIGNMENT ( #96, #196, ( #124 ) ) ;
#203 = DATE_AND_TIME ( #120, #198 ) ;
#204 = CARTESIAN_POINT ( 'NONE',  ( 2.025059176529017346E-13, 1.674999999999992939, 58.00000000000000000 ) ) ;
#205 = ORIENTED_EDGE ( 'NONE', *, *, #52, .T. ) ;
#206 = SHAPE_DEFINITION_REPRESENTATION ( #296, #212 ) ;
#207 = CARTESIAN_POINT ( 'NONE',  ( 0.0000000000000000000, 0.0000000000000000000, 0.0000000000000000000 ) ) ;
#208 = ORIENTED_EDGE ( 'NONE', *, *, #81, .T. ) ;
#209 = DIRECTION ( 'NONE',  ( 3.491481338843133355E-15, -1.224646799147353207E-16, 1.000000000000000000 ) ) ;
#210 = CIRCLE ( 'NONE', #254, 2.174999999999994937 ) ;
#211 = ADVANCED_FACE ( 'NONE', ( #275 ), #323, .T. ) ;
#212 = ADVANCED_BREP_SHAPE_REPRESENTATION ( '54575', ( #77, #191, #106 ), #330 ) ;
#213 = ORIENTED_EDGE ( 'NONE', *, *, #300, .F. ) ;
#214 = CARTESIAN_POINT ( 'NONE',  ( 4.562918663912534577E-15, -2.174999999999992717, 1.306871846384953573 ) ) ;
#215 = ORIENTED_EDGE ( 'NONE', *, *, #331, .F. ) ;
#216 = ADVANCED_FACE ( 'NONE', ( #187 ), #311, .T. ) ;
#217 = DIRECTION ( 'NONE',  ( 0.0000000000000000000, 1.000000000000000000, 0.0000000000000000000 ) ) ;
#218 = DIRECTION ( 'NONE',  ( -3.491481338843133355E-15, 1.224646799147353207E-16, -1.000000000000000000 ) ) ;
#219 = FACE_OUTER_BOUND ( 'NONE', #151, .T. ) ;
#220 = DIRECTION ( 'NONE',  ( 0.0000000000000000000, 1.000000000000000000, 0.0000000000000000000 ) ) ;
#221 = VECTOR ( 'NONE', #150, 1000.000000000000000 ) ;
#222 = CC_DESIGN_APPROVAL ( #333, ( #124 ) ) ;
#223 = DIRECTION ( 'NONE',  ( -3.491481338843133355E-15, 1.224646799147353207E-16, -1.000000000000000000 ) ) ;
#224 = VERTEX_POINT ( 'NONE', #60 ) ;
#225 = CARTESIAN_POINT ( 'NONE',  ( 2.025059176529017346E-13, -7.102951435054648059E-15, 58.00000000000000000 ) ) ;
#226 = APPROVAL_DATE_TIME ( #203, #333 ) ;
#227 = ADVANCED_FACE ( 'NONE', ( #31 ), #142, .F. ) ;
#228 = APPROVAL_STATUS ( 'not_yet_approved' ) ;
#229 = CIRCLE ( 'NONE', #56, 2.174999999999992717 ) ;
#230 = CIRCLE ( 'NONE', #111, 1.675000000000000044 ) ;
#231 = PERSON_AND_ORGANIZATION ( #72, #272 ) ;
#232 = ADVANCED_FACE ( 'NONE', ( #35 ), #141, .T. ) ;
#233 = VERTEX_POINT ( 'NONE', #168 ) ;
#234 = AXIS2_PLACEMENT_3D ( 'NONE', #59, #268, #166 ) ;
#235 = ORIENTED_EDGE ( 'NONE', *, *, #36, .F. ) ;
#236 = ORIENTED_EDGE ( 'NONE', *, *, #266, .F. ) ;
#237 = EDGE_CURVE ( 'NONE', #154, #304, #164, .T. ) ;
#238 = VERTEX_POINT ( 'NONE', #214 ) ;
#239 = CIRCLE ( 'NONE', #182, 2.174999999999994937 ) ;
#240 = CARTESIAN_POINT ( 'NONE',  ( 6.284666409917640040E-14, -2.204364238465235428E-15, 18.00000000000000000 ) ) ;
#241 = DIRECTION ( 'NONE',  ( -3.491481338843133355E-15, 1.224646799147353207E-16, -1.000000000000000000 ) ) ;
#242 = VERTEX_POINT ( 'NONE', #245 ) ;
#243 = CYLINDRICAL_SURFACE ( 'NONE', #319, 2.174999999999993605 ) ;
#244 = AXIS2_PLACEMENT_3D ( 'NONE', #318, #10, #65 ) ;
#245 = CARTESIAN_POINT ( 'NONE',  ( 1.320697812201428003E-13, -2.174999999999997158, 18.00000000000000000 ) ) ;
#246 = CARTESIAN_POINT ( 'NONE',  ( 4.829279342727084629E-15, 2.174999999999992717, 1.306871846384954017 ) ) ;
#247 = EDGE_CURVE ( 'NONE', #310, #297, #135, .T. ) ;
#248 = DIRECTION ( 'NONE',  ( -3.491481338843133355E-15, 1.224646799147353207E-16, -1.000000000000000000 ) ) ;
#249 = VECTOR ( 'NONE', #270, 999.9999999999998863 ) ;
#250 = AXIS2_PLACEMENT_3D ( 'NONE', #110, #218, #320 ) ;
#251 = APPROVAL_STATUS ( 'not_yet_approved' ) ;
#252 = PERSON_AND_ORGANIZATION ( #72, #272 ) ;
#253 = DIRECTION ( 'NONE',  ( -3.491481338843133355E-15, 1.224646799147353207E-16, -1.000000000000000000 ) ) ;
#254 = AXIS2_PLACEMENT_3D ( 'NONE', #11, #61, #220 ) ;
#255 = EDGE_CURVE ( 'NONE', #114, #242, #210, .T. ) ;
#256 = CALENDAR_DATE ( 2021, 3, 9 ) ;
#257 = ORIENTED_EDGE ( 'NONE', *, *, #163, .F. ) ;
#258 = CARTESIAN_POINT ( 'NONE',  ( 6.284666409917640040E-14, 2.174999999999992717, 18.00000000000000000 ) ) ;
#259 = CLOSED_SHELL ( 'NONE', ( #216, #211, #155, #273, #321, #227 ) ) ;
#260 = LOCAL_TIME ( 9, 50, 58.00000000000000000, #54 ) ;
#261 = DIRECTION ( 'NONE',  ( 0.0000000000000000000, 1.000000000000000000, 0.0000000000000000000 ) ) ;
#262 = DATE_AND_TIME ( #256, #334 ) ;
#263 = DIRECTION ( 'NONE',  ( -3.491481338843133355E-15, 1.224646799147353207E-16, -1.000000000000000000 ) ) ;
#264 = ORIENTED_EDGE ( 'NONE', *, *, #138, .F. ) ;
#265 = CONICAL_SURFACE ( 'NONE', #82, 2.174999999999992717, 1.029744258676649649 ) ;
#266 = EDGE_CURVE ( 'NONE', #298, #238, #188, .T. ) ;
#267 = SECURITY_CLASSIFICATION ( '', '', #302 ) ;
#268 = DIRECTION ( 'NONE',  ( -3.491481338843133355E-15, 1.224646799147353207E-16, -1.000000000000000000 ) ) ;
#269 = CARTESIAN_POINT ( 'NONE',  ( 0.0000000000000000000, 0.0000000000000000000, 0.0000000000000000000 ) ) ;
#270 = DIRECTION ( 'NONE',  ( -2.382254525458718258E-15, -0.7071067811865469066, -0.7071067811865482389 ) ) ;
#271 = CIRCLE ( 'NONE', #92, 1.675000000000000044 ) ;
#272 = ORGANIZATION ( 'UNSPECIFIED', 'UNSPECIFIED', '' ) ;
#273 = ADVANCED_FACE ( 'NONE', ( #317 ), #8, .T. ) ;
#274 = DIRECTION ( 'NONE',  ( 4.275831445896958607E-31, 1.000000000000000000, 1.224646799147353207E-16 ) ) ;
#275 = FACE_OUTER_BOUND ( 'NONE', #180, .T. ) ;
#276 = ADVANCED_FACE ( 'NONE', ( #289 ), #160, .T. ) ;
#277 = COORDINATED_UNIVERSAL_TIME_OFFSET ( 1, 0, .AHEAD. ) ;
#278 = APPLICATION_CONTEXT ( 'configuration controlled 3d designs of mechanical parts and assemblies' ) ;
#279 = APPROVAL_DATE_TIME ( #119, #133 ) ;
#280 = PERSON_AND_ORGANIZATION_ROLE ( 'creator' ) ;
#281 = DIRECTION ( 'NONE',  ( 1.798245827342160317E-15, -0.8571673007021098911, 0.5150380749100582634 ) ) ;
#282 = ORIENTED_EDGE ( 'NONE', *, *, #247, .F. ) ;
#283 = CARTESIAN_POINT ( 'NONE',  ( 4.562918663912535366E-15, -1.600456423571124932E-16, 1.306871846384953795 ) ) ;
#284 = ADVANCED_FACE ( 'NONE', ( #90 ), #243, .T. ) ;
#285 = ORIENTED_EDGE ( 'NONE', *, *, #52, .F. ) ;
#286 = ORIENTED_EDGE ( 'NONE', *, *, #237, .T. ) ;
#287 = DIRECTION ( 'NONE',  ( -3.491481338843133355E-15, 1.224646799147353207E-16, -1.000000000000000000 ) ) ;
#288 = CARTESIAN_POINT ( 'NONE',  ( 2.007601769834801742E-13, -7.041719095097280485E-15, 57.50000000000000000 ) ) ;
#289 = FACE_OUTER_BOUND ( 'NONE', #27, .T. ) ;
#290 = AXIS2_PLACEMENT_3D ( 'NONE', #12, #171, #23 ) ;
#291 = DIRECTION ( 'NONE',  ( 4.275831445896957731E-31, 1.000000000000000000, 1.224646799147353454E-16 ) ) ;
#292 = DIRECTION ( 'NONE',  ( -3.491481338843133355E-15, 1.224646799147353207E-16, -1.000000000000000000 ) ) ;
#293 = EDGE_CURVE ( 'NONE', #37, #298, #86, .T. ) ;
#294 = DIRECTION ( 'NONE',  ( 1.903218546456022717E-15, 0.8571673007021097801, 0.5150380749100585964 ) ) ;
#295 = CARTESIAN_POINT ( 'NONE',  ( 6.284666409917640040E-14, 1.630988763644763169E-32, 18.00000000000000000 ) ) ;
#296 = PRODUCT_DEFINITION_SHAPE ( 'NONE', 'NONE',  #118 ) ;
#297 = VERTEX_POINT ( 'NONE', #161 ) ;
#298 = VERTEX_POINT ( 'NONE', #33 ) ;
#299 = PERSON_AND_ORGANIZATION ( #72, #272 ) ;
#300 = EDGE_CURVE ( 'NONE', #304, #238, #88, .T. ) ;
#301 = COORDINATED_UNIVERSAL_TIME_OFFSET ( 1, 0, .AHEAD. ) ;
#302 = SECURITY_CLASSIFICATION_LEVEL ( 'unclassified' ) ;
#303 = ORIENTED_EDGE ( 'NONE', *, *, #100, .T. ) ;
#304 = VERTEX_POINT ( 'NONE', #89 ) ;
#305 = ORIENTED_EDGE ( 'NONE', *, *, #247, .T. ) ;
#306 = DIRECTION ( 'NONE',  ( 0.0000000000000000000, 1.000000000000000000, 0.0000000000000000000 ) ) ;
#307 = COORDINATED_UNIVERSAL_TIME_OFFSET ( 1, 0, .AHEAD. ) ;
#308 = CARTESIAN_POINT ( 'NONE',  ( 2.663606788145480795E-16, -2.174999999999997158, -2.663606788145499037E-16 ) ) ;
#309 = DIRECTION ( 'NONE',  ( -3.491481338843133355E-15, 1.224646799147353207E-16, -1.000000000000000000 ) ) ;
#310 = VERTEX_POINT ( 'NONE', #189 ) ;
#311 = CONICAL_SURFACE ( 'NONE', #244, 1.675000000000000044, 0.7853981633974476129 ) ;
#312 = DIRECTION ( 'NONE',  ( -4.275831445896958607E-31, -1.000000000000000000, -1.224646799147353207E-16 ) ) ;
#313 = UNCERTAINTY_MEASURE_WITH_UNIT (LENGTH_MEASURE( 1.000000000000000082E-05 ), #39, 'distance_accuracy_value', 'NONE');
#314 = APPROVAL_PERSON_ORGANIZATION ( #131, #158, #1 ) ;
#315 = ADVANCED_FACE ( 'NONE', ( #219 ), #74, .T. ) ;
#316 = DIRECTION ( 'NONE',  ( 3.541940127608721328E-31, 1.000000000000000000, 9.969675149292027764E-17 ) ) ;
#317 = FACE_OUTER_BOUND ( 'NONE', #68, .T. ) ;
#318 = CARTESIAN_POINT ( 'NONE',  ( 2.025059176529017346E-13, -7.102951435054648059E-15, 58.00000000000000000 ) ) ;
#319 = AXIS2_PLACEMENT_3D ( 'NONE', #269, #241, #7 ) ;
#320 = DIRECTION ( 'NONE',  ( 3.541940127608721328E-31, 1.000000000000000000, 9.969675149292027764E-17 ) ) ;
#321 = ADVANCED_FACE ( 'NONE', ( #115 ), #326, .T. ) ;
#322 = DIRECTION ( 'NONE',  ( 3.491481338843133355E-15, -1.224646799147353207E-16, 1.000000000000000000 ) ) ;
#323 = CYLINDRICAL_SURFACE ( 'NONE', #29, 2.174999999999997158 ) ;
#324 = ORIENTED_EDGE ( 'NONE', *, *, #44, .T. ) ;
#325 = AXIS2_PLACEMENT_3D ( 'NONE', #177, #209, #312 ) ;
#326 = CONICAL_SURFACE ( 'NONE', #167, 1.675000000000000044, 0.7853981633974476129 ) ;
#327 = DIRECTION ( 'NONE',  ( 1.000000000000000000, 0.0000000000000000000, 0.0000000000000000000 ) ) ;
#328 = DATE_AND_TIME ( #170, #5 ) ;
#329 = ORIENTED_EDGE ( 'NONE', *, *, #44, .F. ) ;
#330 =( GEOMETRIC_REPRESENTATION_CONTEXT ( 3 ) GLOBAL_UNCERTAINTY_ASSIGNED_CONTEXT ( ( #313 ) ) GLOBAL_UNIT_ASSIGNED_CONTEXT ( ( #39, #69, #101 ) ) REPRESENTATION_CONTEXT ( 'NONE', 'WORKASPACE' ) );
#331 = EDGE_CURVE ( 'NONE', #310, #233, #230, .T. ) ;
#332 = AXIS2_PLACEMENT_3D ( 'NONE', #112, #85, #291 ) ;
#333 = APPROVAL ( #251, 'UNSPECIFIED' ) ;
#334 = LOCAL_TIME ( 9, 50, 58.00000000000000000, #307 ) ;
#335 = ORIENTED_EDGE ( 'NONE', *, *, #293, .F. ) ;
#336 = ORIENTED_EDGE ( 'NONE', *, *, #178, .F. ) ;
#337 = CARTESIAN_POINT ( 'NONE',  ( 9.299933394825859439E-31, 2.174999999999993605, 2.663606788145485725E-16 ) ) ;
ENDSEC;
END-ISO-10303-21;
