ISO-10303-21;
HEADER;
FILE_DESCRIPTION (( 'STEP AP203' ),
    '1' );
FILE_NAME ('54574.step',
    '2021-09-03T07:50:54',
    ( '' ),
    ( '' ),
    'SwSTEP 2.0',
    'SolidWorks 2019',
    '' );
FILE_SCHEMA (( 'CONFIG_CONTROL_DESIGN' ));
ENDSEC;

DATA;
#1 = EDGE_CURVE ( 'NONE', #261, #23, #117, .T. ) ;
#2 = DIRECTION ( 'NONE',  ( 1.903218546456022717E-15, 0.8571673007021097801, 0.5150380749100585964 ) ) ;
#3 = CARTESIAN_POINT ( 'NONE',  ( 6.284666409917640040E-14, 1.612241766361490360E-32, 18.00000000000000000 ) ) ;
#4 = VERTEX_POINT ( 'NONE', #303 ) ;
#5 = EDGE_CURVE ( 'NONE', #252, #4, #193, .T. ) ;
#6 = VERTEX_POINT ( 'NONE', #93 ) ;
#7 = DIRECTION ( 'NONE',  ( 4.275831445896958607E-31, 1.000000000000000000, 1.224646799147353207E-16 ) ) ;
#8 = CARTESIAN_POINT ( 'NONE',  ( 0.0000000000000000000, 0.0000000000000000000, 0.0000000000000000000 ) ) ;
#9 = EDGE_CURVE ( 'NONE', #289, #6, #47, .T. ) ;
#10 = APPROVAL_PERSON_ORGANIZATION ( #331, #123, #205 ) ;
#11 = FACE_OUTER_BOUND ( 'NONE', #316, .T. ) ;
#12 = CARTESIAN_POINT ( 'NONE',  ( 2.025059176529017346E-13, 1.237301820696022126E-32, 58.00000000000000000 ) ) ;
#13 = ADVANCED_FACE ( 'NONE', ( #97 ), #197, .F. ) ;
#14 = CYLINDRICAL_SURFACE ( 'NONE', #321, 2.149999999999994582 ) ;
#15 =( NAMED_UNIT ( * ) SI_UNIT ( $, .STERADIAN. ) SOLID_ANGLE_UNIT ( ) );
#16 = CONICAL_SURFACE ( 'NONE', #337, 2.149999999999993694, 1.029744258676649649 ) ;
#17 = CARTESIAN_POINT ( 'NONE',  ( 2.632990618166793951E-16, -2.149999999999994582, -2.632990618166812193E-16 ) ) ;
#18 = DATE_AND_TIME ( #126, #313 ) ;
#19 = ADVANCED_FACE ( 'NONE', ( #44 ), #176, .T. ) ;
#20 = LOCAL_TIME ( 9, 50, 54.00000000000000000, #74 ) ;
#21 = AXIS2_PLACEMENT_3D ( 'NONE', #287, #180, #282 ) ;
#22 = SHAPE_DEFINITION_REPRESENTATION ( #235, #248 ) ;
#23 = VERTEX_POINT ( 'NONE', #118 ) ;
#24 = DIRECTION ( 'NONE',  ( -2.468850131082267316E-15, 0.7071067811865471286, -0.7071067811865479058 ) ) ;
#25 = AXIS2_PLACEMENT_3D ( 'NONE', #192, #228, #326 ) ;
#26 = ORIENTED_EDGE ( 'NONE', *, *, #240, .T. ) ;
#27 = VECTOR ( 'NONE', #107, 1000.000000000000000 ) ;
#28 = ORIENTED_EDGE ( 'NONE', *, *, #310, .T. ) ;
#29 = CARTESIAN_POINT ( 'NONE',  ( 2.007601769834801742E-13, -7.041719095097280485E-15, 57.50000000000000000 ) ) ;
#30 = DIRECTION ( 'NONE',  ( 0.0000000000000000000, 1.000000000000000000, 0.0000000000000000000 ) ) ;
#31 = EDGE_CURVE ( 'NONE', #289, #211, #81, .T. ) ;
#32 = ORIENTED_EDGE ( 'NONE', *, *, #128, .F. ) ;
#33 = EDGE_LOOP ( 'NONE', ( #220, #167 ) ) ;
#34 = DIRECTION ( 'NONE',  ( 3.583125477929751428E-31, 1.000000000000000000, 1.008560160451634933E-16 ) ) ;
#35 = DIRECTION ( 'NONE',  ( -3.583125477929751428E-31, -1.000000000000000000, -1.008560160451634933E-16 ) ) ;
#36 = AXIS2_PLACEMENT_3D ( 'NONE', #8, #249, #251 ) ;
#37 = DIRECTION ( 'NONE',  ( -3.491481338843133355E-15, 1.224646799147353207E-16, -1.000000000000000000 ) ) ;
#38 = CC_DESIGN_PERSON_AND_ORGANIZATION_ASSIGNMENT ( #307, #147, ( #156 ) ) ;
#39 = DIRECTION ( 'NONE',  ( 1.000000000000000000, 0.0000000000000000000, 0.0000000000000000000 ) ) ;
#40 = CARTESIAN_POINT ( 'NONE',  ( 2.025059176529017346E-13, 1.649999999999993472, 58.00000000000000000 ) ) ;
#41 = APPROVAL_PERSON_ORGANIZATION ( #233, #236, #122 ) ;
#42 = PERSON_AND_ORGANIZATION_ROLE ( 'creator' ) ;
#43 = COORDINATED_UNIVERSAL_TIME_OFFSET ( 1, 0, .AHEAD. ) ;
#44 = FACE_OUTER_BOUND ( 'NONE', #293, .T. ) ;
#45 = DIRECTION ( 'NONE',  ( -3.491481338843133355E-15, 1.224646799147353207E-16, -1.000000000000000000 ) ) ;
#46 = PERSON_AND_ORGANIZATION ( #257, #80 ) ;
#47 = CIRCLE ( 'NONE', #25, 1.650000000000000577 ) ;
#48 = DIRECTION ( 'NONE',  ( 0.0000000000000000000, 1.000000000000000000, 0.0000000000000000000 ) ) ;
#49 = AXIS2_PLACEMENT_3D ( 'NONE', #217, #269, #133 ) ;
#50 = CARTESIAN_POINT ( 'NONE',  ( 0.0000000000000000000, 0.0000000000000000000, 0.0000000000000000000 ) ) ;
#51 = APPROVAL_DATE_TIME ( #231, #236 ) ;
#52 = AXIS2_PLACEMENT_3D ( 'NONE', #254, #76, #48 ) ;
#53 = ORIENTED_EDGE ( 'NONE', *, *, #31, .T. ) ;
#54 = DIRECTION ( 'NONE',  ( 4.275831445896958607E-31, 1.000000000000000000, 1.224646799147353207E-16 ) ) ;
#55 = CC_DESIGN_PERSON_AND_ORGANIZATION_ASSIGNMENT ( #144, #42, ( #61 ) ) ;
#56 = ORIENTED_EDGE ( 'NONE', *, *, #72, .F. ) ;
#57 = ORIENTED_EDGE ( 'NONE', *, *, #195, .F. ) ;
#58 = PRODUCT_DEFINITION_FORMATION_WITH_SPECIFIED_SOURCE ( 'ANY', '', #156, .NOT_KNOWN. ) ;
#59 = ADVANCED_FACE ( 'NONE', ( #214 ), #204, .T. ) ;
#60 = ORIENTED_EDGE ( 'NONE', *, *, #69, .F. ) ;
#61 = PRODUCT_DEFINITION ( 'UNKNOWN', '', #58, #130 ) ;
#62 = ORIENTED_EDGE ( 'NONE', *, *, #333, .T. ) ;
#63 = CIRCLE ( 'NONE', #21, 2.149999999999995470 ) ;
#64 = VERTEX_POINT ( 'NONE', #142 ) ;
#65 = DIRECTION ( 'NONE',  ( -4.275831445896958607E-31, -1.000000000000000000, -1.224646799147353207E-16 ) ) ;
#66 = CARTESIAN_POINT ( 'NONE',  ( 6.284666409917640040E-14, 2.149999999999993694, 18.00000000000000000 ) ) ;
#67 = AXIS2_PLACEMENT_3D ( 'NONE', #29, #267, #30 ) ;
#68 = CARTESIAN_POINT ( 'NONE',  ( 4.510471322948024345E-15, -2.149999999999993694, 1.291850330909264821 ) ) ;
#69 = EDGE_CURVE ( 'NONE', #6, #243, #173, .T. ) ;
#70 = CC_DESIGN_DATE_AND_TIME_ASSIGNMENT ( #18, #234, ( #61 ) ) ;
#71 = COORDINATED_UNIVERSAL_TIME_OFFSET ( 1, 0, .AHEAD. ) ;
#72 = EDGE_CURVE ( 'NONE', #243, #211, #154, .T. ) ;
#73 = APPROVAL_PERSON_ORGANIZATION ( #174, #103, #255 ) ;
#74 = COORDINATED_UNIVERSAL_TIME_OFFSET ( 1, 0, .AHEAD. ) ;
#75 = LINE ( 'NONE', #127, #160 ) ;
#76 = DIRECTION ( 'NONE',  ( -3.491481338843133355E-15, 1.224646799147353207E-16, -1.000000000000000000 ) ) ;
#77 = DIRECTION ( 'NONE',  ( 3.491481338843133355E-15, -1.224646799147353207E-16, 1.000000000000000000 ) ) ;
#78 = SECURITY_CLASSIFICATION_LEVEL ( 'unclassified' ) ;
#79 = VECTOR ( 'NONE', #175, 1000.000000000000000 ) ;
#80 = ORGANIZATION ( 'UNSPECIFIED', 'UNSPECIFIED', '' ) ;
#81 = LINE ( 'NONE', #150, #125 ) ;
#82 = EDGE_LOOP ( 'NONE', ( #28, #53, #56, #60 ) ) ;
#83 = ORIENTED_EDGE ( 'NONE', *, *, #333, .F. ) ;
#84 = MANIFOLD_SOLID_BREP ( 'Corps-Déplacer/Copier1[1]', #168 ) ;
#85 = CARTESIAN_POINT ( 'NONE',  ( 0.0000000000000000000, 0.0000000000000000000, 0.0000000000000000000 ) ) ;
#86 = DIRECTION ( 'NONE',  ( -2.382254525458718258E-15, -0.7071067811865469066, -0.7071067811865482389 ) ) ;
#87 = ORIENTED_EDGE ( 'NONE', *, *, #120, .F. ) ;
#88 = LINE ( 'NONE', #17, #237 ) ;
#89 = APPLICATION_PROTOCOL_DEFINITION ( 'international standard', 'config_control_design', 1994, #203 ) ;
#90 = CC_DESIGN_PERSON_AND_ORGANIZATION_ASSIGNMENT ( #46, #332, ( #58 ) ) ;
#91 = CARTESIAN_POINT ( 'NONE',  ( 2.632990618166798388E-16, -2.149999999999998135, -2.632990618166816631E-16 ) ) ;
#92 = FACE_OUTER_BOUND ( 'NONE', #181, .T. ) ;
#93 = CARTESIAN_POINT ( 'NONE',  ( 2.025059176529017346E-13, 1.649999999999993472, 58.00000000000000000 ) ) ;
#94 = DIRECTION ( 'NONE',  ( -3.583125477929751428E-31, -1.000000000000000000, -1.008560160451634933E-16 ) ) ;
#95 = EDGE_CURVE ( 'NONE', #4, #252, #186, .T. ) ;
#96 = DIRECTION ( 'NONE',  ( 1.798245827342160317E-15, -0.8571673007021098911, 0.5150380749100582634 ) ) ;
#97 = FACE_OUTER_BOUND ( 'NONE', #152, .T. ) ;
#98 = AXIS2_PLACEMENT_3D ( 'NONE', #108, #226, #275 ) ;
#99 = CARTESIAN_POINT ( 'NONE',  ( 1.320667196031448253E-13, -2.150000000000007461, 57.50000000000000000 ) ) ;
#100 = MECHANICAL_CONTEXT ( 'NONE', #203, 'mechanical' ) ;
#101 = APPROVAL_STATUS ( 'not_yet_approved' ) ;
#102 = CC_DESIGN_APPROVAL ( #123, ( #264 ) ) ;
#103 = APPROVAL ( #209, 'UNSPECIFIED' ) ;
#104 = ORIENTED_EDGE ( 'NONE', *, *, #276, .F. ) ;
#105 = EDGE_LOOP ( 'NONE', ( #184, #317, #132, #265 ) ) ;
#106 = ORIENTED_EDGE ( 'NONE', *, *, #276, .T. ) ;
#107 = DIRECTION ( 'NONE',  ( -3.491481338843133355E-15, 1.224646799147353207E-16, -1.000000000000000000 ) ) ;
#108 = CARTESIAN_POINT ( 'NONE',  ( 2.025059176529017346E-13, -7.102951435054648059E-15, 58.00000000000000000 ) ) ;
#109 = CARTESIAN_POINT ( 'NONE',  ( 0.0000000000000000000, 0.0000000000000000000, 0.0000000000000000000 ) ) ;
#110 = LOCAL_TIME ( 9, 50, 54.00000000000000000, #43 ) ;
#111 = DIRECTION ( 'NONE',  ( 3.491481338843133355E-15, -1.224646799147353207E-16, 1.000000000000000000 ) ) ;
#112 = DIRECTION ( 'NONE',  ( -3.491481338843133355E-15, 1.224646799147353207E-16, -1.000000000000000000 ) ) ;
#113 = EDGE_CURVE ( 'NONE', #266, #23, #170, .T. ) ;
#114 = ORIENTED_EDGE ( 'NONE', *, *, #310, .F. ) ;
#115 = DIRECTION ( 'NONE',  ( -3.491481338843133355E-15, 1.224646799147353207E-16, -1.000000000000000000 ) ) ;
#116 = DIRECTION ( 'NONE',  ( -3.491481338843133355E-15, 1.224646799147353207E-16, -1.000000000000000000 ) ) ;
#117 = LINE ( 'NONE', #295, #79 ) ;
#118 = CARTESIAN_POINT ( 'NONE',  ( 4.773770384764706649E-15, 2.149999999999993694, 1.291850330909265265 ) ) ;
#119 = CC_DESIGN_APPROVAL ( #236, ( #61 ) ) ;
#120 = EDGE_CURVE ( 'NONE', #162, #23, #75, .T. ) ;
#121 = APPROVAL_DATE_TIME ( #141, #103 ) ;
#122 = APPROVAL_ROLE ( '' ) ;
#123 = APPROVAL ( #101, 'UNSPECIFIED' ) ;
#124 = APPROVAL_DATE_TIME ( #177, #123 ) ;
#125 = VECTOR ( 'NONE', #86, 999.9999999999998863 ) ;
#126 = CALENDAR_DATE ( 2021, 3, 9 ) ;
#127 = CARTESIAN_POINT ( 'NONE',  ( 4.773770384764706649E-15, 2.149999999999993694, 1.291850330909265265 ) ) ;
#128 = EDGE_CURVE ( 'NONE', #261, #64, #286, .T. ) ;
#129 = CONICAL_SURFACE ( 'NONE', #198, 2.149999999999993694, 1.029744258676649649 ) ;
#130 = DESIGN_CONTEXT ( 'detailed design', #328, 'design' ) ;
#131 = EDGE_CURVE ( 'NONE', #64, #266, #88, .T. ) ;
#132 = ORIENTED_EDGE ( 'NONE', *, *, #240, .F. ) ;
#133 = DIRECTION ( 'NONE',  ( 0.0000000000000000000, 1.000000000000000000, 0.0000000000000000000 ) ) ;
#134 = CIRCLE ( 'NONE', #52, 2.150000000000000355 ) ;
#135 = CC_DESIGN_DATE_AND_TIME_ASSIGNMENT ( #280, #256, ( #264 ) ) ;
#136 = ORIENTED_EDGE ( 'NONE', *, *, #120, .T. ) ;
#137 = DIRECTION ( 'NONE',  ( 3.491481338843133355E-15, -1.224646799147353207E-16, 1.000000000000000000 ) ) ;
#138 = CARTESIAN_POINT ( 'NONE',  ( 2.007601769834801742E-13, 2.149999999999993694, 57.50000000000000000 ) ) ;
#139 = CARTESIAN_POINT ( 'NONE',  ( 4.510471322948025134E-15, -1.582060372725480651E-16, 1.291850330909265043 ) ) ;
#140 = FACE_OUTER_BOUND ( 'NONE', #148, .T. ) ;
#141 = DATE_AND_TIME ( #259, #182 ) ;
#142 = CARTESIAN_POINT ( 'NONE',  ( 3.394186677287885799E-14, -2.149999999999998135, 18.00000000000000000 ) ) ;
#143 = APPROVAL_STATUS ( 'not_yet_approved' ) ;
#144 = PERSON_AND_ORGANIZATION ( #257, #80 ) ;
#145 = ADVANCED_FACE ( 'NONE', ( #202 ), #305, .F. ) ;
#146 = CC_DESIGN_SECURITY_CLASSIFICATION ( #264, ( #58 ) ) ;
#147 = PERSON_AND_ORGANIZATION_ROLE ( 'design_owner' ) ;
#148 = EDGE_LOOP ( 'NONE', ( #294, #136, #26 ) ) ;
#149 = CARTESIAN_POINT ( 'NONE',  ( 6.284666409917640040E-14, -2.204364238465235428E-15, 18.00000000000000000 ) ) ;
#150 = CARTESIAN_POINT ( 'NONE',  ( 2.027079843747610438E-13, -1.650000000000007905, 58.00000000000000000 ) ) ;
#151 = ORIENTED_EDGE ( 'NONE', *, *, #72, .T. ) ;
#152 = EDGE_LOOP ( 'NONE', ( #114, #260 ) ) ;
#153 = VECTOR ( 'NONE', #115, 1000.000000000000000 ) ;
#154 = CIRCLE ( 'NONE', #67, 2.150000000000000355 ) ;
#155 = DIRECTION ( 'NONE',  ( -3.491481338843133355E-15, 1.224646799147353207E-16, -1.000000000000000000 ) ) ;
#156 = PRODUCT ( '54574', '54574', '', ( #100 ) ) ;
#157 = ORIENTED_EDGE ( 'NONE', *, *, #281, .T. ) ;
#158 = EDGE_LOOP ( 'NONE', ( #335, #222, #290, #57 ) ) ;
#159 = CARTESIAN_POINT ( 'NONE',  ( 2.025059176529017346E-13, -7.102951435054648059E-15, 58.00000000000000000 ) ) ;
#160 = VECTOR ( 'NONE', #2, 999.9999999999998863 ) ;
#161 = LINE ( 'NONE', #91, #153 ) ;
#162 = VERTEX_POINT ( 'NONE', #50 ) ;
#163 = CARTESIAN_POINT ( 'NONE',  ( 9.193037608678453385E-31, 2.149999999999998135, 2.632990618166807263E-16 ) ) ;
#164 = ORIENTED_EDGE ( 'NONE', *, *, #131, .F. ) ;
#165 = DIRECTION ( 'NONE',  ( 3.491481338843133355E-15, -1.224646799147353207E-16, 1.000000000000000000 ) ) ;
#166 = LINE ( 'NONE', #163, #27 ) ;
#167 = ORIENTED_EDGE ( 'NONE', *, *, #5, .T. ) ;
#168 = CLOSED_SHELL ( 'NONE', ( #336, #300, #145, #19, #59, #13 ) ) ;
#169 = PERSON_AND_ORGANIZATION_ROLE ( 'classification_officer' ) ;
#170 = CIRCLE ( 'NONE', #206, 2.149999999999993694 ) ;
#171 = CC_DESIGN_APPROVAL ( #103, ( #58 ) ) ;
#172 = DIRECTION ( 'NONE',  ( 0.0000000000000000000, 0.0000000000000000000, 1.000000000000000000 ) ) ;
#173 = LINE ( 'NONE', #40, #306 ) ;
#174 = PERSON_AND_ORGANIZATION ( #257, #80 ) ;
#175 = DIRECTION ( 'NONE',  ( -3.491481338843133355E-15, 1.224646799147353207E-16, -1.000000000000000000 ) ) ;
#176 = CYLINDRICAL_SURFACE ( 'NONE', #262, 2.149999999999998135 ) ;
#177 = DATE_AND_TIME ( #309, #20 ) ;
#178 = CONICAL_SURFACE ( 'NONE', #98, 1.650000000000000577, 0.7853981633974476129 ) ;
#179 = UNCERTAINTY_MEASURE_WITH_UNIT (LENGTH_MEASURE( 1.000000000000000082E-05 ), #221, 'distance_accuracy_value', 'NONE');
#180 = DIRECTION ( 'NONE',  ( -3.491481338843133355E-15, 1.224646799147353207E-16, -1.000000000000000000 ) ) ;
#181 = EDGE_LOOP ( 'NONE', ( #32, #263 ) ) ;
#182 = LOCAL_TIME ( 9, 50, 54.00000000000000000, #71 ) ;
#183 = EDGE_CURVE ( 'NONE', #64, #261, #63, .T. ) ;
#184 = ORIENTED_EDGE ( 'NONE', *, *, #128, .T. ) ;
#185 = ADVANCED_FACE ( 'NONE', ( #140 ), #16, .T. ) ;
#186 = CIRCLE ( 'NONE', #49, 2.149999999999995470 ) ;
#187 = ORIENTED_EDGE ( 'NONE', *, *, #195, .T. ) ;
#188 = AXIS2_PLACEMENT_3D ( 'NONE', #208, #172, #39 ) ;
#189 = FACE_OUTER_BOUND ( 'NONE', #82, .T. ) ;
#190 = PRODUCT_RELATED_PRODUCT_CATEGORY ( 'detail', '', ( #156 ) ) ;
#191 = FACE_OUTER_BOUND ( 'NONE', #105, .T. ) ;
#192 = CARTESIAN_POINT ( 'NONE',  ( 2.025059176529017346E-13, -7.102951435054648059E-15, 58.00000000000000000 ) ) ;
#193 = CIRCLE ( 'NONE', #274, 2.149999999999995470 ) ;
#194 = FACE_OUTER_BOUND ( 'NONE', #320, .T. ) ;
#195 = EDGE_CURVE ( 'NONE', #211, #243, #134, .T. ) ;
#196 = DIRECTION ( 'NONE',  ( 4.275831445896959482E-31, 1.000000000000000000, 1.224646799147353207E-16 ) ) ;
#197 = PLANE ( 'NONE',  #241 ) ;
#198 = AXIS2_PLACEMENT_3D ( 'NONE', #272, #137, #35 ) ;
#199 = CYLINDRICAL_SURFACE ( 'NONE', #308, 2.149999999999998135 ) ;
#200 = ADVANCED_FACE ( 'NONE', ( #194 ), #14, .T. ) ;
#201 = CALENDAR_DATE ( 2021, 3, 9 ) ;
#202 = FACE_OUTER_BOUND ( 'NONE', #33, .T. ) ;
#203 = APPLICATION_CONTEXT ( 'configuration controlled 3d designs of mechanical parts and assemblies' ) ;
#204 = CONICAL_SURFACE ( 'NONE', #291, 1.650000000000000577, 0.7853981633974476129 ) ;
#205 = APPROVAL_ROLE ( '' ) ;
#206 = AXIS2_PLACEMENT_3D ( 'NONE', #271, #230, #213 ) ;
#207 = AXIS2_PLACEMENT_3D ( 'NONE', #139, #270, #34 ) ;
#208 = CARTESIAN_POINT ( 'NONE',  ( 0.0000000000000000000, 0.0000000000000000000, 0.0000000000000000000 ) ) ;
#209 = APPROVAL_STATUS ( 'not_yet_approved' ) ;
#210 = DIRECTION ( 'NONE',  ( 0.0000000000000000000, 1.000000000000000000, 0.0000000000000000000 ) ) ;
#211 = VERTEX_POINT ( 'NONE', #99 ) ;
#212 = AXIS2_PLACEMENT_3D ( 'NONE', #314, #45, #210 ) ;
#213 = DIRECTION ( 'NONE',  ( 3.583125477929751428E-31, 1.000000000000000000, 1.008560160451634933E-16 ) ) ;
#214 = FACE_OUTER_BOUND ( 'NONE', #158, .T. ) ;
#215 = ADVANCED_FACE ( 'NONE', ( #92 ), #302, .T. ) ;
#216 = AXIS2_PLACEMENT_3D ( 'NONE', #159, #278, #223 ) ;
#217 = CARTESIAN_POINT ( 'NONE',  ( 6.284666409917640040E-14, -2.204364238465235428E-15, 18.00000000000000000 ) ) ;
#218 = ORIENTED_EDGE ( 'NONE', *, *, #5, .F. ) ;
#219 = ORIENTED_EDGE ( 'NONE', *, *, #113, .T. ) ;
#220 = ORIENTED_EDGE ( 'NONE', *, *, #95, .T. ) ;
#221 =( LENGTH_UNIT ( ) NAMED_UNIT ( * ) SI_UNIT ( .MILLI., .METRE. ) );
#222 = ORIENTED_EDGE ( 'NONE', *, *, #9, .T. ) ;
#223 = DIRECTION ( 'NONE',  ( 0.0000000000000000000, 1.000000000000000000, 0.0000000000000000000 ) ) ;
#224 =( GEOMETRIC_REPRESENTATION_CONTEXT ( 3 ) GLOBAL_UNCERTAINTY_ASSIGNED_CONTEXT ( ( #179 ) ) GLOBAL_UNIT_ASSIGNED_CONTEXT ( ( #221, #227, #15 ) ) REPRESENTATION_CONTEXT ( 'NONE', 'WORKASPACE' ) );
#225 = DIRECTION ( 'NONE',  ( 4.275831445896958607E-31, 1.000000000000000000, 1.224646799147353207E-16 ) ) ;
#226 = DIRECTION ( 'NONE',  ( -3.491481338843133355E-15, 1.224646799147353207E-16, -1.000000000000000000 ) ) ;
#227 =( NAMED_UNIT ( * ) PLANE_ANGLE_UNIT ( ) SI_UNIT ( $, .RADIAN. ) );
#228 = DIRECTION ( 'NONE',  ( -3.491481338843133355E-15, 1.224646799147353207E-16, -1.000000000000000000 ) ) ;
#229 = PERSON_AND_ORGANIZATION ( #257, #80 ) ;
#230 = DIRECTION ( 'NONE',  ( -3.491481338843133355E-15, 1.224646799147353207E-16, -1.000000000000000000 ) ) ;
#231 = DATE_AND_TIME ( #253, #232 ) ;
#232 = LOCAL_TIME ( 9, 50, 54.00000000000000000, #334 ) ;
#233 = PERSON_AND_ORGANIZATION ( #257, #80 ) ;
#234 = DATE_TIME_ROLE ( 'creation_date' ) ;
#235 = PRODUCT_DEFINITION_SHAPE ( 'NONE', 'NONE',  #61 ) ;
#236 = APPROVAL ( #143, 'UNSPECIFIED' ) ;
#237 = VECTOR ( 'NONE', #330, 1000.000000000000000 ) ;
#238 = CARTESIAN_POINT ( 'NONE',  ( 2.025059176529017346E-13, -7.102951435054648059E-15, 58.00000000000000000 ) ) ;
#239 = ORIENTED_EDGE ( 'NONE', *, *, #113, .F. ) ;
#240 = EDGE_CURVE ( 'NONE', #23, #266, #284, .T. ) ;
#241 = AXIS2_PLACEMENT_3D ( 'NONE', #12, #116, #54 ) ;
#242 = ADVANCED_FACE ( 'NONE', ( #191 ), #322, .T. ) ;
#243 = VERTEX_POINT ( 'NONE', #138 ) ;
#244 = CIRCLE ( 'NONE', #216, 1.650000000000000577 ) ;
#245 = DIRECTION ( 'NONE',  ( -3.491481338843133355E-15, 1.224646799147353207E-16, -1.000000000000000000 ) ) ;
#246 = CARTESIAN_POINT ( 'NONE',  ( 0.0000000000000000000, 0.0000000000000000000, 0.0000000000000000000 ) ) ;
#247 = CARTESIAN_POINT ( 'NONE',  ( 4.510471322948024345E-15, -2.149999999999993694, 1.291850330909264821 ) ) ;
#248 = ADVANCED_BREP_SHAPE_REPRESENTATION ( '54574', ( #84, #312, #188 ), #224 ) ;
#249 = DIRECTION ( 'NONE',  ( -3.491481338843133355E-15, 1.224646799147353207E-16, -1.000000000000000000 ) ) ;
#250 = VECTOR ( 'NONE', #96, 1000.000000000000000 ) ;
#251 = DIRECTION ( 'NONE',  ( 4.275831445896959482E-31, 1.000000000000000000, 1.224646799147353207E-16 ) ) ;
#252 = VERTEX_POINT ( 'NONE', #301 ) ;
#253 = CALENDAR_DATE ( 2021, 3, 9 ) ;
#254 = CARTESIAN_POINT ( 'NONE',  ( 2.007601769834801742E-13, -7.041719095097280485E-15, 57.50000000000000000 ) ) ;
#255 = APPROVAL_ROLE ( '' ) ;
#256 = DATE_TIME_ROLE ( 'classification_date' ) ;
#257 = PERSON ( 'UNSPECIFIED', 'UNSPECIFIED', 'UNSPECIFIED', ('UNSPECIFIED'), ('UNSPECIFIED'), ('UNSPECIFIED') ) ;
#258 = ADVANCED_FACE ( 'NONE', ( #11 ), #129, .T. ) ;
#259 = CALENDAR_DATE ( 2021, 3, 9 ) ;
#260 = ORIENTED_EDGE ( 'NONE', *, *, #9, .F. ) ;
#261 = VERTEX_POINT ( 'NONE', #66 ) ;
#262 = AXIS2_PLACEMENT_3D ( 'NONE', #85, #245, #225 ) ;
#263 = ORIENTED_EDGE ( 'NONE', *, *, #183, .F. ) ;
#264 = SECURITY_CLASSIFICATION ( '', '', #78 ) ;
#265 = ORIENTED_EDGE ( 'NONE', *, *, #1, .F. ) ;
#266 = VERTEX_POINT ( 'NONE', #68 ) ;
#267 = DIRECTION ( 'NONE',  ( -3.491481338843133355E-15, 1.224646799147353207E-16, -1.000000000000000000 ) ) ;
#268 = EDGE_LOOP ( 'NONE', ( #151, #62, #277, #104 ) ) ;
#269 = DIRECTION ( 'NONE',  ( -3.491481338843133355E-15, 1.224646799147353207E-16, -1.000000000000000000 ) ) ;
#270 = DIRECTION ( 'NONE',  ( -3.491481338843133355E-15, 1.224646799147353207E-16, -1.000000000000000000 ) ) ;
#271 = CARTESIAN_POINT ( 'NONE',  ( 4.510471322948025134E-15, -1.582060372725480651E-16, 1.291850330909265043 ) ) ;
#272 = CARTESIAN_POINT ( 'NONE',  ( 4.510471322948025134E-15, -1.582060372725480651E-16, 1.291850330909265043 ) ) ;
#273 = LINE ( 'NONE', #247, #250 ) ;
#274 = AXIS2_PLACEMENT_3D ( 'NONE', #149, #112, #324 ) ;
#275 = DIRECTION ( 'NONE',  ( 0.0000000000000000000, 1.000000000000000000, 0.0000000000000000000 ) ) ;
#276 = EDGE_CURVE ( 'NONE', #243, #4, #166, .T. ) ;
#277 = ORIENTED_EDGE ( 'NONE', *, *, #95, .F. ) ;
#278 = DIRECTION ( 'NONE',  ( -3.491481338843133355E-15, 1.224646799147353207E-16, -1.000000000000000000 ) ) ;
#279 = CC_DESIGN_PERSON_AND_ORGANIZATION_ASSIGNMENT ( #229, #169, ( #264 ) ) ;
#280 = DATE_AND_TIME ( #201, #110 ) ;
#281 = EDGE_CURVE ( 'NONE', #162, #266, #273, .T. ) ;
#282 = DIRECTION ( 'NONE',  ( 0.0000000000000000000, 1.000000000000000000, 0.0000000000000000000 ) ) ;
#283 = APPLICATION_PROTOCOL_DEFINITION ( 'international standard', 'config_control_design', 1994, #328 ) ;
#284 = CIRCLE ( 'NONE', #207, 2.149999999999993694 ) ;
#285 = COORDINATED_UNIVERSAL_TIME_OFFSET ( 1, 0, .AHEAD. ) ;
#286 = CIRCLE ( 'NONE', #212, 2.149999999999995470 ) ;
#287 = CARTESIAN_POINT ( 'NONE',  ( 6.284666409917640040E-14, -2.204364238465235428E-15, 18.00000000000000000 ) ) ;
#288 = ORIENTED_EDGE ( 'NONE', *, *, #1, .T. ) ;
#289 = VERTEX_POINT ( 'NONE', #323 ) ;
#290 = ORIENTED_EDGE ( 'NONE', *, *, #69, .T. ) ;
#291 = AXIS2_PLACEMENT_3D ( 'NONE', #238, #155, #298 ) ;
#292 = AXIS2_PLACEMENT_3D ( 'NONE', #3, #77, #319 ) ;
#293 = EDGE_LOOP ( 'NONE', ( #83, #187, #106, #218 ) ) ;
#294 = ORIENTED_EDGE ( 'NONE', *, *, #281, .F. ) ;
#295 = CARTESIAN_POINT ( 'NONE',  ( 9.193037608678439372E-31, 2.149999999999994582, 2.632990618166802826E-16 ) ) ;
#296 = FACE_OUTER_BOUND ( 'NONE', #268, .T. ) ;
#297 = DIRECTION ( 'NONE',  ( -3.491481338843133355E-15, 1.224646799147353207E-16, -1.000000000000000000 ) ) ;
#298 = DIRECTION ( 'NONE',  ( 0.0000000000000000000, 1.000000000000000000, 0.0000000000000000000 ) ) ;
#299 = CARTESIAN_POINT ( 'NONE',  ( 4.510471322948025134E-15, -1.582060372725480651E-16, 1.291850330909265043 ) ) ;
#300 = ADVANCED_FACE ( 'NONE', ( #296 ), #199, .T. ) ;
#301 = CARTESIAN_POINT ( 'NONE',  ( 1.320667196031449262E-13, -2.149999999999997691, 18.00000000000000000 ) ) ;
#302 = PLANE ( 'NONE',  #327 ) ;
#303 = CARTESIAN_POINT ( 'NONE',  ( 6.284666409917640040E-14, 2.149999999999993694, 18.00000000000000000 ) ) ;
#304 = CC_DESIGN_PERSON_AND_ORGANIZATION_ASSIGNMENT ( #311, #329, ( #58 ) ) ;
#305 = PLANE ( 'NONE',  #292 ) ;
#306 = VECTOR ( 'NONE', #24, 1000.000000000000000 ) ;
#307 = PERSON_AND_ORGANIZATION ( #257, #80 ) ;
#308 = AXIS2_PLACEMENT_3D ( 'NONE', #246, #37, #7 ) ;
#309 = CALENDAR_DATE ( 2021, 3, 9 ) ;
#310 = EDGE_CURVE ( 'NONE', #6, #289, #244, .T. ) ;
#311 = PERSON_AND_ORGANIZATION ( #257, #80 ) ;
#312 = MANIFOLD_SOLID_BREP ( 'Corps-Déplacer/Copier1[2]', #318 ) ;
#313 = LOCAL_TIME ( 9, 50, 54.00000000000000000, #285 ) ;
#314 = CARTESIAN_POINT ( 'NONE',  ( 6.284666409917640040E-14, -2.204364238465235428E-15, 18.00000000000000000 ) ) ;
#315 = ORIENTED_EDGE ( 'NONE', *, *, #183, .T. ) ;
#316 = EDGE_LOOP ( 'NONE', ( #87, #157, #219 ) ) ;
#317 = ORIENTED_EDGE ( 'NONE', *, *, #131, .T. ) ;
#318 = CLOSED_SHELL ( 'NONE', ( #242, #185, #258, #200, #215 ) ) ;
#319 = DIRECTION ( 'NONE',  ( -4.275831445896958607E-31, -1.000000000000000000, -1.224646799147353207E-16 ) ) ;
#320 = EDGE_LOOP ( 'NONE', ( #164, #315, #288, #239 ) ) ;
#321 = AXIS2_PLACEMENT_3D ( 'NONE', #109, #297, #196 ) ;
#322 = CYLINDRICAL_SURFACE ( 'NONE', #36, 2.149999999999994582 ) ;
#323 = CARTESIAN_POINT ( 'NONE',  ( 2.018657302100289285E-13, -1.650000000000007905, 58.00000000000000000 ) ) ;
#324 = DIRECTION ( 'NONE',  ( 0.0000000000000000000, 1.000000000000000000, 0.0000000000000000000 ) ) ;
#325 = CARTESIAN_POINT ( 'NONE',  ( 6.284666409917640040E-14, 1.612241766361490360E-32, 18.00000000000000000 ) ) ;
#326 = DIRECTION ( 'NONE',  ( 0.0000000000000000000, 1.000000000000000000, 0.0000000000000000000 ) ) ;
#327 = AXIS2_PLACEMENT_3D ( 'NONE', #325, #111, #65 ) ;
#328 = APPLICATION_CONTEXT ( 'configuration controlled 3d designs of mechanical parts and assemblies' ) ;
#329 = PERSON_AND_ORGANIZATION_ROLE ( 'design_supplier' ) ;
#330 = DIRECTION ( 'NONE',  ( -3.491481338843133355E-15, 1.224646799147353207E-16, -1.000000000000000000 ) ) ;
#331 = PERSON_AND_ORGANIZATION ( #257, #80 ) ;
#332 = PERSON_AND_ORGANIZATION_ROLE ( 'creator' ) ;
#333 = EDGE_CURVE ( 'NONE', #211, #252, #161, .T. ) ;
#334 = COORDINATED_UNIVERSAL_TIME_OFFSET ( 1, 0, .AHEAD. ) ;
#335 = ORIENTED_EDGE ( 'NONE', *, *, #31, .F. ) ;
#336 = ADVANCED_FACE ( 'NONE', ( #189 ), #178, .T. ) ;
#337 = AXIS2_PLACEMENT_3D ( 'NONE', #299, #165, #94 ) ;
ENDSEC;
END-ISO-10303-21;
