ISO-10303-21;
HEADER;
FILE_DESCRIPTION (( 'STEP AP203' ),
    '1' );
FILE_NAME ('54573.step',
    '2021-09-03T07:50:51',
    ( '' ),
    ( '' ),
    'SwSTEP 2.0',
    'SolidWorks 2019',
    '' );
FILE_SCHEMA (( 'CONFIG_CONTROL_DESIGN' ));
ENDSEC;

DATA;
#1 = DESIGN_CONTEXT ( 'detailed design', #146, 'design' ) ;
#2 = ORIENTED_EDGE ( 'NONE', *, *, #76, .T. ) ;
#3 = EDGE_CURVE ( 'NONE', #109, #41, #87, .T. ) ;
#4 = APPROVAL_STATUS ( 'not_yet_approved' ) ;
#5 = ADVANCED_FACE ( 'NONE', ( #205 ), #221, .F. ) ;
#6 = CARTESIAN_POINT ( 'NONE',  ( 6.284666409917640040E-14, -2.204364238465235428E-15, 18.00000000000000000 ) ) ;
#7 = LINE ( 'NONE', #121, #253 ) ;
#8 = ORIENTED_EDGE ( 'NONE', *, *, #3, .T. ) ;
#9 = ADVANCED_FACE ( 'NONE', ( #160 ), #294, .T. ) ;
#10 = CARTESIAN_POINT ( 'NONE',  ( 2.602374448188110558E-16, -2.124999999999995115, -2.602374448188128308E-16 ) ) ;
#11 = DIRECTION ( 'NONE',  ( -3.491481338843133355E-15, 1.224646799147353207E-16, -1.000000000000000000 ) ) ;
#12 = CARTESIAN_POINT ( 'NONE',  ( 0.0000000000000000000, 0.0000000000000000000, 0.0000000000000000000 ) ) ;
#13 = DIRECTION ( 'NONE',  ( -3.491481338843133355E-15, 1.224646799147353207E-16, -1.000000000000000000 ) ) ;
#14 = DIRECTION ( 'NONE',  ( -3.491481338843133355E-15, 1.224646799147353207E-16, -1.000000000000000000 ) ) ;
#15 = AXIS2_PLACEMENT_3D ( 'NONE', #6, #58, #321 ) ;
#16 = ORIENTED_EDGE ( 'NONE', *, *, #198, .T. ) ;
#17 = APPROVAL ( #4, 'UNSPECIFIED' ) ;
#18 = CIRCLE ( 'NONE', #219, 2.124999999999996003 ) ;
#19 = APPROVAL ( #275, 'UNSPECIFIED' ) ;
#20 = APPROVAL_ROLE ( '' ) ;
#21 = EDGE_CURVE ( 'NONE', #109, #277, #103, .T. ) ;
#22 = MECHANICAL_CONTEXT ( 'NONE', #45, 'mechanical' ) ;
#23 = DIRECTION ( 'NONE',  ( 3.625279895317160608E-31, 1.000000000000000000, 1.020425574104007204E-16 ) ) ;
#24 = CONICAL_SURFACE ( 'NONE', #94, 2.124999999999993783, 1.029744258676649649 ) ;
#25 = ORIENTED_EDGE ( 'NONE', *, *, #76, .F. ) ;
#26 = LINE ( 'NONE', #142, #128 ) ;
#27 = CARTESIAN_POINT ( 'NONE',  ( 1.920314736363723472E-13, -6.735557395310442615E-15, 55.00000000000000000 ) ) ;
#28 = DATE_AND_TIME ( #175, #140 ) ;
#29 = AXIS2_PLACEMENT_3D ( 'NONE', #310, #268, #164 ) ;
#30 = CARTESIAN_POINT ( 'NONE',  ( 0.0000000000000000000, 0.0000000000000000000, 0.0000000000000000000 ) ) ;
#31 = APPROVAL_ROLE ( '' ) ;
#32 = LINE ( 'NONE', #270, #178 ) ;
#33 = ADVANCED_FACE ( 'NONE', ( #174 ), #139, .T. ) ;
#34 = APPROVAL_DATE_TIME ( #276, #19 ) ;
#35 = CONICAL_SURFACE ( 'NONE', #313, 1.625000000000000444, 0.7853981633974476129 ) ;
#36 = ORIENTED_EDGE ( 'NONE', *, *, #166, .F. ) ;
#37 = FACE_OUTER_BOUND ( 'NONE', #286, .T. ) ;
#38 = ORIENTED_EDGE ( 'NONE', *, *, #247, .T. ) ;
#39 = DIRECTION ( 'NONE',  ( -4.275831445896958607E-31, -1.000000000000000000, -1.224646799147353207E-16 ) ) ;
#40 = LINE ( 'NONE', #72, #336 ) ;
#41 = VERTEX_POINT ( 'NONE', #252 ) ;
#42 = CIRCLE ( 'NONE', #234, 2.124999999999993783 ) ;
#43 = VECTOR ( 'NONE', #102, 1000.000000000000000 ) ;
#44 = EDGE_CURVE ( 'NONE', #277, #186, #26, .T. ) ;
#45 = APPLICATION_CONTEXT ( 'configuration controlled 3d designs of mechanical parts and assemblies' ) ;
#46 = AXIS2_PLACEMENT_3D ( 'NONE', #12, #184, #180 ) ;
#47 = EDGE_CURVE ( 'NONE', #248, #335, #265, .T. ) ;
#48 = LOCAL_TIME ( 9, 50, 51.00000000000000000, #115 ) ;
#49 = APPLICATION_PROTOCOL_DEFINITION ( 'international standard', 'config_control_design', 1994, #146 ) ;
#50 = CARTESIAN_POINT ( 'NONE',  ( 0.0000000000000000000, 0.0000000000000000000, 0.0000000000000000000 ) ) ;
#51 = APPROVAL_ROLE ( '' ) ;
#52 = EDGE_LOOP ( 'NONE', ( #320, #217, #209, #306 ) ) ;
#53 = PERSON_AND_ORGANIZATION ( #251, #240 ) ;
#54 = SECURITY_CLASSIFICATION ( '', '', #200 ) ;
#55 = DIRECTION ( 'NONE',  ( -3.491481338843133355E-15, 1.224646799147353207E-16, -1.000000000000000000 ) ) ;
#56 = FACE_OUTER_BOUND ( 'NONE', #176, .T. ) ;
#57 = DIRECTION ( 'NONE',  ( 3.491481338843133355E-15, -1.224646799147353207E-16, 1.000000000000000000 ) ) ;
#58 = DIRECTION ( 'NONE',  ( -3.491481338843133355E-15, 1.224646799147353207E-16, -1.000000000000000000 ) ) ;
#59 = DATE_TIME_ROLE ( 'classification_date' ) ;
#60 = DIRECTION ( 'NONE',  ( 0.0000000000000000000, 1.000000000000000000, 0.0000000000000000000 ) ) ;
#61 = EDGE_CURVE ( 'NONE', #41, #335, #90, .T. ) ;
#62 = LOCAL_TIME ( 9, 50, 51.00000000000000000, #117 ) ;
#63 = VERTEX_POINT ( 'NONE', #260 ) ;
#64 = CARTESIAN_POINT ( 'NONE',  ( 4.458023981983511746E-15, -2.124999999999993783, 1.276828815433575404 ) ) ;
#65 = MANIFOLD_SOLID_BREP ( 'Corps-Déplacer/Copier1[2]', #203 ) ;
#66 = MANIFOLD_SOLID_BREP ( 'Corps-Déplacer/Copier1[1]', #147 ) ;
#67 = PRODUCT_DEFINITION_SHAPE ( 'NONE', 'NONE',  #138 ) ;
#68 = AXIS2_PLACEMENT_3D ( 'NONE', #101, #14, #235 ) ;
#69 = DIRECTION ( 'NONE',  ( -3.491481338843133355E-15, 1.224646799147353207E-16, -1.000000000000000000 ) ) ;
#70 = DIRECTION ( 'NONE',  ( 3.491481338843133355E-15, -1.224646799147353207E-16, 1.000000000000000000 ) ) ;
#71 = PERSON_AND_ORGANIZATION_ROLE ( 'creator' ) ;
#72 = CARTESIAN_POINT ( 'NONE',  ( 4.458023981983511746E-15, -2.124999999999993783, 1.276828815433575404 ) ) ;
#73 = CC_DESIGN_PERSON_AND_ORGANIZATION_ASSIGNMENT ( #289, #271, ( #138 ) ) ;
#74 = ORIENTED_EDGE ( 'NONE', *, *, #21, .F. ) ;
#75 = ORIENTED_EDGE ( 'NONE', *, *, #100, .T. ) ;
#76 = EDGE_CURVE ( 'NONE', #317, #334, #42, .T. ) ;
#77 = VECTOR ( 'NONE', #225, 999.9999999999998863 ) ;
#78 = APPROVAL_PERSON_ORGANIZATION ( #226, #19, #31 ) ;
#79 = CC_DESIGN_DATE_AND_TIME_ASSIGNMENT ( #223, #59, ( #54 ) ) ;
#80 = DIRECTION ( 'NONE',  ( 1.000000000000000000, 0.0000000000000000000, 0.0000000000000000000 ) ) ;
#81 = CIRCLE ( 'NONE', #188, 2.124999999999996003 ) ;
#82 = DATE_AND_TIME ( #137, #62 ) ;
#83 = ORIENTED_EDGE ( 'NONE', *, *, #135, .T. ) ;
#84 = AXIS2_PLACEMENT_3D ( 'NONE', #231, #70, #39 ) ;
#85 = DATE_TIME_ROLE ( 'creation_date' ) ;
#86 = CARTESIAN_POINT ( 'NONE',  ( 1.920314736363723472E-13, -6.735557395310442615E-15, 55.00000000000000000 ) ) ;
#87 = LINE ( 'NONE', #256, #77 ) ;
#88 = FACE_OUTER_BOUND ( 'NONE', #193, .T. ) ;
#89 = DIRECTION ( 'NONE',  ( 4.275831445896957731E-31, 1.000000000000000000, 1.224646799147353207E-16 ) ) ;
#90 = LINE ( 'NONE', #297, #43 ) ;
#91 = DIRECTION ( 'NONE',  ( -3.491481338843133355E-15, 1.224646799147353207E-16, -1.000000000000000000 ) ) ;
#92 = CARTESIAN_POINT ( 'NONE',  ( 6.284666409917640040E-14, 2.124999999999993783, 18.00000000000000000 ) ) ;
#93 = AXIS2_PLACEMENT_3D ( 'NONE', #86, #133, #112 ) ;
#94 = AXIS2_PLACEMENT_3D ( 'NONE', #293, #57, #122 ) ;
#95 = CC_DESIGN_APPROVAL ( #17, ( #138 ) ) ;
#96 = FACE_OUTER_BOUND ( 'NONE', #333, .T. ) ;
#97 = CARTESIAN_POINT ( 'NONE',  ( 1.920314736363723472E-13, 1.624999999999993561, 55.00000000000000000 ) ) ;
#98 = EDGE_LOOP ( 'NONE', ( #237, #16 ) ) ;
#99 = ORIENTED_EDGE ( 'NONE', *, *, #21, .T. ) ;
#100 = EDGE_CURVE ( 'NONE', #277, #109, #244, .T. ) ;
#101 = CARTESIAN_POINT ( 'NONE',  ( 4.458023981983512535E-15, -1.563664321879835138E-16, 1.276828815433575626 ) ) ;
#102 = DIRECTION ( 'NONE',  ( -3.491481338843133355E-15, 1.224646799147353207E-16, -1.000000000000000000 ) ) ;
#103 = CIRCLE ( 'NONE', #304, 1.625000000000000444 ) ;
#104 = CC_DESIGN_DATE_AND_TIME_ASSIGNMENT ( #267, #85, ( #138 ) ) ;
#105 = DIRECTION ( 'NONE',  ( 0.0000000000000000000, 1.000000000000000000, 0.0000000000000000000 ) ) ;
#106 = ORIENTED_EDGE ( 'NONE', *, *, #135, .F. ) ;
#107 = ADVANCED_FACE ( 'NONE', ( #56 ), #207, .T. ) ;
#108 = ORIENTED_EDGE ( 'NONE', *, *, #247, .F. ) ;
#109 = VERTEX_POINT ( 'NONE', #242 ) ;
#110 = CC_DESIGN_PERSON_AND_ORGANIZATION_ASSIGNMENT ( #212, #71, ( #220 ) ) ;
#111 = AXIS2_PLACEMENT_3D ( 'NONE', #302, #125, #130 ) ;
#112 = DIRECTION ( 'NONE',  ( 0.0000000000000000000, 1.000000000000000000, 0.0000000000000000000 ) ) ;
#113 = EDGE_LOOP ( 'NONE', ( #236, #83, #266, #25 ) ) ;
#114 = LOCAL_TIME ( 9, 50, 51.00000000000000000, #322 ) ;
#115 = COORDINATED_UNIVERSAL_TIME_OFFSET ( 1, 0, .AHEAD. ) ;
#116 = APPROVAL_DATE_TIME ( #82, #17 ) ;
#117 = COORDINATED_UNIVERSAL_TIME_OFFSET ( 1, 0, .AHEAD. ) ;
#118 = ORIENTED_EDGE ( 'NONE', *, *, #161, .T. ) ;
#119 = DIRECTION ( 'NONE',  ( -2.468850131082267316E-15, 0.7071067811865471286, -0.7071067811865479058 ) ) ;
#120 = PLANE ( 'NONE',  #167 ) ;
#121 = CARTESIAN_POINT ( 'NONE',  ( 4.718261426802325513E-15, 2.124999999999993783, 1.276828815433575848 ) ) ;
#122 = DIRECTION ( 'NONE',  ( -3.625279895317160608E-31, -1.000000000000000000, -1.020425574104007204E-16 ) ) ;
#123 = COORDINATED_UNIVERSAL_TIME_OFFSET ( 1, 0, .AHEAD. ) ;
#124 = CIRCLE ( 'NONE', #312, 2.125000000000000000 ) ;
#125 = DIRECTION ( 'NONE',  ( -3.491481338843133355E-15, 1.224646799147353207E-16, -1.000000000000000000 ) ) ;
#126 = FACE_OUTER_BOUND ( 'NONE', #113, .T. ) ;
#127 = DIRECTION ( 'NONE',  ( 3.491481338843133355E-15, -1.224646799147353207E-16, 1.000000000000000000 ) ) ;
#128 = VECTOR ( 'NONE', #119, 1000.000000000000000 ) ;
#129 = EDGE_CURVE ( 'NONE', #41, #186, #124, .T. ) ;
#130 = DIRECTION ( 'NONE',  ( 0.0000000000000000000, 1.000000000000000000, 0.0000000000000000000 ) ) ;
#131 = ORIENTED_EDGE ( 'NONE', *, *, #325, .T. ) ;
#132 = PERSON_AND_ORGANIZATION ( #251, #240 ) ;
#133 = DIRECTION ( 'NONE',  ( -3.491481338843133355E-15, 1.224646799147353207E-16, -1.000000000000000000 ) ) ;
#134 = AXIS2_PLACEMENT_3D ( 'NONE', #258, #127, #233 ) ;
#135 = EDGE_CURVE ( 'NONE', #63, #283, #18, .T. ) ;
#136 = DIRECTION ( 'NONE',  ( 0.0000000000000000000, 1.000000000000000000, 0.0000000000000000000 ) ) ;
#137 = CALENDAR_DATE ( 2021, 3, 9 ) ;
#138 = PRODUCT_DEFINITION ( 'UNKNOWN', '', #220, #1 ) ;
#139 = CONICAL_SURFACE ( 'NONE', #154, 2.124999999999993783, 1.029744258676649649 ) ;
#140 = LOCAL_TIME ( 9, 50, 51.00000000000000000, #218 ) ;
#141 = ORIENTED_EDGE ( 'NONE', *, *, #166, .T. ) ;
#142 = CARTESIAN_POINT ( 'NONE',  ( 1.920314736363723472E-13, 1.624999999999993561, 55.00000000000000000 ) ) ;
#143 = DIRECTION ( 'NONE',  ( 0.0000000000000000000, 1.000000000000000000, 0.0000000000000000000 ) ) ;
#144 = DIRECTION ( 'NONE',  ( -3.491481338843133355E-15, 1.224646799147353207E-16, -1.000000000000000000 ) ) ;
#145 = DIRECTION ( 'NONE',  ( -3.625279895317160608E-31, -1.000000000000000000, -1.020425574104007204E-16 ) ) ;
#146 = APPLICATION_CONTEXT ( 'configuration controlled 3d designs of mechanical parts and assemblies' ) ;
#147 = CLOSED_SHELL ( 'NONE', ( #169, #107, #5, #192, #290, #279 ) ) ;
#148 = VERTEX_POINT ( 'NONE', #187 ) ;
#149 = CARTESIAN_POINT ( 'NONE',  ( 9.086141822531014049E-31, 2.124999999999995115, 2.602374448188119433E-16 ) ) ;
#150 = CARTESIAN_POINT ( 'NONE',  ( 1.902857329669507616E-13, -6.674325055353075041E-15, 54.50000000000000000 ) ) ;
#151 = LINE ( 'NONE', #10, #195 ) ;
#152 = PERSON_AND_ORGANIZATION_ROLE ( 'design_supplier' ) ;
#153 = CARTESIAN_POINT ( 'NONE',  ( 4.718261426802325513E-15, 2.124999999999993783, 1.276828815433575848 ) ) ;
#154 = AXIS2_PLACEMENT_3D ( 'NONE', #269, #292, #145 ) ;
#155 = CC_DESIGN_APPROVAL ( #19, ( #54 ) ) ;
#156 = DIRECTION ( 'NONE',  ( 1.798245827342160317E-15, -0.8571673007021098911, 0.5150380749100582634 ) ) ;
#157 = PERSON_AND_ORGANIZATION_ROLE ( 'classification_officer' ) ;
#158 =( NAMED_UNIT ( * ) SI_UNIT ( $, .STERADIAN. ) SOLID_ANGLE_UNIT ( ) );
#159 = CARTESIAN_POINT ( 'NONE',  ( 1.902857329669507616E-13, 2.124999999999993783, 54.50000000000000000 ) ) ;
#160 = FACE_OUTER_BOUND ( 'NONE', #246, .T. ) ;
#161 = EDGE_CURVE ( 'NONE', #148, #317, #40, .T. ) ;
#162 = CARTESIAN_POINT ( 'NONE',  ( 1.902857329669507616E-13, -6.674325055353075041E-15, 54.50000000000000000 ) ) ;
#163 = ORIENTED_EDGE ( 'NONE', *, *, #44, .F. ) ;
#164 = DIRECTION ( 'NONE',  ( 4.275831445896958607E-31, 1.000000000000000000, 1.224646799147353454E-16 ) ) ;
#165 = ORIENTED_EDGE ( 'NONE', *, *, #161, .F. ) ;
#166 = EDGE_CURVE ( 'NONE', #283, #63, #172, .T. ) ;
#167 = AXIS2_PLACEMENT_3D ( 'NONE', #300, #91, #199 ) ;
#168 = PERSON_AND_ORGANIZATION ( #251, #240 ) ;
#169 = ADVANCED_FACE ( 'NONE', ( #37 ), #239, .T. ) ;
#170 = DIRECTION ( 'NONE',  ( 0.0000000000000000000, 0.0000000000000000000, 1.000000000000000000 ) ) ;
#171 = EDGE_LOOP ( 'NONE', ( #141, #131, #238, #211 ) ) ;
#172 = CIRCLE ( 'NONE', #111, 2.124999999999996003 ) ;
#173 = APPROVAL_STATUS ( 'not_yet_approved' ) ;
#174 = FACE_OUTER_BOUND ( 'NONE', #264, .T. ) ;
#175 = CALENDAR_DATE ( 2021, 3, 9 ) ;
#176 = EDGE_LOOP ( 'NONE', ( #38, #197, #210, #332 ) ) ;
#177 = PERSON_AND_ORGANIZATION ( #251, #240 ) ;
#178 = VECTOR ( 'NONE', #144, 1000.000000000000000 ) ;
#179 = EDGE_CURVE ( 'NONE', #334, #317, #182, .T. ) ;
#180 = DIRECTION ( 'NONE',  ( 4.275831445896957731E-31, 1.000000000000000000, 1.224646799147353207E-16 ) ) ;
#181 = ORIENTED_EDGE ( 'NONE', *, *, #179, .T. ) ;
#182 = CIRCLE ( 'NONE', #68, 2.124999999999993783 ) ;
#183 = CC_DESIGN_APPROVAL ( #215, ( #220 ) ) ;
#184 = DIRECTION ( 'NONE',  ( -3.491481338843133355E-15, 1.224646799147353207E-16, -1.000000000000000000 ) ) ;
#185 = ADVANCED_FACE ( 'NONE', ( #126 ), #255, .T. ) ;
#186 = VERTEX_POINT ( 'NONE', #159 ) ;
#187 = CARTESIAN_POINT ( 'NONE',  ( 0.0000000000000000000, 0.0000000000000000000, 0.0000000000000000000 ) ) ;
#188 = AXIS2_PLACEMENT_3D ( 'NONE', #329, #288, #136 ) ;
#189 = CC_DESIGN_PERSON_AND_ORGANIZATION_ASSIGNMENT ( #132, #152, ( #220 ) ) ;
#190 = ORIENTED_EDGE ( 'NONE', *, *, #308, .T. ) ;
#191 = PERSON_AND_ORGANIZATION_ROLE ( 'design_owner' ) ;
#192 = ADVANCED_FACE ( 'NONE', ( #257 ), #230, .T. ) ;
#193 = EDGE_LOOP ( 'NONE', ( #165, #190, #181 ) ) ;
#194 = DIRECTION ( 'NONE',  ( 0.0000000000000000000, 1.000000000000000000, 0.0000000000000000000 ) ) ;
#195 = VECTOR ( 'NONE', #227, 1000.000000000000000 ) ;
#196 = CARTESIAN_POINT ( 'NONE',  ( 1.920314736363723472E-13, -6.735557395310442615E-15, 55.00000000000000000 ) ) ;
#197 = ORIENTED_EDGE ( 'NONE', *, *, #61, .T. ) ;
#198 = EDGE_CURVE ( 'NONE', #335, #248, #81, .T. ) ;
#199 = DIRECTION ( 'NONE',  ( 4.275831445896958607E-31, 1.000000000000000000, 1.224646799147353207E-16 ) ) ;
#200 = SECURITY_CLASSIFICATION_LEVEL ( 'unclassified' ) ;
#201 = CALENDAR_DATE ( 2021, 3, 9 ) ;
#202 = DIRECTION ( 'NONE',  ( -3.491481338843133355E-15, 1.224646799147353207E-16, -1.000000000000000000 ) ) ;
#203 = CLOSED_SHELL ( 'NONE', ( #284, #214, #33, #185, #9 ) ) ;
#204 = CALENDAR_DATE ( 2021, 3, 9 ) ;
#205 = FACE_OUTER_BOUND ( 'NONE', #98, .T. ) ;
#206 = APPROVAL_PERSON_ORGANIZATION ( #315, #17, #20 ) ;
#207 = CYLINDRICAL_SURFACE ( 'NONE', #29, 2.124999999999997780 ) ;
#208 = CARTESIAN_POINT ( 'NONE',  ( 0.0000000000000000000, 0.0000000000000000000, 0.0000000000000000000 ) ) ;
#209 = ORIENTED_EDGE ( 'NONE', *, *, #299, .T. ) ;
#210 = ORIENTED_EDGE ( 'NONE', *, *, #47, .F. ) ;
#211 = ORIENTED_EDGE ( 'NONE', *, *, #314, .F. ) ;
#212 = PERSON_AND_ORGANIZATION ( #251, #240 ) ;
#213 = CARTESIAN_POINT ( 'NONE',  ( 4.458023981983512535E-15, -1.563664321879835138E-16, 1.276828815433575626 ) ) ;
#214 = ADVANCED_FACE ( 'NONE', ( #88 ), #24, .T. ) ;
#215 = APPROVAL ( #173, 'UNSPECIFIED' ) ;
#216 = CALENDAR_DATE ( 2021, 3, 9 ) ;
#217 = ORIENTED_EDGE ( 'NONE', *, *, #129, .T. ) ;
#218 = COORDINATED_UNIVERSAL_TIME_OFFSET ( 1, 0, .AHEAD. ) ;
#219 = AXIS2_PLACEMENT_3D ( 'NONE', #307, #327, #282 ) ;
#220 = PRODUCT_DEFINITION_FORMATION_WITH_SPECIFIED_SOURCE ( 'ANY', '', #281, .NOT_KNOWN. ) ;
#221 = PLANE ( 'NONE',  #84 ) ;
#222 = DIRECTION ( 'NONE',  ( -3.491481338843133355E-15, 1.224646799147353207E-16, -1.000000000000000000 ) ) ;
#223 = DATE_AND_TIME ( #204, #228 ) ;
#224 = DIRECTION ( 'NONE',  ( 1.903218546456022717E-15, 0.8571673007021097801, 0.5150380749100585964 ) ) ;
#225 = DIRECTION ( 'NONE',  ( -2.382254525458718258E-15, -0.7071067811865469066, -0.7071067811865482389 ) ) ;
#226 = PERSON_AND_ORGANIZATION ( #251, #240 ) ;
#227 = DIRECTION ( 'NONE',  ( -3.491481338843133355E-15, 1.224646799147353207E-16, -1.000000000000000000 ) ) ;
#228 = LOCAL_TIME ( 9, 50, 51.00000000000000000, #123 ) ;
#229 = APPROVAL_DATE_TIME ( #28, #215 ) ;
#230 = CYLINDRICAL_SURFACE ( 'NONE', #291, 2.124999999999997780 ) ;
#231 = CARTESIAN_POINT ( 'NONE',  ( 6.284666409917640040E-14, 1.593494769078217277E-32, 18.00000000000000000 ) ) ;
#232 = DIRECTION ( 'NONE',  ( 4.275831445896958607E-31, 1.000000000000000000, 1.224646799147353454E-16 ) ) ;
#233 = DIRECTION ( 'NONE',  ( -4.275831445896958607E-31, -1.000000000000000000, -1.224646799147353207E-16 ) ) ;
#234 = AXIS2_PLACEMENT_3D ( 'NONE', #213, #222, #23 ) ;
#235 = DIRECTION ( 'NONE',  ( 3.625279895317160608E-31, 1.000000000000000000, 1.020425574104007204E-16 ) ) ;
#236 = ORIENTED_EDGE ( 'NONE', *, *, #325, .F. ) ;
#237 = ORIENTED_EDGE ( 'NONE', *, *, #47, .T. ) ;
#238 = ORIENTED_EDGE ( 'NONE', *, *, #179, .F. ) ;
#239 = CONICAL_SURFACE ( 'NONE', #319, 1.625000000000000444, 0.7853981633974476129 ) ;
#240 = ORGANIZATION ( 'UNSPECIFIED', 'UNSPECIFIED', '' ) ;
#241 = UNCERTAINTY_MEASURE_WITH_UNIT (LENGTH_MEASURE( 1.000000000000000082E-05 ), #328, 'distance_accuracy_value', 'NONE');
#242 = CARTESIAN_POINT ( 'NONE',  ( 1.913882245765016922E-13, -1.625000000000007105, 55.00000000000000000 ) ) ;
#243 = APPLICATION_PROTOCOL_DEFINITION ( 'international standard', 'config_control_design', 1994, #45 ) ;
#244 = CIRCLE ( 'NONE', #93, 1.625000000000000444 ) ;
#245 = AXIS2_PLACEMENT_3D ( 'NONE', #50, #170, #80 ) ;
#246 = EDGE_LOOP ( 'NONE', ( #36, #106 ) ) ;
#247 = EDGE_CURVE ( 'NONE', #186, #41, #316, .T. ) ;
#248 = VERTEX_POINT ( 'NONE', #323 ) ;
#249 = ORIENTED_EDGE ( 'NONE', *, *, #308, .F. ) ;
#250 = FACE_OUTER_BOUND ( 'NONE', #171, .T. ) ;
#251 = PERSON ( 'UNSPECIFIED', 'UNSPECIFIED', 'UNSPECIFIED', ('UNSPECIFIED'), ('UNSPECIFIED'), ('UNSPECIFIED') ) ;
#252 = CARTESIAN_POINT ( 'NONE',  ( 1.268264359778822701E-13, -2.125000000000006661, 54.50000000000000000 ) ) ;
#253 = VECTOR ( 'NONE', #224, 999.9999999999998863 ) ;
#254 = SHAPE_DEFINITION_REPRESENTATION ( #67, #287 ) ;
#255 = CYLINDRICAL_SURFACE ( 'NONE', #46, 2.124999999999995115 ) ;
#256 = CARTESIAN_POINT ( 'NONE',  ( 1.922304787412337823E-13, -1.625000000000007105, 55.00000000000000000 ) ) ;
#257 = FACE_OUTER_BOUND ( 'NONE', #52, .T. ) ;
#258 = CARTESIAN_POINT ( 'NONE',  ( 6.284666409917640040E-14, 1.593494769078217277E-32, 18.00000000000000000 ) ) ;
#259 = DIRECTION ( 'NONE',  ( 0.0000000000000000000, 1.000000000000000000, 0.0000000000000000000 ) ) ;
#260 = CARTESIAN_POINT ( 'NONE',  ( 3.391258148539873671E-14, -2.124999999999997780, 18.00000000000000000 ) ) ;
#261 = APPROVAL_PERSON_ORGANIZATION ( #53, #215, #51 ) ;
#262 = CC_DESIGN_PERSON_AND_ORGANIZATION_ASSIGNMENT ( #168, #191, ( #281 ) ) ;
#263 = DIRECTION ( 'NONE',  ( -3.491481338843133355E-15, 1.224646799147353207E-16, -1.000000000000000000 ) ) ;
#264 = EDGE_LOOP ( 'NONE', ( #249, #118, #2 ) ) ;
#265 = CIRCLE ( 'NONE', #15, 2.124999999999996003 ) ;
#266 = ORIENTED_EDGE ( 'NONE', *, *, #314, .T. ) ;
#267 = DATE_AND_TIME ( #216, #48 ) ;
#268 = DIRECTION ( 'NONE',  ( -3.491481338843133355E-15, 1.224646799147353207E-16, -1.000000000000000000 ) ) ;
#269 = CARTESIAN_POINT ( 'NONE',  ( 4.458023981983512535E-15, -1.563664321879835138E-16, 1.276828815433575626 ) ) ;
#270 = CARTESIAN_POINT ( 'NONE',  ( 9.086141822531028062E-31, 2.124999999999997780, 2.602374448188123377E-16 ) ) ;
#271 = PERSON_AND_ORGANIZATION_ROLE ( 'creator' ) ;
#272 = FACE_OUTER_BOUND ( 'NONE', #273, .T. ) ;
#273 = EDGE_LOOP ( 'NONE', ( #311, #99, #309, #296 ) ) ;
#274 = CYLINDRICAL_SURFACE ( 'NONE', #337, 2.124999999999995115 ) ;
#275 = APPROVAL_STATUS ( 'not_yet_approved' ) ;
#276 = DATE_AND_TIME ( #201, #114 ) ;
#277 = VERTEX_POINT ( 'NONE', #97 ) ;
#278 = CARTESIAN_POINT ( 'NONE',  ( 1.920314736363723472E-13, -6.735557395310442615E-15, 55.00000000000000000 ) ) ;
#279 = ADVANCED_FACE ( 'NONE', ( #96 ), #120, .F. ) ;
#280 = CARTESIAN_POINT ( 'NONE',  ( 1.268264359778823711E-13, -2.124999999999997780, 18.00000000000000000 ) ) ;
#281 = PRODUCT ( '54573', '54573', '', ( #22 ) ) ;
#282 = DIRECTION ( 'NONE',  ( 0.0000000000000000000, 1.000000000000000000, 0.0000000000000000000 ) ) ;
#283 = VERTEX_POINT ( 'NONE', #92 ) ;
#284 = ADVANCED_FACE ( 'NONE', ( #250 ), #274, .T. ) ;
#285 = VECTOR ( 'NONE', #202, 1000.000000000000000 ) ;
#286 = EDGE_LOOP ( 'NONE', ( #75, #8, #108, #163 ) ) ;
#287 = ADVANCED_BREP_SHAPE_REPRESENTATION ( '54573', ( #66, #65, #245 ), #324 ) ;
#288 = DIRECTION ( 'NONE',  ( -3.491481338843133355E-15, 1.224646799147353207E-16, -1.000000000000000000 ) ) ;
#289 = PERSON_AND_ORGANIZATION ( #251, #240 ) ;
#290 = ADVANCED_FACE ( 'NONE', ( #272 ), #35, .T. ) ;
#291 = AXIS2_PLACEMENT_3D ( 'NONE', #208, #13, #232 ) ;
#292 = DIRECTION ( 'NONE',  ( 3.491481338843133355E-15, -1.224646799147353207E-16, 1.000000000000000000 ) ) ;
#293 = CARTESIAN_POINT ( 'NONE',  ( 4.458023981983512535E-15, -1.563664321879835138E-16, 1.276828815433575626 ) ) ;
#294 = PLANE ( 'NONE',  #134 ) ;
#295 = LINE ( 'NONE', #149, #285 ) ;
#296 = ORIENTED_EDGE ( 'NONE', *, *, #129, .F. ) ;
#297 = CARTESIAN_POINT ( 'NONE',  ( 2.602374448188114010E-16, -2.124999999999997780, -2.602374448188131759E-16 ) ) ;
#298 = DIRECTION ( 'NONE',  ( -3.491481338843133355E-15, 1.224646799147353207E-16, -1.000000000000000000 ) ) ;
#299 = EDGE_CURVE ( 'NONE', #186, #248, #32, .T. ) ;
#300 = CARTESIAN_POINT ( 'NONE',  ( 1.920314736363723472E-13, 1.218554823412749590E-32, 55.00000000000000000 ) ) ;
#301 = PRODUCT_RELATED_PRODUCT_CATEGORY ( 'detail', '', ( #281 ) ) ;
#302 = CARTESIAN_POINT ( 'NONE',  ( 6.284666409917640040E-14, -2.204364238465235428E-15, 18.00000000000000000 ) ) ;
#303 = ORIENTED_EDGE ( 'NONE', *, *, #100, .F. ) ;
#304 = AXIS2_PLACEMENT_3D ( 'NONE', #196, #331, #194 ) ;
#305 = AXIS2_PLACEMENT_3D ( 'NONE', #150, #11, #143 ) ;
#306 = ORIENTED_EDGE ( 'NONE', *, *, #198, .F. ) ;
#307 = CARTESIAN_POINT ( 'NONE',  ( 6.284666409917640040E-14, -2.204364238465235428E-15, 18.00000000000000000 ) ) ;
#308 = EDGE_CURVE ( 'NONE', #148, #334, #7, .T. ) ;
#309 = ORIENTED_EDGE ( 'NONE', *, *, #44, .T. ) ;
#310 = CARTESIAN_POINT ( 'NONE',  ( 0.0000000000000000000, 0.0000000000000000000, 0.0000000000000000000 ) ) ;
#311 = ORIENTED_EDGE ( 'NONE', *, *, #3, .F. ) ;
#312 = AXIS2_PLACEMENT_3D ( 'NONE', #162, #263, #105 ) ;
#313 = AXIS2_PLACEMENT_3D ( 'NONE', #27, #298, #60 ) ;
#314 = EDGE_CURVE ( 'NONE', #283, #334, #295, .T. ) ;
#315 = PERSON_AND_ORGANIZATION ( #251, #240 ) ;
#316 = CIRCLE ( 'NONE', #305, 2.125000000000000000 ) ;
#317 = VERTEX_POINT ( 'NONE', #64 ) ;
#318 = CC_DESIGN_PERSON_AND_ORGANIZATION_ASSIGNMENT ( #177, #157, ( #54 ) ) ;
#319 = AXIS2_PLACEMENT_3D ( 'NONE', #278, #69, #259 ) ;
#320 = ORIENTED_EDGE ( 'NONE', *, *, #61, .F. ) ;
#321 = DIRECTION ( 'NONE',  ( 0.0000000000000000000, 1.000000000000000000, 0.0000000000000000000 ) ) ;
#322 = COORDINATED_UNIVERSAL_TIME_OFFSET ( 1, 0, .AHEAD. ) ;
#323 = CARTESIAN_POINT ( 'NONE',  ( 6.284666409917640040E-14, 2.124999999999993783, 18.00000000000000000 ) ) ;
#324 =( GEOMETRIC_REPRESENTATION_CONTEXT ( 3 ) GLOBAL_UNCERTAINTY_ASSIGNED_CONTEXT ( ( #241 ) ) GLOBAL_UNIT_ASSIGNED_CONTEXT ( ( #328, #326, #158 ) ) REPRESENTATION_CONTEXT ( 'NONE', 'WORKASPACE' ) );
#325 = EDGE_CURVE ( 'NONE', #63, #317, #151, .T. ) ;
#326 =( NAMED_UNIT ( * ) PLANE_ANGLE_UNIT ( ) SI_UNIT ( $, .RADIAN. ) );
#327 = DIRECTION ( 'NONE',  ( -3.491481338843133355E-15, 1.224646799147353207E-16, -1.000000000000000000 ) ) ;
#328 =( LENGTH_UNIT ( ) NAMED_UNIT ( * ) SI_UNIT ( .MILLI., .METRE. ) );
#329 = CARTESIAN_POINT ( 'NONE',  ( 6.284666409917640040E-14, -2.204364238465235428E-15, 18.00000000000000000 ) ) ;
#330 = CC_DESIGN_SECURITY_CLASSIFICATION ( #54, ( #220 ) ) ;
#331 = DIRECTION ( 'NONE',  ( -3.491481338843133355E-15, 1.224646799147353207E-16, -1.000000000000000000 ) ) ;
#332 = ORIENTED_EDGE ( 'NONE', *, *, #299, .F. ) ;
#333 = EDGE_LOOP ( 'NONE', ( #303, #74 ) ) ;
#334 = VERTEX_POINT ( 'NONE', #153 ) ;
#335 = VERTEX_POINT ( 'NONE', #280 ) ;
#336 = VECTOR ( 'NONE', #156, 1000.000000000000000 ) ;
#337 = AXIS2_PLACEMENT_3D ( 'NONE', #30, #55, #89 ) ;
ENDSEC;
END-ISO-10303-21;
