ISO-10303-21;
HEADER;
FILE_DESCRIPTION (( 'STEP AP203' ),
    '1' );
FILE_NAME ('54572.step',
    '2021-09-03T07:50:48',
    ( '' ),
    ( '' ),
    'SwSTEP 2.0',
    'SolidWorks 2019',
    '' );
FILE_SCHEMA (( 'CONFIG_CONTROL_DESIGN' ));
ENDSEC;

DATA;
#1 = DIRECTION ( 'NONE',  ( -3.491481338843133355E-15, 1.224646799147353207E-16, -1.000000000000000000 ) ) ;
#2 = CIRCLE ( 'NONE', #302, 1.600000000000000533 ) ;
#3 = CARTESIAN_POINT ( 'NONE',  ( 0.0000000000000000000, 0.0000000000000000000, 0.0000000000000000000 ) ) ;
#4 = DIRECTION ( 'NONE',  ( 3.491481338843133355E-15, -1.224646799147353207E-16, 1.000000000000000000 ) ) ;
#5 = DIRECTION ( 'NONE',  ( -3.491481338843133355E-15, 1.224646799147353207E-16, -1.000000000000000000 ) ) ;
#6 = CIRCLE ( 'NONE', #234, 2.099999999999996092 ) ;
#7 = APPROVAL_PERSON_ORGANIZATION ( #253, #271, #9 ) ;
#8 = ORIENTED_EDGE ( 'NONE', *, *, #15, .T. ) ;
#9 = APPROVAL_ROLE ( '' ) ;
#10 = VERTEX_POINT ( 'NONE', #23 ) ;
#11 = DATE_AND_TIME ( #81, #21 ) ;
#12 = ORIENTED_EDGE ( 'NONE', *, *, #198, .F. ) ;
#13 = EDGE_LOOP ( 'NONE', ( #224, #270 ) ) ;
#14 = ADVANCED_FACE ( 'NONE', ( #77 ), #126, .T. ) ;
#15 = EDGE_CURVE ( 'NONE', #229, #10, #73, .T. ) ;
#16 = CC_DESIGN_APPROVAL ( #181, ( #291 ) ) ;
#17 = ORIENTED_EDGE ( 'NONE', *, *, #335, .F. ) ;
#18 = CARTESIAN_POINT ( 'NONE',  ( 1.250776336914629114E-13, -2.099999999999998312, 17.00000000000000000 ) ) ;
#19 = FACE_OUTER_BOUND ( 'NONE', #287, .T. ) ;
#20 = CARTESIAN_POINT ( 'NONE',  ( 5.935518276033326704E-14, 2.099999999999993872, 17.00000000000000000 ) ) ;
#21 = LOCAL_TIME ( 9, 50, 48.00000000000000000, #293 ) ;
#22 = LINE ( 'NONE', #183, #186 ) ;
#23 = CARTESIAN_POINT ( 'NONE',  ( 4.662752468839946745E-15, 2.099999999999993872, 1.261807299957887096 ) ) ;
#24 = AXIS2_PLACEMENT_3D ( 'NONE', #133, #192, #38 ) ;
#25 = SECURITY_CLASSIFICATION_LEVEL ( 'unclassified' ) ;
#26 =( NAMED_UNIT ( * ) PLANE_ANGLE_UNIT ( ) SI_UNIT ( $, .RADIAN. ) );
#27 = LINE ( 'NONE', #318, #142 ) ;
#28 = CALENDAR_DATE ( 2021, 3, 9 ) ;
#29 = APPROVAL_PERSON_ORGANIZATION ( #267, #259, #244 ) ;
#30 = FACE_OUTER_BOUND ( 'NONE', #292, .T. ) ;
#31 = ORIENTED_EDGE ( 'NONE', *, *, #327, .F. ) ;
#32 = CIRCLE ( 'NONE', #315, 2.100000000000000089 ) ;
#33 = EDGE_LOOP ( 'NONE', ( #167, #34, #132, #249 ) ) ;
#34 = ORIENTED_EDGE ( 'NONE', *, *, #317, .T. ) ;
#35 = CIRCLE ( 'NONE', #78, 2.099999999999993872 ) ;
#36 = EDGE_CURVE ( 'NONE', #53, #10, #114, .T. ) ;
#37 = APPLICATION_PROTOCOL_DEFINITION ( 'international standard', 'config_control_design', 1994, #61 ) ;
#38 = DIRECTION ( 'NONE',  ( 1.000000000000000000, 0.0000000000000000000, 0.0000000000000000000 ) ) ;
#39 = CARTESIAN_POINT ( 'NONE',  ( 0.0000000000000000000, 0.0000000000000000000, 0.0000000000000000000 ) ) ;
#40 = CYLINDRICAL_SURFACE ( 'NONE', #241, 2.099999999999995204 ) ;
#41 = CARTESIAN_POINT ( 'NONE',  ( 4.405576641019001513E-15, -2.099999999999993872, 1.261807299957886652 ) ) ;
#42 = ADVANCED_FACE ( 'NONE', ( #243 ), #159, .T. ) ;
#43 = DIRECTION ( 'NONE',  ( -3.491481338843133355E-15, 1.224646799147353207E-16, -1.000000000000000000 ) ) ;
#44 = DIRECTION ( 'NONE',  ( 4.275831445896958607E-31, 1.000000000000000000, 1.224646799147353207E-16 ) ) ;
#45 = AXIS2_PLACEMENT_3D ( 'NONE', #205, #64, #279 ) ;
#46 = ADVANCED_FACE ( 'NONE', ( #125 ), #121, .F. ) ;
#47 = DIRECTION ( 'NONE',  ( 3.491481338843133355E-15, -1.224646799147353207E-16, 1.000000000000000000 ) ) ;
#48 = AXIS2_PLACEMENT_3D ( 'NONE', #39, #43, #177 ) ;
#49 = CARTESIAN_POINT ( 'NONE',  ( 5.935518276033326704E-14, -2.081899558550500280E-15, 17.00000000000000000 ) ) ;
#50 = LOCAL_TIME ( 9, 50, 48.00000000000000000, #100 ) ;
#51 = CARTESIAN_POINT ( 'NONE',  ( 4.405576641019002302E-15, -1.545268271034190364E-16, 1.261807299957886874 ) ) ;
#52 = DIRECTION ( 'NONE',  ( 4.275831445896958607E-31, 1.000000000000000000, 1.224646799147353207E-16 ) ) ;
#53 = VERTEX_POINT ( 'NONE', #3 ) ;
#54 = CALENDAR_DATE ( 2021, 3, 9 ) ;
#55 = LOCAL_TIME ( 9, 50, 48.00000000000000000, #147 ) ;
#56 = VERTEX_POINT ( 'NONE', #18 ) ;
#57 = MANIFOLD_SOLID_BREP ( 'Corps-Déplacer/Copier1[1]', #105 ) ;
#58 = CC_DESIGN_PERSON_AND_ORGANIZATION_ASSIGNMENT ( #256, #225, ( #231 ) ) ;
#59 = DIRECTION ( 'NONE',  ( -3.491481338843133355E-15, 1.224646799147353207E-16, -1.000000000000000000 ) ) ;
#60 = ORGANIZATION ( 'UNSPECIFIED', 'UNSPECIFIED', '' ) ;
#61 = APPLICATION_CONTEXT ( 'configuration controlled 3d designs of mechanical parts and assemblies' ) ;
#62 = ADVANCED_FACE ( 'NONE', ( #157 ), #278, .F. ) ;
#63 = MANIFOLD_SOLID_BREP ( 'Corps-Déplacer/Copier1[2]', #200 ) ;
#64 = DIRECTION ( 'NONE',  ( -3.491481338843133355E-15, 1.224646799147353207E-16, -1.000000000000000000 ) ) ;
#65 = DIRECTION ( 'NONE',  ( -3.491481338843133355E-15, 1.224646799147353207E-16, -1.000000000000000000 ) ) ;
#66 = DIRECTION ( 'NONE',  ( -3.491481338843133355E-15, 1.224646799147353207E-16, -1.000000000000000000 ) ) ;
#67 = CARTESIAN_POINT ( 'NONE',  ( 4.662752468839946745E-15, 2.099999999999993872, 1.261807299957887096 ) ) ;
#68 = AXIS2_PLACEMENT_3D ( 'NONE', #163, #193, #265 ) ;
#69 = PRODUCT_RELATED_PRODUCT_CATEGORY ( 'detail', '', ( #231 ) ) ;
#70 = DIRECTION ( 'NONE',  ( -3.491481338843133355E-15, 1.224646799147353207E-16, -1.000000000000000000 ) ) ;
#71 = CARTESIAN_POINT ( 'NONE',  ( 1.902857329669507616E-13, -6.674325055353075041E-15, 54.50000000000000000 ) ) ;
#72 = CONICAL_SURFACE ( 'NONE', #45, 1.600000000000000533, 0.7853981633974476129 ) ;
#73 = LINE ( 'NONE', #247, #136 ) ;
#74 = DIRECTION ( 'NONE',  ( -3.491481338843133355E-15, 1.224646799147353207E-16, -1.000000000000000000 ) ) ;
#75 = CARTESIAN_POINT ( 'NONE',  ( 0.0000000000000000000, 0.0000000000000000000, 0.0000000000000000000 ) ) ;
#76 = DIRECTION ( 'NONE',  ( -2.382254525458718258E-15, -0.7071067811865469066, -0.7071067811865482389 ) ) ;
#77 = FACE_OUTER_BOUND ( 'NONE', #33, .T. ) ;
#78 = AXIS2_PLACEMENT_3D ( 'NONE', #95, #66, #209 ) ;
#79 = PERSON_AND_ORGANIZATION ( #98, #60 ) ;
#80 = ORIENTED_EDGE ( 'NONE', *, *, #36, .F. ) ;
#81 = CALENDAR_DATE ( 2021, 3, 9 ) ;
#82 = ORIENTED_EDGE ( 'NONE', *, *, #94, .T. ) ;
#83 = DATE_AND_TIME ( #322, #213 ) ;
#84 = CC_DESIGN_PERSON_AND_ORGANIZATION_ASSIGNMENT ( #165, #90, ( #291 ) ) ;
#85 = AXIS2_PLACEMENT_3D ( 'NONE', #237, #281, #337 ) ;
#86 = ORIENTED_EDGE ( 'NONE', *, *, #198, .T. ) ;
#87 = AXIS2_PLACEMENT_3D ( 'NONE', #160, #129, #52 ) ;
#88 = APPROVAL_DATE_TIME ( #227, #259 ) ;
#89 = ORIENTED_EDGE ( 'NONE', *, *, #238, .F. ) ;
#90 = PERSON_AND_ORGANIZATION_ROLE ( 'creator' ) ;
#91 = DESIGN_CONTEXT ( 'detailed design', #61, 'design' ) ;
#92 = PERSON_AND_ORGANIZATION ( #98, #60 ) ;
#93 = CARTESIAN_POINT ( 'NONE',  ( 1.902857329669507616E-13, 2.099999999999993872, 54.50000000000000000 ) ) ;
#94 = EDGE_CURVE ( 'NONE', #112, #321, #239, .T. ) ;
#95 = CARTESIAN_POINT ( 'NONE',  ( 4.405576641019002302E-15, -1.545268271034190364E-16, 1.261807299957886874 ) ) ;
#96 = LINE ( 'NONE', #310, #286 ) ;
#97 = CARTESIAN_POINT ( 'NONE',  ( 4.405576641019001513E-15, -2.099999999999993872, 1.261807299957886652 ) ) ;
#98 = PERSON ( 'UNSPECIFIED', 'UNSPECIFIED', 'UNSPECIFIED', ('UNSPECIFIED'), ('UNSPECIFIED'), ('UNSPECIFIED') ) ;
#99 = CARTESIAN_POINT ( 'NONE',  ( 5.935518276033326704E-14, -2.081899558550500280E-15, 17.00000000000000000 ) ) ;
#100 = COORDINATED_UNIVERSAL_TIME_OFFSET ( 1, 0, .AHEAD. ) ;
#101 = DIRECTION ( 'NONE',  ( 1.798245827342160317E-15, -0.8571673007021098911, 0.5150380749100582634 ) ) ;
#102 = CARTESIAN_POINT ( 'NONE',  ( 1.920314736363723472E-13, 1.599999999999993872, 55.00000000000000000 ) ) ;
#103 = DIRECTION ( 'NONE',  ( -3.491481338843133355E-15, 1.224646799147353207E-16, -1.000000000000000000 ) ) ;
#104 = EDGE_CURVE ( 'NONE', #229, #323, #6, .T. ) ;
#105 = CLOSED_SHELL ( 'NONE', ( #324, #42, #62, #185, #289, #46 ) ) ;
#106 = DIRECTION ( 'NONE',  ( 0.0000000000000000000, 1.000000000000000000, 0.0000000000000000000 ) ) ;
#107 = ADVANCED_BREP_SHAPE_REPRESENTATION ( '54572', ( #57, #63, #24 ), #189 ) ;
#108 = CC_DESIGN_PERSON_AND_ORGANIZATION_ASSIGNMENT ( #92, #258, ( #145 ) ) ;
#109 = AXIS2_PLACEMENT_3D ( 'NONE', #149, #120, #332 ) ;
#110 = VERTEX_POINT ( 'NONE', #314 ) ;
#111 = APPROVAL_STATUS ( 'not_yet_approved' ) ;
#112 = VERTEX_POINT ( 'NONE', #102 ) ;
#113 = VERTEX_POINT ( 'NONE', #282 ) ;
#114 = LINE ( 'NONE', #67, #130 ) ;
#115 = EDGE_CURVE ( 'NONE', #283, #56, #22, .T. ) ;
#116 = EDGE_LOOP ( 'NONE', ( #219, #169, #144, #31 ) ) ;
#117 = CONICAL_SURFACE ( 'NONE', #309, 2.099999999999993872, 1.029744258676649649 ) ;
#118 = PERSON_AND_ORGANIZATION ( #98, #60 ) ;
#119 = CARTESIAN_POINT ( 'NONE',  ( 1.902857329669507616E-13, -6.674325055353075041E-15, 54.50000000000000000 ) ) ;
#120 = DIRECTION ( 'NONE',  ( -3.491481338843133355E-15, 1.224646799147353207E-16, -1.000000000000000000 ) ) ;
#121 = PLANE ( 'NONE',  #190 ) ;
#122 = PERSON_AND_ORGANIZATION_ROLE ( 'classification_officer' ) ;
#123 = CC_DESIGN_APPROVAL ( #271, ( #145 ) ) ;
#124 = CC_DESIGN_PERSON_AND_ORGANIZATION_ASSIGNMENT ( #211, #221, ( #145 ) ) ;
#125 = FACE_OUTER_BOUND ( 'NONE', #13, .T. ) ;
#126 = CYLINDRICAL_SURFACE ( 'NONE', #48, 2.099999999999995204 ) ;
#127 = CONICAL_SURFACE ( 'NONE', #166, 1.600000000000000533, 0.7853981633974476129 ) ;
#128 = CARTESIAN_POINT ( 'NONE',  ( 5.935518276033326704E-14, 1.574747771794944193E-32, 17.00000000000000000 ) ) ;
#129 = DIRECTION ( 'NONE',  ( -3.491481338843133355E-15, 1.224646799147353207E-16, -1.000000000000000000 ) ) ;
#130 = VECTOR ( 'NONE', #155, 999.9999999999998863 ) ;
#131 = CARTESIAN_POINT ( 'NONE',  ( 1.250776336914628104E-13, -2.100000000000006750, 54.50000000000000000 ) ) ;
#132 = ORIENTED_EDGE ( 'NONE', *, *, #171, .F. ) ;
#133 = CARTESIAN_POINT ( 'NONE',  ( 0.0000000000000000000, 0.0000000000000000000, 0.0000000000000000000 ) ) ;
#134 = EDGE_LOOP ( 'NONE', ( #325, #307 ) ) ;
#135 = APPLICATION_PROTOCOL_DEFINITION ( 'international standard', 'config_control_design', 1994, #273 ) ;
#136 = VECTOR ( 'NONE', #223, 1000.000000000000000 ) ;
#137 = ORIENTED_EDGE ( 'NONE', *, *, #245, .F. ) ;
#138 = ORIENTED_EDGE ( 'NONE', *, *, #171, .T. ) ;
#139 = LOCAL_TIME ( 9, 50, 48.00000000000000000, #268 ) ;
#140 = ORIENTED_EDGE ( 'NONE', *, *, #245, .T. ) ;
#141 = ADVANCED_FACE ( 'NONE', ( #285 ), #40, .T. ) ;
#142 = VECTOR ( 'NONE', #76, 999.9999999999998863 ) ;
#143 = EDGE_CURVE ( 'NONE', #283, #321, #32, .T. ) ;
#144 = ORIENTED_EDGE ( 'NONE', *, *, #335, .T. ) ;
#145 = PRODUCT_DEFINITION_FORMATION_WITH_SPECIFIED_SOURCE ( 'ANY', '', #231, .NOT_KNOWN. ) ;
#146 = AXIS2_PLACEMENT_3D ( 'NONE', #164, #5, #266 ) ;
#147 = COORDINATED_UNIVERSAL_TIME_OFFSET ( 1, 0, .AHEAD. ) ;
#148 = DIRECTION ( 'NONE',  ( 4.275831445896958607E-31, 1.000000000000000000, 1.224646799147352961E-16 ) ) ;
#149 = CARTESIAN_POINT ( 'NONE',  ( 5.935518276033326704E-14, -2.081899558550500280E-15, 17.00000000000000000 ) ) ;
#150 = AXIS2_PLACEMENT_3D ( 'NONE', #128, #154, #262 ) ;
#151 = VECTOR ( 'NONE', #336, 1000.000000000000000 ) ;
#152 = APPROVAL_STATUS ( 'not_yet_approved' ) ;
#153 = CARTESIAN_POINT ( 'NONE',  ( 5.935518276033326704E-14, 1.574747771794944193E-32, 17.00000000000000000 ) ) ;
#154 = DIRECTION ( 'NONE',  ( 3.491481338843133355E-15, -1.224646799147353207E-16, 1.000000000000000000 ) ) ;
#155 = DIRECTION ( 'NONE',  ( 1.903218546456022717E-15, 0.8571673007021097801, 0.5150380749100585964 ) ) ;
#156 = CC_DESIGN_PERSON_AND_ORGANIZATION_ASSIGNMENT ( #79, #122, ( #195 ) ) ;
#157 = FACE_OUTER_BOUND ( 'NONE', #134, .T. ) ;
#158 = DIRECTION ( 'NONE',  ( -3.491481338843133355E-15, 1.224646799147353207E-16, -1.000000000000000000 ) ) ;
#159 = CYLINDRICAL_SURFACE ( 'NONE', #298, 2.099999999999998312 ) ;
#160 = CARTESIAN_POINT ( 'NONE',  ( 0.0000000000000000000, 0.0000000000000000000, 0.0000000000000000000 ) ) ;
#161 = APPROVAL_PERSON_ORGANIZATION ( #118, #181, #233 ) ;
#162 = ORIENTED_EDGE ( 'NONE', *, *, #300, .T. ) ;
#163 = CARTESIAN_POINT ( 'NONE',  ( 4.405576641019002302E-15, -1.545268271034190364E-16, 1.261807299957886874 ) ) ;
#164 = CARTESIAN_POINT ( 'NONE',  ( 1.920314736363723472E-13, -6.735557395310442615E-15, 55.00000000000000000 ) ) ;
#165 = PERSON_AND_ORGANIZATION ( #98, #60 ) ;
#166 = AXIS2_PLACEMENT_3D ( 'NONE', #246, #74, #304 ) ;
#167 = ORIENTED_EDGE ( 'NONE', *, *, #104, .T. ) ;
#168 = DIRECTION ( 'NONE',  ( -3.668437989309031286E-31, -1.000000000000000000, -1.032573497605245306E-16 ) ) ;
#169 = ORIENTED_EDGE ( 'NONE', *, *, #143, .T. ) ;
#170 = CC_DESIGN_SECURITY_CLASSIFICATION ( #195, ( #145 ) ) ;
#171 = EDGE_CURVE ( 'NONE', #10, #326, #35, .T. ) ;
#172 =( LENGTH_UNIT ( ) NAMED_UNIT ( * ) SI_UNIT ( .MILLI., .METRE. ) );
#173 = CC_DESIGN_DATE_AND_TIME_ASSIGNMENT ( #201, #308, ( #195 ) ) ;
#174 = CARTESIAN_POINT ( 'NONE',  ( 2.571758278209427166E-16, -2.099999999999995204, -2.571758278209444422E-16 ) ) ;
#175 = ORIENTED_EDGE ( 'NONE', *, *, #203, .T. ) ;
#176 = CIRCLE ( 'NONE', #146, 1.600000000000000533 ) ;
#177 = DIRECTION ( 'NONE',  ( 4.275831445896958607E-31, 1.000000000000000000, 1.224646799147352961E-16 ) ) ;
#178 = ORIENTED_EDGE ( 'NONE', *, *, #203, .F. ) ;
#179 = EDGE_CURVE ( 'NONE', #110, #56, #276, .T. ) ;
#180 = CARTESIAN_POINT ( 'NONE',  ( 1.920314736363723472E-13, 1.599999999999993872, 55.00000000000000000 ) ) ;
#181 = APPROVAL ( #199, 'UNSPECIFIED' ) ;
#182 = CIRCLE ( 'NONE', #85, 2.099999999999996092 ) ;
#183 = CARTESIAN_POINT ( 'NONE',  ( 2.571758278209430617E-16, -2.099999999999998312, -2.571758278209448366E-16 ) ) ;
#184 = CARTESIAN_POINT ( 'NONE',  ( 4.405576641019002302E-15, -1.545268271034190364E-16, 1.261807299957886874 ) ) ;
#185 = ADVANCED_FACE ( 'NONE', ( #284 ), #316, .T. ) ;
#186 = VECTOR ( 'NONE', #158, 1000.000000000000000 ) ;
#187 = EDGE_CURVE ( 'NONE', #112, #113, #176, .T. ) ;
#188 = DIRECTION ( 'NONE',  ( -3.491481338843133355E-15, 1.224646799147353207E-16, -1.000000000000000000 ) ) ;
#189 =( GEOMETRIC_REPRESENTATION_CONTEXT ( 3 ) GLOBAL_UNCERTAINTY_ASSIGNED_CONTEXT ( ( #311 ) ) GLOBAL_UNIT_ASSIGNED_CONTEXT ( ( #172, #26, #333 ) ) REPRESENTATION_CONTEXT ( 'NONE', 'WORKASPACE' ) );
#190 = AXIS2_PLACEMENT_3D ( 'NONE', #242, #103, #214 ) ;
#191 = ORIENTED_EDGE ( 'NONE', *, *, #143, .F. ) ;
#192 = DIRECTION ( 'NONE',  ( 0.0000000000000000000, 0.0000000000000000000, 1.000000000000000000 ) ) ;
#193 = DIRECTION ( 'NONE',  ( 3.491481338843133355E-15, -1.224646799147353207E-16, 1.000000000000000000 ) ) ;
#194 = ORIENTED_EDGE ( 'NONE', *, *, #238, .T. ) ;
#195 = SECURITY_CLASSIFICATION ( '', '', #25 ) ;
#196 = ORIENTED_EDGE ( 'NONE', *, *, #210, .T. ) ;
#197 = ORIENTED_EDGE ( 'NONE', *, *, #94, .F. ) ;
#198 = EDGE_CURVE ( 'NONE', #321, #283, #303, .T. ) ;
#199 = APPROVAL_STATUS ( 'not_yet_approved' ) ;
#200 = CLOSED_SHELL ( 'NONE', ( #14, #263, #251, #141, #216 ) ) ;
#201 = DATE_AND_TIME ( #54, #50 ) ;
#202 = DIRECTION ( 'NONE',  ( 0.0000000000000000000, 1.000000000000000000, 0.0000000000000000000 ) ) ;
#203 = EDGE_CURVE ( 'NONE', #326, #10, #328, .T. ) ;
#204 = DIRECTION ( 'NONE',  ( 0.0000000000000000000, 1.000000000000000000, 0.0000000000000000000 ) ) ;
#205 = CARTESIAN_POINT ( 'NONE',  ( 1.920314736363723472E-13, -6.735557395310442615E-15, 55.00000000000000000 ) ) ;
#206 = FACE_OUTER_BOUND ( 'NONE', #255, .T. ) ;
#207 = CARTESIAN_POINT ( 'NONE',  ( 0.0000000000000000000, 0.0000000000000000000, 0.0000000000000000000 ) ) ;
#208 = CC_DESIGN_DATE_AND_TIME_ASSIGNMENT ( #250, #290, ( #291 ) ) ;
#209 = DIRECTION ( 'NONE',  ( 3.668437989309031286E-31, 1.000000000000000000, 1.032573497605245306E-16 ) ) ;
#210 = EDGE_CURVE ( 'NONE', #113, #283, #27, .T. ) ;
#211 = PERSON_AND_ORGANIZATION ( #98, #60 ) ;
#212 = DIRECTION ( 'NONE',  ( -3.491481338843133355E-15, 1.224646799147353207E-16, -1.000000000000000000 ) ) ;
#213 = LOCAL_TIME ( 9, 50, 48.00000000000000000, #220 ) ;
#214 = DIRECTION ( 'NONE',  ( 4.275831445896958607E-31, 1.000000000000000000, 1.224646799147353207E-16 ) ) ;
#215 = FACE_OUTER_BOUND ( 'NONE', #230, .T. ) ;
#216 = ADVANCED_FACE ( 'NONE', ( #30 ), #260, .T. ) ;
#217 = DIRECTION ( 'NONE',  ( -3.491481338843133355E-15, 1.224646799147353207E-16, -1.000000000000000000 ) ) ;
#218 = AXIS2_PLACEMENT_3D ( 'NONE', #49, #312, #204 ) ;
#219 = ORIENTED_EDGE ( 'NONE', *, *, #115, .F. ) ;
#220 = COORDINATED_UNIVERSAL_TIME_OFFSET ( 1, 0, .AHEAD. ) ;
#221 = PERSON_AND_ORGANIZATION_ROLE ( 'design_supplier' ) ;
#222 = SHAPE_DEFINITION_REPRESENTATION ( #297, #107 ) ;
#223 = DIRECTION ( 'NONE',  ( -3.491481338843133355E-15, 1.224646799147353207E-16, -1.000000000000000000 ) ) ;
#224 = ORIENTED_EDGE ( 'NONE', *, *, #187, .F. ) ;
#225 = PERSON_AND_ORGANIZATION_ROLE ( 'design_owner' ) ;
#226 = CC_DESIGN_APPROVAL ( #259, ( #195 ) ) ;
#227 = DATE_AND_TIME ( #261, #55 ) ;
#228 = EDGE_LOOP ( 'NONE', ( #252, #162, #82, #191 ) ) ;
#229 = VERTEX_POINT ( 'NONE', #20 ) ;
#230 = EDGE_LOOP ( 'NONE', ( #137, #294, #138 ) ) ;
#231 = PRODUCT ( '54572', '54572', '', ( #232 ) ) ;
#232 = MECHANICAL_CONTEXT ( 'NONE', #273, 'mechanical' ) ;
#233 = APPROVAL_ROLE ( '' ) ;
#234 = AXIS2_PLACEMENT_3D ( 'NONE', #99, #1, #305 ) ;
#235 = DIRECTION ( 'NONE',  ( 0.0000000000000000000, 1.000000000000000000, 0.0000000000000000000 ) ) ;
#236 = LINE ( 'NONE', #174, #313 ) ;
#237 = CARTESIAN_POINT ( 'NONE',  ( 5.935518276033326704E-14, -2.081899558550500280E-15, 17.00000000000000000 ) ) ;
#238 = EDGE_CURVE ( 'NONE', #323, #229, #182, .T. ) ;
#239 = LINE ( 'NONE', #180, #151 ) ;
#240 = DIRECTION ( 'NONE',  ( -4.275831445896958607E-31, -1.000000000000000000, -1.224646799147353207E-16 ) ) ;
#241 = AXIS2_PLACEMENT_3D ( 'NONE', #207, #70, #148 ) ;
#242 = CARTESIAN_POINT ( 'NONE',  ( 1.920314736363723472E-13, 1.199807826129476507E-32, 55.00000000000000000 ) ) ;
#243 = FACE_OUTER_BOUND ( 'NONE', #288, .T. ) ;
#244 = APPROVAL_ROLE ( '' ) ;
#245 = EDGE_CURVE ( 'NONE', #53, #326, #334, .T. ) ;
#246 = CARTESIAN_POINT ( 'NONE',  ( 1.920314736363723472E-13, -6.735557395310442615E-15, 55.00000000000000000 ) ) ;
#247 = CARTESIAN_POINT ( 'NONE',  ( 8.979246036383592229E-31, 2.099999999999995204, 2.571758278209435547E-16 ) ) ;
#248 = CIRCLE ( 'NONE', #109, 2.099999999999996092 ) ;
#249 = ORIENTED_EDGE ( 'NONE', *, *, #15, .F. ) ;
#250 = DATE_AND_TIME ( #28, #139 ) ;
#251 = ADVANCED_FACE ( 'NONE', ( #206 ), #117, .T. ) ;
#252 = ORIENTED_EDGE ( 'NONE', *, *, #210, .F. ) ;
#253 = PERSON_AND_ORGANIZATION ( #98, #60 ) ;
#254 = EDGE_LOOP ( 'NONE', ( #319, #194, #8, #178 ) ) ;
#255 = EDGE_LOOP ( 'NONE', ( #80, #140, #175 ) ) ;
#256 = PERSON_AND_ORGANIZATION ( #98, #60 ) ;
#257 = ORIENTED_EDGE ( 'NONE', *, *, #179, .F. ) ;
#258 = PERSON_AND_ORGANIZATION_ROLE ( 'creator' ) ;
#259 = APPROVAL ( #152, 'UNSPECIFIED' ) ;
#260 = PLANE ( 'NONE',  #150 ) ;
#261 = CALENDAR_DATE ( 2021, 3, 9 ) ;
#262 = DIRECTION ( 'NONE',  ( -4.275831445896958607E-31, -1.000000000000000000, -1.224646799147353207E-16 ) ) ;
#263 = ADVANCED_FACE ( 'NONE', ( #215 ), #275, .T. ) ;
#264 = AXIS2_PLACEMENT_3D ( 'NONE', #51, #217, #269 ) ;
#265 = DIRECTION ( 'NONE',  ( -3.668437989309031286E-31, -1.000000000000000000, -1.032573497605245306E-16 ) ) ;
#266 = DIRECTION ( 'NONE',  ( 0.0000000000000000000, 1.000000000000000000, 0.0000000000000000000 ) ) ;
#267 = PERSON_AND_ORGANIZATION ( #98, #60 ) ;
#268 = COORDINATED_UNIVERSAL_TIME_OFFSET ( 1, 0, .AHEAD. ) ;
#269 = DIRECTION ( 'NONE',  ( 3.668437989309031286E-31, 1.000000000000000000, 1.032573497605245306E-16 ) ) ;
#270 = ORIENTED_EDGE ( 'NONE', *, *, #300, .F. ) ;
#271 = APPROVAL ( #111, 'UNSPECIFIED' ) ;
#272 = FACE_OUTER_BOUND ( 'NONE', #228, .T. ) ;
#273 = APPLICATION_CONTEXT ( 'configuration controlled 3d designs of mechanical parts and assemblies' ) ;
#274 = ORIENTED_EDGE ( 'NONE', *, *, #104, .F. ) ;
#275 = CONICAL_SURFACE ( 'NONE', #68, 2.099999999999993872, 1.029744258676649649 ) ;
#276 = CIRCLE ( 'NONE', #218, 2.099999999999996092 ) ;
#277 = VECTOR ( 'NONE', #101, 1000.000000000000000 ) ;
#278 = PLANE ( 'NONE',  #320 ) ;
#279 = DIRECTION ( 'NONE',  ( 0.0000000000000000000, 1.000000000000000000, 0.0000000000000000000 ) ) ;
#280 = DIRECTION ( 'NONE',  ( -3.491481338843133355E-15, 1.224646799147353207E-16, -1.000000000000000000 ) ) ;
#281 = DIRECTION ( 'NONE',  ( -3.491481338843133355E-15, 1.224646799147353207E-16, -1.000000000000000000 ) ) ;
#282 = CARTESIAN_POINT ( 'NONE',  ( 1.913851629595038182E-13, -1.600000000000007194, 55.00000000000000000 ) ) ;
#283 = VERTEX_POINT ( 'NONE', #131 ) ;
#284 = FACE_OUTER_BOUND ( 'NONE', #116, .T. ) ;
#285 = FACE_OUTER_BOUND ( 'NONE', #254, .T. ) ;
#286 = VECTOR ( 'NONE', #65, 1000.000000000000000 ) ;
#287 = EDGE_LOOP ( 'NONE', ( #331, #196, #12, #197 ) ) ;
#288 = EDGE_LOOP ( 'NONE', ( #86, #301, #257, #17 ) ) ;
#289 = ADVANCED_FACE ( 'NONE', ( #272 ), #127, .T. ) ;
#290 = DATE_TIME_ROLE ( 'creation_date' ) ;
#291 = PRODUCT_DEFINITION ( 'UNKNOWN', '', #145, #91 ) ;
#292 = EDGE_LOOP ( 'NONE', ( #274, #89 ) ) ;
#293 = COORDINATED_UNIVERSAL_TIME_OFFSET ( 1, 0, .AHEAD. ) ;
#294 = ORIENTED_EDGE ( 'NONE', *, *, #36, .T. ) ;
#295 = CARTESIAN_POINT ( 'NONE',  ( 1.920314736363723472E-13, -6.735557395310442615E-15, 55.00000000000000000 ) ) ;
#296 = AXIS2_PLACEMENT_3D ( 'NONE', #71, #188, #106 ) ;
#297 = PRODUCT_DEFINITION_SHAPE ( 'NONE', 'NONE',  #291 ) ;
#298 = AXIS2_PLACEMENT_3D ( 'NONE', #75, #212, #44 ) ;
#299 = APPROVAL_DATE_TIME ( #83, #271 ) ;
#300 = EDGE_CURVE ( 'NONE', #113, #112, #2, .T. ) ;
#301 = ORIENTED_EDGE ( 'NONE', *, *, #115, .T. ) ;
#302 = AXIS2_PLACEMENT_3D ( 'NONE', #295, #59, #202 ) ;
#303 = CIRCLE ( 'NONE', #296, 2.100000000000000089 ) ;
#304 = DIRECTION ( 'NONE',  ( 0.0000000000000000000, 1.000000000000000000, 0.0000000000000000000 ) ) ;
#305 = DIRECTION ( 'NONE',  ( 0.0000000000000000000, 1.000000000000000000, 0.0000000000000000000 ) ) ;
#306 = CARTESIAN_POINT ( 'NONE',  ( 3.213755552849704243E-14, -2.099999999999998312, 17.00000000000000000 ) ) ;
#307 = ORIENTED_EDGE ( 'NONE', *, *, #327, .T. ) ;
#308 = DATE_TIME_ROLE ( 'classification_date' ) ;
#309 = AXIS2_PLACEMENT_3D ( 'NONE', #184, #4, #168 ) ;
#310 = CARTESIAN_POINT ( 'NONE',  ( 8.979246036383606242E-31, 2.099999999999998312, 2.571758278209439492E-16 ) ) ;
#311 = UNCERTAINTY_MEASURE_WITH_UNIT (LENGTH_MEASURE( 1.000000000000000082E-05 ), #172, 'distance_accuracy_value', 'NONE');
#312 = DIRECTION ( 'NONE',  ( -3.491481338843133355E-15, 1.224646799147353207E-16, -1.000000000000000000 ) ) ;
#313 = VECTOR ( 'NONE', #330, 1000.000000000000000 ) ;
#314 = CARTESIAN_POINT ( 'NONE',  ( 5.935518276033326704E-14, 2.099999999999993872, 17.00000000000000000 ) ) ;
#315 = AXIS2_PLACEMENT_3D ( 'NONE', #119, #280, #235 ) ;
#316 = CYLINDRICAL_SURFACE ( 'NONE', #87, 2.099999999999998312 ) ;
#317 = EDGE_CURVE ( 'NONE', #323, #326, #236, .T. ) ;
#318 = CARTESIAN_POINT ( 'NONE',  ( 1.922274171242359083E-13, -1.600000000000007194, 55.00000000000000000 ) ) ;
#319 = ORIENTED_EDGE ( 'NONE', *, *, #317, .F. ) ;
#320 = AXIS2_PLACEMENT_3D ( 'NONE', #153, #47, #240 ) ;
#321 = VERTEX_POINT ( 'NONE', #93 ) ;
#322 = CALENDAR_DATE ( 2021, 3, 9 ) ;
#323 = VERTEX_POINT ( 'NONE', #306 ) ;
#324 = ADVANCED_FACE ( 'NONE', ( #19 ), #72, .T. ) ;
#325 = ORIENTED_EDGE ( 'NONE', *, *, #179, .T. ) ;
#326 = VERTEX_POINT ( 'NONE', #41 ) ;
#327 = EDGE_CURVE ( 'NONE', #56, #110, #248, .T. ) ;
#328 = CIRCLE ( 'NONE', #264, 2.099999999999993872 ) ;
#329 = APPROVAL_DATE_TIME ( #11, #181 ) ;
#330 = DIRECTION ( 'NONE',  ( -3.491481338843133355E-15, 1.224646799147353207E-16, -1.000000000000000000 ) ) ;
#331 = ORIENTED_EDGE ( 'NONE', *, *, #187, .T. ) ;
#332 = DIRECTION ( 'NONE',  ( 0.0000000000000000000, 1.000000000000000000, 0.0000000000000000000 ) ) ;
#333 =( NAMED_UNIT ( * ) SI_UNIT ( $, .STERADIAN. ) SOLID_ANGLE_UNIT ( ) );
#334 = LINE ( 'NONE', #97, #277 ) ;
#335 = EDGE_CURVE ( 'NONE', #321, #110, #96, .T. ) ;
#336 = DIRECTION ( 'NONE',  ( -2.468850131082267316E-15, 0.7071067811865471286, -0.7071067811865479058 ) ) ;
#337 = DIRECTION ( 'NONE',  ( 0.0000000000000000000, 1.000000000000000000, 0.0000000000000000000 ) ) ;
ENDSEC;
END-ISO-10303-21;
