ISO-10303-21;
HEADER;
FILE_DESCRIPTION (( 'STEP AP203' ),
    '1' );
FILE_NAME ('54571.step',
    '2021-09-03T07:50:44',
    ( '' ),
    ( '' ),
    'SwSTEP 2.0',
    'SolidWorks 2019',
    '' );
FILE_SCHEMA (( 'CONFIG_CONTROL_DESIGN' ));
ENDSEC;

DATA;
#1 = PLANE ( 'NONE',  #318 ) ;
#2 = EDGE_CURVE ( 'NONE', #296, #237, #37, .T. ) ;
#3 = DIRECTION ( 'NONE',  ( 0.0000000000000000000, 1.000000000000000000, 0.0000000000000000000 ) ) ;
#4 = DIRECTION ( 'NONE',  ( -4.275831445896958607E-31, -1.000000000000000000, -1.224646799147353207E-16 ) ) ;
#5 = DIRECTION ( 'NONE',  ( 3.712636037372996347E-31, 1.000000000000000000, 1.045014142154706326E-16 ) ) ;
#6 = VECTOR ( 'NONE', #68, 1000.000000000000000 ) ;
#7 = DIRECTION ( 'NONE',  ( 0.0000000000000000000, 1.000000000000000000, 0.0000000000000000000 ) ) ;
#8 = AXIS2_PLACEMENT_3D ( 'NONE', #226, #302, #3 ) ;
#9 = EDGE_LOOP ( 'NONE', ( #160, #104, #57, #249 ) ) ;
#10 = CARTESIAN_POINT ( 'NONE',  ( 3.210827024101691483E-14, -2.074999999999997957, 17.00000000000000000 ) ) ;
#11 = LOCAL_TIME ( 9, 50, 44.00000000000000000, #298 ) ;
#12 = VERTEX_POINT ( 'NONE', #99 ) ;
#13 = APPROVAL ( #76, 'UNSPECIFIED' ) ;
#14 = SHAPE_DEFINITION_REPRESENTATION ( #159, #202 ) ;
#15 = VERTEX_POINT ( 'NONE', #313 ) ;
#16 = MANIFOLD_SOLID_BREP ( 'Corps-Déplacer/Copier1[1]', #312 ) ;
#17 = APPROVAL_DATE_TIME ( #162, #197 ) ;
#18 = CC_DESIGN_APPROVAL ( #201, ( #31 ) ) ;
#19 = DATE_TIME_ROLE ( 'creation_date' ) ;
#20 = FACE_OUTER_BOUND ( 'NONE', #304, .T. ) ;
#21 = DIRECTION ( 'NONE',  ( -3.491481338843133355E-15, 1.224646799147353207E-16, -1.000000000000000000 ) ) ;
#22 = DIRECTION ( 'NONE',  ( -3.712636037372996347E-31, -1.000000000000000000, -1.045014142154706326E-16 ) ) ;
#23 = DIRECTION ( 'NONE',  ( -3.491481338843133355E-15, 1.224646799147353207E-16, -1.000000000000000000 ) ) ;
#24 = PERSON_AND_ORGANIZATION ( #320, #177 ) ;
#25 = EDGE_CURVE ( 'NONE', #209, #296, #175, .T. ) ;
#26 = LINE ( 'NONE', #333, #328 ) ;
#27 = ORIENTED_EDGE ( 'NONE', *, *, #215, .T. ) ;
#28 = CARTESIAN_POINT ( 'NONE',  ( 0.0000000000000000000, 0.0000000000000000000, 0.0000000000000000000 ) ) ;
#29 = CARTESIAN_POINT ( 'NONE',  ( 4.353129300054488915E-15, -1.526872220188544850E-16, 1.246785784482197235 ) ) ;
#30 = EDGE_CURVE ( 'NONE', #124, #15, #48, .T. ) ;
#31 = SECURITY_CLASSIFICATION ( '', '', #165 ) ;
#32 = ORIENTED_EDGE ( 'NONE', *, *, #174, .T. ) ;
#33 = AXIS2_PLACEMENT_3D ( 'NONE', #84, #314, #164 ) ;
#34 = ORIENTED_EDGE ( 'NONE', *, *, #331, .F. ) ;
#35 = APPROVAL_PERSON_ORGANIZATION ( #301, #201, #41 ) ;
#36 = ORIENTED_EDGE ( 'NONE', *, *, #96, .T. ) ;
#37 = CIRCLE ( 'NONE', #60, 2.074999999999993516 ) ;
#38 = DIRECTION ( 'NONE',  ( 4.275831445896958607E-31, 1.000000000000000000, 1.224646799147353207E-16 ) ) ;
#39 = PERSON_AND_ORGANIZATION ( #320, #177 ) ;
#40 = CARTESIAN_POINT ( 'NONE',  ( 4.353129300054488915E-15, -1.526872220188544850E-16, 1.246785784482197235 ) ) ;
#41 = APPROVAL_ROLE ( '' ) ;
#42 = CC_DESIGN_APPROVAL ( #13, ( #152 ) ) ;
#43 = DIRECTION ( 'NONE',  ( 4.275831445896958607E-31, 1.000000000000000000, 1.224646799147353207E-16 ) ) ;
#44 = DIRECTION ( 'NONE',  ( 0.0000000000000000000, 1.000000000000000000, 0.0000000000000000000 ) ) ;
#45 = CC_DESIGN_PERSON_AND_ORGANIZATION_ASSIGNMENT ( #106, #62, ( #234 ) ) ;
#46 = CIRCLE ( 'NONE', #144, 2.075000000000000178 ) ;
#47 = DIRECTION ( 'NONE',  ( 0.0000000000000000000, 1.000000000000000000, 0.0000000000000000000 ) ) ;
#48 = LINE ( 'NONE', #277, #98 ) ;
#49 = VECTOR ( 'NONE', #282, 1000.000000000000000 ) ;
#50 = CARTESIAN_POINT ( 'NONE',  ( 1.250745720744649616E-13, -2.075000000000006395, 54.50000000000000000 ) ) ;
#51 = CARTESIAN_POINT ( 'NONE',  ( 8.872350250236165155E-31, 2.074999999999994404, 2.541142108230751169E-16 ) ) ;
#52 = LOCAL_TIME ( 9, 50, 44.00000000000000000, #250 ) ;
#53 = DIRECTION ( 'NONE',  ( -3.491481338843133355E-15, 1.224646799147353207E-16, -1.000000000000000000 ) ) ;
#54 = ORIENTED_EDGE ( 'NONE', *, *, #331, .T. ) ;
#55 = ORIENTED_EDGE ( 'NONE', *, *, #30, .F. ) ;
#56 = CALENDAR_DATE ( 2021, 3, 9 ) ;
#57 = ORIENTED_EDGE ( 'NONE', *, *, #25, .T. ) ;
#58 =( NAMED_UNIT ( * ) SI_UNIT ( $, .STERADIAN. ) SOLID_ANGLE_UNIT ( ) );
#59 = ADVANCED_FACE ( 'NONE', ( #149 ), #1, .F. ) ;
#60 = AXIS2_PLACEMENT_3D ( 'NONE', #29, #120, #5 ) ;
#61 = CARTESIAN_POINT ( 'NONE',  ( 0.0000000000000000000, 0.0000000000000000000, 0.0000000000000000000 ) ) ;
#62 = PERSON_AND_ORGANIZATION_ROLE ( 'design_supplier' ) ;
#63 = APPROVAL_STATUS ( 'not_yet_approved' ) ;
#64 = CARTESIAN_POINT ( 'NONE',  ( 5.935518276033326704E-14, -2.081899558550500280E-15, 17.00000000000000000 ) ) ;
#65 = APPROVAL_PERSON_ORGANIZATION ( #108, #197, #325 ) ;
#66 = FACE_OUTER_BOUND ( 'NONE', #74, .T. ) ;
#67 = PRODUCT ( '54571', '54571', '', ( #78 ) ) ;
#68 = DIRECTION ( 'NONE',  ( 1.798245827342160317E-15, -0.8571673007021098911, 0.5150380749100582634 ) ) ;
#69 = EDGE_CURVE ( 'NONE', #330, #12, #231, .T. ) ;
#70 = APPLICATION_CONTEXT ( 'configuration controlled 3d designs of mechanical parts and assemblies' ) ;
#71 = DIRECTION ( 'NONE',  ( -3.491481338843133355E-15, 1.224646799147353207E-16, -1.000000000000000000 ) ) ;
#72 = ORIENTED_EDGE ( 'NONE', *, *, #116, .F. ) ;
#73 = DIRECTION ( 'NONE',  ( 4.275831445896957731E-31, 1.000000000000000000, 1.224646799147352961E-16 ) ) ;
#74 = EDGE_LOOP ( 'NONE', ( #167, #322 ) ) ;
#75 = CIRCLE ( 'NONE', #33, 2.074999999999995737 ) ;
#76 = APPROVAL_STATUS ( 'not_yet_approved' ) ;
#77 = EDGE_LOOP ( 'NONE', ( #151, #133 ) ) ;
#78 = MECHANICAL_CONTEXT ( 'NONE', #308, 'mechanical' ) ;
#79 = ORIENTED_EDGE ( 'NONE', *, *, #96, .F. ) ;
#80 = AXIS2_PLACEMENT_3D ( 'NONE', #89, #192, #307 ) ;
#81 = ORIENTED_EDGE ( 'NONE', *, *, #315, .F. ) ;
#82 = AXIS2_PLACEMENT_3D ( 'NONE', #40, #319, #172 ) ;
#83 = ORIENTED_EDGE ( 'NONE', *, *, #2, .F. ) ;
#84 = CARTESIAN_POINT ( 'NONE',  ( 5.935518276033326704E-14, -2.081899558550500280E-15, 17.00000000000000000 ) ) ;
#85 = ADVANCED_FACE ( 'NONE', ( #20 ), #199, .T. ) ;
#86 = PERSON_AND_ORGANIZATION_ROLE ( 'creator' ) ;
#87 = CARTESIAN_POINT ( 'NONE',  ( 1.920314736363723472E-13, 1.574999999999993516, 55.00000000000000000 ) ) ;
#88 = CARTESIAN_POINT ( 'NONE',  ( 1.920314736363723472E-13, -6.735557395310442615E-15, 55.00000000000000000 ) ) ;
#89 = CARTESIAN_POINT ( 'NONE',  ( 0.0000000000000000000, 0.0000000000000000000, 0.0000000000000000000 ) ) ;
#90 = CARTESIAN_POINT ( 'NONE',  ( 4.353129300054488126E-15, -2.074999999999993516, 1.246785784482197013 ) ) ;
#91 = CARTESIAN_POINT ( 'NONE',  ( 1.902857329669507616E-13, -6.674325055353075041E-15, 54.50000000000000000 ) ) ;
#92 = DESIGN_CONTEXT ( 'detailed design', #70, 'design' ) ;
#93 = COORDINATED_UNIVERSAL_TIME_OFFSET ( 1, 0, .AHEAD. ) ;
#94 = LINE ( 'NONE', #225, #297 ) ;
#95 = DIRECTION ( 'NONE',  ( 3.491481338843133355E-15, -1.224646799147353207E-16, 1.000000000000000000 ) ) ;
#96 = EDGE_CURVE ( 'NONE', #124, #214, #46, .T. ) ;
#97 = CARTESIAN_POINT ( 'NONE',  ( 5.935518276033326704E-14, 1.556000774511670563E-32, 17.00000000000000000 ) ) ;
#98 = VECTOR ( 'NONE', #232, 1000.000000000000000 ) ;
#99 = CARTESIAN_POINT ( 'NONE',  ( 1.920314736363723472E-13, 1.574999999999993516, 55.00000000000000000 ) ) ;
#100 = APPLICATION_PROTOCOL_DEFINITION ( 'international standard', 'config_control_design', 1994, #308 ) ;
#101 = EDGE_CURVE ( 'NONE', #330, #124, #195, .T. ) ;
#102 = EDGE_LOOP ( 'NONE', ( #323, #270, #241, #79 ) ) ;
#103 = AXIS2_PLACEMENT_3D ( 'NONE', #178, #240, #7 ) ;
#104 = ORIENTED_EDGE ( 'NONE', *, *, #268, .T. ) ;
#105 = EDGE_LOOP ( 'NONE', ( #183, #293 ) ) ;
#106 = PERSON_AND_ORGANIZATION ( #320, #177 ) ;
#107 = AXIS2_PLACEMENT_3D ( 'NONE', #261, #123, #4 ) ;
#108 = PERSON_AND_ORGANIZATION ( #320, #177 ) ;
#109 = CALENDAR_DATE ( 2021, 3, 9 ) ;
#110 = DIRECTION ( 'NONE',  ( 0.0000000000000000000, 1.000000000000000000, 0.0000000000000000000 ) ) ;
#111 = DIRECTION ( 'NONE',  ( 3.712636037372996347E-31, 1.000000000000000000, 1.045014142154706326E-16 ) ) ;
#112 = CC_DESIGN_PERSON_AND_ORGANIZATION_ASSIGNMENT ( #251, #198, ( #67 ) ) ;
#113 = CARTESIAN_POINT ( 'NONE',  ( 0.0000000000000000000, 0.0000000000000000000, 0.0000000000000000000 ) ) ;
#114 = APPROVAL_ROLE ( '' ) ;
#115 = FACE_OUTER_BOUND ( 'NONE', #102, .T. ) ;
#116 = EDGE_CURVE ( 'NONE', #265, #237, #150, .T. ) ;
#117 = AXIS2_PLACEMENT_3D ( 'NONE', #309, #229, #171 ) ;
#118 = CARTESIAN_POINT ( 'NONE',  ( 5.935518276033326704E-14, 2.074999999999993516, 17.00000000000000000 ) ) ;
#119 = CIRCLE ( 'NONE', #311, 2.074999999999993516 ) ;
#120 = DIRECTION ( 'NONE',  ( -3.491481338843133355E-15, 1.224646799147353207E-16, -1.000000000000000000 ) ) ;
#121 = EDGE_CURVE ( 'NONE', #12, #330, #220, .T. ) ;
#122 = VECTOR ( 'NONE', #170, 999.9999999999998863 ) ;
#123 = DIRECTION ( 'NONE',  ( 3.491481338843133355E-15, -1.224646799147353207E-16, 1.000000000000000000 ) ) ;
#124 = VERTEX_POINT ( 'NONE', #50 ) ;
#125 = DIRECTION ( 'NONE',  ( 0.0000000000000000000, 0.0000000000000000000, 1.000000000000000000 ) ) ;
#126 = VECTOR ( 'NONE', #166, 1000.000000000000000 ) ;
#127 = ORIENTED_EDGE ( 'NONE', *, *, #278, .T. ) ;
#128 = CARTESIAN_POINT ( 'NONE',  ( 5.935518276033326704E-14, -2.081899558550500280E-15, 17.00000000000000000 ) ) ;
#129 = ORIENTED_EDGE ( 'NONE', *, *, #156, .F. ) ;
#130 = ADVANCED_FACE ( 'NONE', ( #191 ), #274, .T. ) ;
#131 = CC_DESIGN_DATE_AND_TIME_ASSIGNMENT ( #246, #271, ( #31 ) ) ;
#132 = AXIS2_PLACEMENT_3D ( 'NONE', #128, #264, #187 ) ;
#133 = ORIENTED_EDGE ( 'NONE', *, *, #268, .F. ) ;
#134 = AXIS2_PLACEMENT_3D ( 'NONE', #269, #53, #236 ) ;
#135 = DATE_AND_TIME ( #221, #52 ) ;
#136 = VERTEX_POINT ( 'NONE', #141 ) ;
#137 = PERSON_AND_ORGANIZATION ( #320, #177 ) ;
#138 = LOCAL_TIME ( 9, 50, 44.00000000000000000, #233 ) ;
#139 = CONICAL_SURFACE ( 'NONE', #134, 1.575000000000000178, 0.7853981633974476129 ) ;
#140 = CALENDAR_DATE ( 2021, 3, 9 ) ;
#141 = CARTESIAN_POINT ( 'NONE',  ( 5.935518276033326704E-14, 2.074999999999993516, 17.00000000000000000 ) ) ;
#142 = CARTESIAN_POINT ( 'NONE',  ( 4.353129300054488915E-15, -1.526872220188544850E-16, 1.246785784482197235 ) ) ;
#143 = ADVANCED_FACE ( 'NONE', ( #115 ), #272, .T. ) ;
#144 = AXIS2_PLACEMENT_3D ( 'NONE', #91, #310, #47 ) ;
#145 = PERSON_AND_ORGANIZATION_ROLE ( 'creator' ) ;
#146 = DIRECTION ( 'NONE',  ( -3.491481338843133355E-15, 1.224646799147353207E-16, -1.000000000000000000 ) ) ;
#147 = AXIS2_PLACEMENT_3D ( 'NONE', #253, #148, #22 ) ;
#148 = DIRECTION ( 'NONE',  ( 3.491481338843133355E-15, -1.224646799147353207E-16, 1.000000000000000000 ) ) ;
#149 = FACE_OUTER_BOUND ( 'NONE', #105, .T. ) ;
#150 = LINE ( 'NONE', #196, #6 ) ;
#151 = ORIENTED_EDGE ( 'NONE', *, *, #247, .F. ) ;
#152 = PRODUCT_DEFINITION ( 'UNKNOWN', '', #234, #92 ) ;
#153 = FACE_OUTER_BOUND ( 'NONE', #77, .T. ) ;
#154 = EDGE_LOOP ( 'NONE', ( #213, #321, #127 ) ) ;
#155 = CIRCLE ( 'NONE', #103, 2.075000000000000178 ) ;
#156 = EDGE_CURVE ( 'NONE', #136, #15, #75, .T. ) ;
#157 = ORIENTED_EDGE ( 'NONE', *, *, #254, .T. ) ;
#158 = DIRECTION ( 'NONE',  ( -3.491481338843133355E-15, 1.224646799147353207E-16, -1.000000000000000000 ) ) ;
#159 = PRODUCT_DEFINITION_SHAPE ( 'NONE', 'NONE',  #152 ) ;
#160 = ORIENTED_EDGE ( 'NONE', *, *, #215, .F. ) ;
#161 = AXIS2_PLACEMENT_3D ( 'NONE', #216, #287, #38 ) ;
#162 = DATE_AND_TIME ( #189, #11 ) ;
#163 = ADVANCED_FACE ( 'NONE', ( #176 ), #139, .T. ) ;
#164 = DIRECTION ( 'NONE',  ( 0.0000000000000000000, 1.000000000000000000, 0.0000000000000000000 ) ) ;
#165 = SECURITY_CLASSIFICATION_LEVEL ( 'unclassified' ) ;
#166 = DIRECTION ( 'NONE',  ( -3.491481338843133355E-15, 1.224646799147353207E-16, -1.000000000000000000 ) ) ;
#167 = ORIENTED_EDGE ( 'NONE', *, *, #121, .F. ) ;
#168 = DATE_AND_TIME ( #140, #138 ) ;
#169 = ORIENTED_EDGE ( 'NONE', *, *, #247, .T. ) ;
#170 = DIRECTION ( 'NONE',  ( -2.382254525458718258E-15, -0.7071067811865469066, -0.7071067811865482389 ) ) ;
#171 = DIRECTION ( 'NONE',  ( 0.0000000000000000000, 1.000000000000000000, 0.0000000000000000000 ) ) ;
#172 = DIRECTION ( 'NONE',  ( -3.712636037372996347E-31, -1.000000000000000000, -1.045014142154706326E-16 ) ) ;
#173 = AXIS2_PLACEMENT_3D ( 'NONE', #113, #23, #223 ) ;
#174 = EDGE_CURVE ( 'NONE', #265, #296, #26, .T. ) ;
#175 = LINE ( 'NONE', #51, #49 ) ;
#176 = FACE_OUTER_BOUND ( 'NONE', #262, .T. ) ;
#177 = ORGANIZATION ( 'UNSPECIFIED', 'UNSPECIFIED', '' ) ;
#178 = CARTESIAN_POINT ( 'NONE',  ( 1.902857329669507616E-13, -6.674325055353075041E-15, 54.50000000000000000 ) ) ;
#179 = CLOSED_SHELL ( 'NONE', ( #85, #186, #212, #130, #245 ) ) ;
#180 = ORIENTED_EDGE ( 'NONE', *, *, #2, .T. ) ;
#181 = DIRECTION ( 'NONE',  ( 1.000000000000000000, 0.0000000000000000000, 0.0000000000000000000 ) ) ;
#182 = DIRECTION ( 'NONE',  ( -3.491481338843133355E-15, 1.224646799147353207E-16, -1.000000000000000000 ) ) ;
#183 = ORIENTED_EDGE ( 'NONE', *, *, #156, .T. ) ;
#184 = CIRCLE ( 'NONE', #259, 2.074999999999995737 ) ;
#185 = ORIENTED_EDGE ( 'NONE', *, *, #252, .F. ) ;
#186 = ADVANCED_FACE ( 'NONE', ( #299 ), #260, .T. ) ;
#187 = DIRECTION ( 'NONE',  ( 0.0000000000000000000, 1.000000000000000000, 0.0000000000000000000 ) ) ;
#188 = APPROVAL_DATE_TIME ( #305, #13 ) ;
#189 = CALENDAR_DATE ( 2021, 3, 9 ) ;
#190 = LINE ( 'NONE', #303, #126 ) ;
#191 = FACE_OUTER_BOUND ( 'NONE', #9, .T. ) ;
#192 = DIRECTION ( 'NONE',  ( -3.491481338843133355E-15, 1.224646799147353207E-16, -1.000000000000000000 ) ) ;
#193 = CC_DESIGN_APPROVAL ( #197, ( #234 ) ) ;
#194 = FACE_OUTER_BOUND ( 'NONE', #206, .T. ) ;
#195 = LINE ( 'NONE', #284, #122 ) ;
#196 = CARTESIAN_POINT ( 'NONE',  ( 4.353129300054488126E-15, -2.074999999999993516, 1.246785784482197013 ) ) ;
#197 = APPROVAL ( #273, 'UNSPECIFIED' ) ;
#198 = PERSON_AND_ORGANIZATION_ROLE ( 'design_owner' ) ;
#199 = CYLINDRICAL_SURFACE ( 'NONE', #173, 2.074999999999994404 ) ;
#200 = CARTESIAN_POINT ( 'NONE',  ( 0.0000000000000000000, 0.0000000000000000000, 0.0000000000000000000 ) ) ;
#201 = APPROVAL ( #63, 'UNSPECIFIED' ) ;
#202 = ADVANCED_BREP_SHAPE_REPRESENTATION ( '54571', ( #16, #257, #291 ), #306 ) ;
#203 = VECTOR ( 'NONE', #300, 1000.000000000000000 ) ;
#204 = ORIENTED_EDGE ( 'NONE', *, *, #25, .F. ) ;
#205 = AXIS2_PLACEMENT_3D ( 'NONE', #280, #146, #43 ) ;
#206 = EDGE_LOOP ( 'NONE', ( #54, #211, #129, #289 ) ) ;
#207 =( LENGTH_UNIT ( ) NAMED_UNIT ( * ) SI_UNIT ( .MILLI., .METRE. ) );
#208 = APPLICATION_PROTOCOL_DEFINITION ( 'international standard', 'config_control_design', 1994, #70 ) ;
#209 = VERTEX_POINT ( 'NONE', #118 ) ;
#210 = APPROVAL_PERSON_ORGANIZATION ( #24, #13, #114 ) ;
#211 = ORIENTED_EDGE ( 'NONE', *, *, #30, .T. ) ;
#212 = ADVANCED_FACE ( 'NONE', ( #337 ), #283, .T. ) ;
#213 = ORIENTED_EDGE ( 'NONE', *, *, #174, .F. ) ;
#214 = VERTEX_POINT ( 'NONE', #256 ) ;
#215 = EDGE_CURVE ( 'NONE', #324, #237, #94, .T. ) ;
#216 = CARTESIAN_POINT ( 'NONE',  ( 1.920314736363723472E-13, 1.181060828846203150E-32, 55.00000000000000000 ) ) ;
#217 = LOCAL_TIME ( 9, 50, 44.00000000000000000, #327 ) ;
#218 = PERSON_AND_ORGANIZATION_ROLE ( 'classification_officer' ) ;
#219 =( NAMED_UNIT ( * ) PLANE_ANGLE_UNIT ( ) SI_UNIT ( $, .RADIAN. ) );
#220 = CIRCLE ( 'NONE', #8, 1.575000000000000178 ) ;
#221 = CALENDAR_DATE ( 2021, 3, 9 ) ;
#222 = CC_DESIGN_PERSON_AND_ORGANIZATION_ASSIGNMENT ( #137, #86, ( #234 ) ) ;
#223 = DIRECTION ( 'NONE',  ( 4.275831445896958607E-31, 1.000000000000000000, 1.224646799147353207E-16 ) ) ;
#224 = FACE_OUTER_BOUND ( 'NONE', #317, .T. ) ;
#225 = CARTESIAN_POINT ( 'NONE',  ( 2.541142108230742294E-16, -2.074999999999994404, -2.541142108230759550E-16 ) ) ;
#226 = CARTESIAN_POINT ( 'NONE',  ( 1.920314736363723472E-13, -6.735557395310442615E-15, 55.00000000000000000 ) ) ;
#227 = UNCERTAINTY_MEASURE_WITH_UNIT (LENGTH_MEASURE( 1.000000000000000082E-05 ), #207, 'distance_accuracy_value', 'NONE');
#228 = DIRECTION ( 'NONE',  ( 1.903218546456022717E-15, 0.8571673007021097801, 0.5150380749100585964 ) ) ;
#229 = DIRECTION ( 'NONE',  ( -3.491481338843133355E-15, 1.224646799147353207E-16, -1.000000000000000000 ) ) ;
#230 = CC_DESIGN_DATE_AND_TIME_ASSIGNMENT ( #168, #19, ( #152 ) ) ;
#231 = CIRCLE ( 'NONE', #295, 1.575000000000000178 ) ;
#232 = DIRECTION ( 'NONE',  ( -3.491481338843133355E-15, 1.224646799147353207E-16, -1.000000000000000000 ) ) ;
#233 = COORDINATED_UNIVERSAL_TIME_OFFSET ( 1, 0, .AHEAD. ) ;
#234 = PRODUCT_DEFINITION_FORMATION_WITH_SPECIFIED_SOURCE ( 'ANY', '', #67, .NOT_KNOWN. ) ;
#235 = CARTESIAN_POINT ( 'NONE',  ( 5.935518276033326704E-14, -2.081899558550500280E-15, 17.00000000000000000 ) ) ;
#236 = DIRECTION ( 'NONE',  ( 0.0000000000000000000, 1.000000000000000000, 0.0000000000000000000 ) ) ;
#237 = VERTEX_POINT ( 'NONE', #90 ) ;
#238 = ADVANCED_FACE ( 'NONE', ( #194 ), #279, .T. ) ;
#239 = ORIENTED_EDGE ( 'NONE', *, *, #121, .T. ) ;
#240 = DIRECTION ( 'NONE',  ( -3.491481338843133355E-15, 1.224646799147353207E-16, -1.000000000000000000 ) ) ;
#241 = ORIENTED_EDGE ( 'NONE', *, *, #252, .T. ) ;
#242 = CC_DESIGN_SECURITY_CLASSIFICATION ( #31, ( #234 ) ) ;
#243 = EDGE_LOOP ( 'NONE', ( #72, #32, #180 ) ) ;
#244 = APPROVAL_DATE_TIME ( #135, #201 ) ;
#245 = ADVANCED_FACE ( 'NONE', ( #153 ), #267, .T. ) ;
#246 = DATE_AND_TIME ( #109, #217 ) ;
#247 = EDGE_CURVE ( 'NONE', #209, #324, #266, .T. ) ;
#248 = CARTESIAN_POINT ( 'NONE',  ( 1.913821013425059441E-13, -1.575000000000006839, 55.00000000000000000 ) ) ;
#249 = ORIENTED_EDGE ( 'NONE', *, *, #278, .F. ) ;
#250 = COORDINATED_UNIVERSAL_TIME_OFFSET ( 1, 0, .AHEAD. ) ;
#251 = PERSON_AND_ORGANIZATION ( #320, #177 ) ;
#252 = EDGE_CURVE ( 'NONE', #12, #214, #294, .T. ) ;
#253 = CARTESIAN_POINT ( 'NONE',  ( 4.353129300054488915E-15, -1.526872220188544850E-16, 1.246785784482197235 ) ) ;
#254 = EDGE_CURVE ( 'NONE', #214, #136, #190, .T. ) ;
#255 = PLANE ( 'NONE',  #161 ) ;
#256 = CARTESIAN_POINT ( 'NONE',  ( 1.902857329669507616E-13, 2.074999999999993516, 54.50000000000000000 ) ) ;
#257 = MANIFOLD_SOLID_BREP ( 'Corps-Déplacer/Copier1[2]', #179 ) ;
#258 = PRODUCT_RELATED_PRODUCT_CATEGORY ( 'detail', '', ( #67 ) ) ;
#259 = AXIS2_PLACEMENT_3D ( 'NONE', #64, #276, #44 ) ;
#260 = CONICAL_SURFACE ( 'NONE', #82, 2.074999999999993516, 1.029744258676649649 ) ;
#261 = CARTESIAN_POINT ( 'NONE',  ( 5.935518276033326704E-14, 1.556000774511670563E-32, 17.00000000000000000 ) ) ;
#262 = EDGE_LOOP ( 'NONE', ( #239, #316, #34, #185 ) ) ;
#263 = PERSON_AND_ORGANIZATION ( #320, #177 ) ;
#264 = DIRECTION ( 'NONE',  ( -3.491481338843133355E-15, 1.224646799147353207E-16, -1.000000000000000000 ) ) ;
#265 = VERTEX_POINT ( 'NONE', #61 ) ;
#266 = CIRCLE ( 'NONE', #275, 2.074999999999995737 ) ;
#267 = PLANE ( 'NONE',  #107 ) ;
#268 = EDGE_CURVE ( 'NONE', #324, #209, #184, .T. ) ;
#269 = CARTESIAN_POINT ( 'NONE',  ( 1.920314736363723472E-13, -6.735557395310442615E-15, 55.00000000000000000 ) ) ;
#270 = ORIENTED_EDGE ( 'NONE', *, *, #69, .T. ) ;
#271 = DATE_TIME_ROLE ( 'classification_date' ) ;
#272 = CONICAL_SURFACE ( 'NONE', #117, 1.575000000000000178, 0.7853981633974476129 ) ;
#273 = APPROVAL_STATUS ( 'not_yet_approved' ) ;
#274 = CYLINDRICAL_SURFACE ( 'NONE', #205, 2.074999999999994404 ) ;
#275 = AXIS2_PLACEMENT_3D ( 'NONE', #235, #182, #329 ) ;
#276 = DIRECTION ( 'NONE',  ( -3.491481338843133355E-15, 1.224646799147353207E-16, -1.000000000000000000 ) ) ;
#277 = CARTESIAN_POINT ( 'NONE',  ( 2.541142108230746731E-16, -2.074999999999997957, -2.541142108230763988E-16 ) ) ;
#278 = EDGE_CURVE ( 'NONE', #237, #296, #119, .T. ) ;
#279 = CYLINDRICAL_SURFACE ( 'NONE', #336, 2.074999999999997957 ) ;
#280 = CARTESIAN_POINT ( 'NONE',  ( 0.0000000000000000000, 0.0000000000000000000, 0.0000000000000000000 ) ) ;
#281 = CC_DESIGN_PERSON_AND_ORGANIZATION_ASSIGNMENT ( #39, #218, ( #31 ) ) ;
#282 = DIRECTION ( 'NONE',  ( -3.491481338843133355E-15, 1.224646799147353207E-16, -1.000000000000000000 ) ) ;
#283 = CONICAL_SURFACE ( 'NONE', #147, 2.074999999999993516, 1.029744258676649649 ) ;
#284 = CARTESIAN_POINT ( 'NONE',  ( 1.922243555072380594E-13, -1.575000000000006839, 55.00000000000000000 ) ) ;
#285 = LOCAL_TIME ( 9, 50, 44.00000000000000000, #93 ) ;
#286 = CC_DESIGN_PERSON_AND_ORGANIZATION_ASSIGNMENT ( #263, #145, ( #152 ) ) ;
#287 = DIRECTION ( 'NONE',  ( -3.491481338843133355E-15, 1.224646799147353207E-16, -1.000000000000000000 ) ) ;
#288 = ADVANCED_FACE ( 'NONE', ( #224 ), #332, .T. ) ;
#289 = ORIENTED_EDGE ( 'NONE', *, *, #254, .F. ) ;
#290 = CARTESIAN_POINT ( 'NONE',  ( 4.607243510877564820E-15, 2.074999999999993516, 1.246785784482197457 ) ) ;
#291 = AXIS2_PLACEMENT_3D ( 'NONE', #28, #125, #181 ) ;
#292 = ADVANCED_FACE ( 'NONE', ( #66 ), #255, .F. ) ;
#293 = ORIENTED_EDGE ( 'NONE', *, *, #315, .T. ) ;
#294 = LINE ( 'NONE', #87, #203 ) ;
#295 = AXIS2_PLACEMENT_3D ( 'NONE', #88, #71, #110 ) ;
#296 = VERTEX_POINT ( 'NONE', #290 ) ;
#297 = VECTOR ( 'NONE', #334, 1000.000000000000000 ) ;
#298 = COORDINATED_UNIVERSAL_TIME_OFFSET ( 1, 0, .AHEAD. ) ;
#299 = FACE_OUTER_BOUND ( 'NONE', #243, .T. ) ;
#300 = DIRECTION ( 'NONE',  ( -2.468850131082267316E-15, 0.7071067811865471286, -0.7071067811865479058 ) ) ;
#301 = PERSON_AND_ORGANIZATION ( #320, #177 ) ;
#302 = DIRECTION ( 'NONE',  ( -3.491481338843133355E-15, 1.224646799147353207E-16, -1.000000000000000000 ) ) ;
#303 = CARTESIAN_POINT ( 'NONE',  ( 8.872350250236179168E-31, 2.074999999999997957, 2.541142108230755113E-16 ) ) ;
#304 = EDGE_LOOP ( 'NONE', ( #169, #27, #83, #204 ) ) ;
#305 = DATE_AND_TIME ( #56, #285 ) ;
#306 =( GEOMETRIC_REPRESENTATION_CONTEXT ( 3 ) GLOBAL_UNCERTAINTY_ASSIGNED_CONTEXT ( ( #227 ) ) GLOBAL_UNIT_ASSIGNED_CONTEXT ( ( #207, #219, #58 ) ) REPRESENTATION_CONTEXT ( 'NONE', 'WORKASPACE' ) );
#307 = DIRECTION ( 'NONE',  ( 4.275831445896957731E-31, 1.000000000000000000, 1.224646799147352961E-16 ) ) ;
#308 = APPLICATION_CONTEXT ( 'configuration controlled 3d designs of mechanical parts and assemblies' ) ;
#309 = CARTESIAN_POINT ( 'NONE',  ( 1.920314736363723472E-13, -6.735557395310442615E-15, 55.00000000000000000 ) ) ;
#310 = DIRECTION ( 'NONE',  ( -3.491481338843133355E-15, 1.224646799147353207E-16, -1.000000000000000000 ) ) ;
#311 = AXIS2_PLACEMENT_3D ( 'NONE', #142, #21, #111 ) ;
#312 = CLOSED_SHELL ( 'NONE', ( #163, #238, #59, #288, #143, #292 ) ) ;
#313 = CARTESIAN_POINT ( 'NONE',  ( 1.250745720744650878E-13, -2.074999999999997957, 17.00000000000000000 ) ) ;
#314 = DIRECTION ( 'NONE',  ( -3.491481338843133355E-15, 1.224646799147353207E-16, -1.000000000000000000 ) ) ;
#315 = EDGE_CURVE ( 'NONE', #15, #136, #326, .T. ) ;
#316 = ORIENTED_EDGE ( 'NONE', *, *, #101, .T. ) ;
#317 = EDGE_LOOP ( 'NONE', ( #55, #36, #157, #81 ) ) ;
#318 = AXIS2_PLACEMENT_3D ( 'NONE', #97, #95, #335 ) ;
#319 = DIRECTION ( 'NONE',  ( 3.491481338843133355E-15, -1.224646799147353207E-16, 1.000000000000000000 ) ) ;
#320 = PERSON ( 'UNSPECIFIED', 'UNSPECIFIED', 'UNSPECIFIED', ('UNSPECIFIED'), ('UNSPECIFIED'), ('UNSPECIFIED') ) ;
#321 = ORIENTED_EDGE ( 'NONE', *, *, #116, .T. ) ;
#322 = ORIENTED_EDGE ( 'NONE', *, *, #69, .F. ) ;
#323 = ORIENTED_EDGE ( 'NONE', *, *, #101, .F. ) ;
#324 = VERTEX_POINT ( 'NONE', #10 ) ;
#325 = APPROVAL_ROLE ( '' ) ;
#326 = CIRCLE ( 'NONE', #132, 2.074999999999995737 ) ;
#327 = COORDINATED_UNIVERSAL_TIME_OFFSET ( 1, 0, .AHEAD. ) ;
#328 = VECTOR ( 'NONE', #228, 999.9999999999998863 ) ;
#329 = DIRECTION ( 'NONE',  ( 0.0000000000000000000, 1.000000000000000000, 0.0000000000000000000 ) ) ;
#330 = VERTEX_POINT ( 'NONE', #248 ) ;
#331 = EDGE_CURVE ( 'NONE', #214, #124, #155, .T. ) ;
#332 = CYLINDRICAL_SURFACE ( 'NONE', #80, 2.074999999999997957 ) ;
#333 = CARTESIAN_POINT ( 'NONE',  ( 4.607243510877564820E-15, 2.074999999999993516, 1.246785784482197457 ) ) ;
#334 = DIRECTION ( 'NONE',  ( -3.491481338843133355E-15, 1.224646799147353207E-16, -1.000000000000000000 ) ) ;
#335 = DIRECTION ( 'NONE',  ( -4.275831445896958607E-31, -1.000000000000000000, -1.224646799147353207E-16 ) ) ;
#336 = AXIS2_PLACEMENT_3D ( 'NONE', #200, #158, #73 ) ;
#337 = FACE_OUTER_BOUND ( 'NONE', #154, .T. ) ;
ENDSEC;
END-ISO-10303-21;
