ISO-10303-21;
HEADER;
FILE_DESCRIPTION (( 'STEP AP203' ),
    '1' );
FILE_NAME ('54570.step',
    '2021-09-03T07:50:41',
    ( '' ),
    ( '' ),
    'SwSTEP 2.0',
    'SolidWorks 2019',
    '' );
FILE_SCHEMA (( 'CONFIG_CONTROL_DESIGN' ));
ENDSEC;

DATA;
#1 = ORIENTED_EDGE ( 'NONE', *, *, #188, .T. ) ;
#2 = APPROVAL_STATUS ( 'not_yet_approved' ) ;
#3 = VERTEX_POINT ( 'NONE', #152 ) ;
#4 = CARTESIAN_POINT ( 'NONE',  ( 1.920314736363723472E-13, -6.735557395310442615E-15, 55.00000000000000000 ) ) ;
#5 = AXIS2_PLACEMENT_3D ( 'NONE', #253, #181, #233 ) ;
#6 = FACE_OUTER_BOUND ( 'NONE', #22, .T. ) ;
#7 = PERSON_AND_ORGANIZATION ( #248, #14 ) ;
#8 = CARTESIAN_POINT ( 'NONE',  ( 1.920314736363723472E-13, 1.549999999999993161, 55.00000000000000000 ) ) ;
#9 = COORDINATED_UNIVERSAL_TIME_OFFSET ( 1, 0, .AHEAD. ) ;
#10 = CLOSED_SHELL ( 'NONE', ( #61, #140, #320, #129, #135, #308 ) ) ;
#11 = LOCAL_TIME ( 9, 50, 41.00000000000000000, #9 ) ;
#12 = EDGE_CURVE ( 'NONE', #3, #213, #131, .T. ) ;
#13 = CARTESIAN_POINT ( 'NONE',  ( 1.920314736363723472E-13, -6.735557395310442615E-15, 55.00000000000000000 ) ) ;
#14 = ORGANIZATION ( 'UNSPECIFIED', 'UNSPECIFIED', '' ) ;
#15 = EDGE_CURVE ( 'NONE', #336, #44, #316, .T. ) ;
#16 = DIRECTION ( 'NONE',  ( -3.491481338843133355E-15, 1.224646799147353207E-16, -1.000000000000000000 ) ) ;
#17 = FACE_OUTER_BOUND ( 'NONE', #136, .T. ) ;
#18 = LINE ( 'NONE', #64, #106 ) ;
#19 = AXIS2_PLACEMENT_3D ( 'NONE', #263, #139, #31 ) ;
#20 = ORIENTED_EDGE ( 'NONE', *, *, #206, .T. ) ;
#21 = EDGE_CURVE ( 'NONE', #168, #3, #205, .T. ) ;
#22 = EDGE_LOOP ( 'NONE', ( #28, #209, #187 ) ) ;
#23 = CARTESIAN_POINT ( 'NONE',  ( 5.935518276033326704E-14, -2.081899558550500280E-15, 17.00000000000000000 ) ) ;
#24 = CYLINDRICAL_SURFACE ( 'NONE', #337, 2.049999999999994493 ) ;
#25 = DATE_TIME_ROLE ( 'classification_date' ) ;
#26 = CIRCLE ( 'NONE', #19, 2.049999999999995381 ) ;
#27 = COORDINATED_UNIVERSAL_TIME_OFFSET ( 1, 0, .AHEAD. ) ;
#28 = ORIENTED_EDGE ( 'NONE', *, *, #145, .F. ) ;
#29 = LINE ( 'NONE', #212, #210 ) ;
#30 = EDGE_LOOP ( 'NONE', ( #241, #159 ) ) ;
#31 = DIRECTION ( 'NONE',  ( 0.0000000000000000000, 1.000000000000000000, 0.0000000000000000000 ) ) ;
#32 = AXIS2_PLACEMENT_3D ( 'NONE', #124, #276, #230 ) ;
#33 = CC_DESIGN_APPROVAL ( #43, ( #274 ) ) ;
#34 = DIRECTION ( 'NONE',  ( 0.0000000000000000000, 1.000000000000000000, 0.0000000000000000000 ) ) ;
#35 = DIRECTION ( 'NONE',  ( -2.382254525458718258E-15, -0.7071067811865469066, -0.7071067811865482389 ) ) ;
#36 = CARTESIAN_POINT ( 'NONE',  ( 1.920314736363723472E-13, 1.549999999999993161, 55.00000000000000000 ) ) ;
#37 = AXIS2_PLACEMENT_3D ( 'NONE', #247, #90, #34 ) ;
#38 = AXIS2_PLACEMENT_3D ( 'NONE', #4, #79, #190 ) ;
#39 = ORIENTED_EDGE ( 'NONE', *, *, #245, .F. ) ;
#40 = PLANE ( 'NONE',  #5 ) ;
#41 = ORIENTED_EDGE ( 'NONE', *, *, #161, .F. ) ;
#42 = ADVANCED_FACE ( 'NONE', ( #68 ), #40, .T. ) ;
#43 = APPROVAL ( #138, 'UNSPECIFIED' ) ;
#44 = VERTEX_POINT ( 'NONE', #257 ) ;
#45 = ORIENTED_EDGE ( 'NONE', *, *, #186, .T. ) ;
#46 = CLOSED_SHELL ( 'NONE', ( #242, #259, #324, #290, #42 ) ) ;
#47 = ORIENTED_EDGE ( 'NONE', *, *, #333, .F. ) ;
#48 = CARTESIAN_POINT ( 'NONE',  ( 1.920314736363723472E-13, 1.162313831562929656E-32, 55.00000000000000000 ) ) ;
#49 = DIRECTION ( 'NONE',  ( -3.491481338843133355E-15, 1.224646799147353207E-16, -1.000000000000000000 ) ) ;
#50 = CALENDAR_DATE ( 2021, 3, 9 ) ;
#51 = EDGE_LOOP ( 'NONE', ( #54, #41 ) ) ;
#52 = FACE_OUTER_BOUND ( 'NONE', #281, .T. ) ;
#53 = PERSON_AND_ORGANIZATION ( #248, #14 ) ;
#54 = ORIENTED_EDGE ( 'NONE', *, *, #331, .F. ) ;
#55 = CARTESIAN_POINT ( 'NONE',  ( 5.935518276033326704E-14, 1.537253777228397479E-32, 17.00000000000000000 ) ) ;
#56 = DATE_AND_TIME ( #289, #86 ) ;
#57 = APPROVAL_PERSON_ORGANIZATION ( #297, #88, #267 ) ;
#58 = DIRECTION ( 'NONE',  ( -3.491481338843133355E-15, 1.224646799147353207E-16, -1.000000000000000000 ) ) ;
#59 = DATE_AND_TIME ( #262, #11 ) ;
#60 = CARTESIAN_POINT ( 'NONE',  ( 3.207898495353679355E-14, -2.049999999999997602, 17.00000000000000000 ) ) ;
#61 = ADVANCED_FACE ( 'NONE', ( #17 ), #239, .T. ) ;
#62 = DIRECTION ( 'NONE',  ( 0.0000000000000000000, 1.000000000000000000, 0.0000000000000000000 ) ) ;
#63 = MANIFOLD_SOLID_BREP ( 'Corps-Déplacer/Copier1[2]', #46 ) ;
#64 = CARTESIAN_POINT ( 'NONE',  ( 8.765454464088741584E-31, 2.049999999999994493, 2.510525938252067283E-16 ) ) ;
#65 = AXIS2_PLACEMENT_3D ( 'NONE', #48, #109, #78 ) ;
#66 = DIRECTION ( 'NONE',  ( 1.000000000000000000, 0.0000000000000000000, 0.0000000000000000000 ) ) ;
#67 = FACE_OUTER_BOUND ( 'NONE', #191, .T. ) ;
#68 = FACE_OUTER_BOUND ( 'NONE', #51, .T. ) ;
#69 = MANIFOLD_SOLID_BREP ( 'Corps-Déplacer/Copier1[1]', #10 ) ;
#70 = DIRECTION ( 'NONE',  ( 0.0000000000000000000, 0.0000000000000000000, 1.000000000000000000 ) ) ;
#71 = CONICAL_SURFACE ( 'NONE', #240, 2.049999999999993161, 1.029744258676649649 ) ;
#72 = ORIENTED_EDGE ( 'NONE', *, *, #179, .T. ) ;
#73 = APPROVAL ( #2, 'UNSPECIFIED' ) ;
#74 = ORIENTED_EDGE ( 'NONE', *, *, #186, .F. ) ;
#75 = FACE_OUTER_BOUND ( 'NONE', #158, .T. ) ;
#76 = CARTESIAN_POINT ( 'NONE',  ( 5.935518276033326704E-14, 2.049999999999993161, 17.00000000000000000 ) ) ;
#77 = DATE_AND_TIME ( #215, #329 ) ;
#78 = DIRECTION ( 'NONE',  ( 4.275831445896958607E-31, 1.000000000000000000, 1.224646799147353207E-16 ) ) ;
#79 = DIRECTION ( 'NONE',  ( -3.491481338843133355E-15, 1.224646799147353207E-16, -1.000000000000000000 ) ) ;
#80 = DIRECTION ( 'NONE',  ( -3.491481338843133355E-15, 1.224646799147353207E-16, -1.000000000000000000 ) ) ;
#81 = FACE_OUTER_BOUND ( 'NONE', #309, .T. ) ;
#82 = PERSON_AND_ORGANIZATION_ROLE ( 'classification_officer' ) ;
#83 = VERTEX_POINT ( 'NONE', #229 ) ;
#84 = AXIS2_PLACEMENT_3D ( 'NONE', #142, #94, #87 ) ;
#85 = CARTESIAN_POINT ( 'NONE',  ( 1.250715104574670623E-13, -2.050000000000006040, 54.50000000000000000 ) ) ;
#86 = LOCAL_TIME ( 9, 50, 41.00000000000000000, #98 ) ;
#87 = DIRECTION ( 'NONE',  ( 4.275831445896958607E-31, 1.000000000000000000, 1.224646799147353207E-16 ) ) ;
#88 = APPROVAL ( #319, 'UNSPECIFIED' ) ;
#89 = DIRECTION ( 'NONE',  ( 1.798245827342160317E-15, -0.8571673007021098911, 0.5150380749100582634 ) ) ;
#90 = DIRECTION ( 'NONE',  ( -3.491481338843133355E-15, 1.224646799147353207E-16, -1.000000000000000000 ) ) ;
#91 = LOCAL_TIME ( 9, 50, 41.00000000000000000, #27 ) ;
#92 = DIRECTION ( 'NONE',  ( 0.0000000000000000000, 1.000000000000000000, 0.0000000000000000000 ) ) ;
#93 = CARTESIAN_POINT ( 'NONE',  ( 1.922212938902401854E-13, -1.550000000000006706, 55.00000000000000000 ) ) ;
#94 = DIRECTION ( 'NONE',  ( -3.491481338843133355E-15, 1.224646799147353207E-16, -1.000000000000000000 ) ) ;
#95 = ORIENTED_EDGE ( 'NONE', *, *, #12, .F. ) ;
#96 = ORIENTED_EDGE ( 'NONE', *, *, #256, .F. ) ;
#97 = CIRCLE ( 'NONE', #38, 1.550000000000000044 ) ;
#98 = COORDINATED_UNIVERSAL_TIME_OFFSET ( 1, 0, .AHEAD. ) ;
#99 = ORIENTED_EDGE ( 'NONE', *, *, #188, .F. ) ;
#100 = CARTESIAN_POINT ( 'NONE',  ( 0.0000000000000000000, 0.0000000000000000000, 0.0000000000000000000 ) ) ;
#101 = VERTEX_POINT ( 'NONE', #279 ) ;
#102 = DESIGN_CONTEXT ( 'detailed design', #258, 'design' ) ;
#103 = ORIENTED_EDGE ( 'NONE', *, *, #206, .F. ) ;
#104 = COORDINATED_UNIVERSAL_TIME_OFFSET ( 1, 0, .AHEAD. ) ;
#105 = ORIENTED_EDGE ( 'NONE', *, *, #182, .F. ) ;
#106 = VECTOR ( 'NONE', #178, 1000.000000000000000 ) ;
#107 = ORIENTED_EDGE ( 'NONE', *, *, #182, .T. ) ;
#108 = CONICAL_SURFACE ( 'NONE', #184, 2.049999999999993161, 1.029744258676649649 ) ;
#109 = DIRECTION ( 'NONE',  ( -3.491481338843133355E-15, 1.224646799147353207E-16, -1.000000000000000000 ) ) ;
#110 = CC_DESIGN_PERSON_AND_ORGANIZATION_ASSIGNMENT ( #114, #244, ( #274 ) ) ;
#111 = APPLICATION_PROTOCOL_DEFINITION ( 'international standard', 'config_control_design', 1994, #258 ) ;
#112 = APPROVAL_DATE_TIME ( #59, #43 ) ;
#113 = DIRECTION ( 'NONE',  ( 3.491481338843133355E-15, -1.224646799147353207E-16, 1.000000000000000000 ) ) ;
#114 = PERSON_AND_ORGANIZATION ( #248, #14 ) ;
#115 = EDGE_CURVE ( 'NONE', #101, #213, #18, .T. ) ;
#116 = DIRECTION ( 'NONE',  ( 3.491481338843133355E-15, -1.224646799147353207E-16, 1.000000000000000000 ) ) ;
#117 = CC_DESIGN_PERSON_AND_ORGANIZATION_ASSIGNMENT ( #53, #221, ( #274 ) ) ;
#118 = SECURITY_CLASSIFICATION ( '', '', #322 ) ;
#119 = DIRECTION ( 'NONE',  ( -3.491481338843133355E-15, 1.224646799147353207E-16, -1.000000000000000000 ) ) ;
#120 = DIRECTION ( 'NONE',  ( -3.491481338843133355E-15, 1.224646799147353207E-16, -1.000000000000000000 ) ) ;
#121 = CARTESIAN_POINT ( 'NONE',  ( 2.510525938252062353E-16, -2.049999999999997602, -2.510525938252080102E-16 ) ) ;
#122 = CARTESIAN_POINT ( 'NONE',  ( 0.0000000000000000000, 0.0000000000000000000, 0.0000000000000000000 ) ) ;
#123 = CARTESIAN_POINT ( 'NONE',  ( 1.902857329669507616E-13, -6.674325055353075041E-15, 54.50000000000000000 ) ) ;
#124 = CARTESIAN_POINT ( 'NONE',  ( 1.920314736363723472E-13, -6.735557395310442615E-15, 55.00000000000000000 ) ) ;
#125 = FACE_OUTER_BOUND ( 'NONE', #236, .T. ) ;
#126 = ORIENTED_EDGE ( 'NONE', *, *, #15, .F. ) ;
#127 = DIRECTION ( 'NONE',  ( 1.903218546456022717E-15, 0.8571673007021097801, 0.5150380749100585964 ) ) ;
#128 = EDGE_LOOP ( 'NONE', ( #20, #1, #47, #154 ) ) ;
#129 = ADVANCED_FACE ( 'NONE', ( #125 ), #284, .T. ) ;
#130 = EDGE_LOOP ( 'NONE', ( #74, #283, #107, #126 ) ) ;
#131 = CIRCLE ( 'NONE', #203, 2.049999999999993161 ) ;
#132 = APPROVAL_PERSON_ORGANIZATION ( #193, #43, #293 ) ;
#133 = CARTESIAN_POINT ( 'NONE',  ( 0.0000000000000000000, 0.0000000000000000000, 0.0000000000000000000 ) ) ;
#134 = PRODUCT_DEFINITION_SHAPE ( 'NONE', 'NONE',  #235 ) ;
#135 = ADVANCED_FACE ( 'NONE', ( #198 ), #223, .T. ) ;
#136 = EDGE_LOOP ( 'NONE', ( #72, #45, #103, #105 ) ) ;
#137 = DIRECTION ( 'NONE',  ( -3.757912086609253442E-31, -1.000000000000000000, -1.057758217059032306E-16 ) ) ;
#138 = APPROVAL_STATUS ( 'not_yet_approved' ) ;
#139 = DIRECTION ( 'NONE',  ( -3.491481338843133355E-15, 1.224646799147353207E-16, -1.000000000000000000 ) ) ;
#140 = ADVANCED_FACE ( 'NONE', ( #146 ), #272, .T. ) ;
#141 = DATE_TIME_ROLE ( 'creation_date' ) ;
#142 = CARTESIAN_POINT ( 'NONE',  ( 0.0000000000000000000, 0.0000000000000000000, 0.0000000000000000000 ) ) ;
#143 = CC_DESIGN_PERSON_AND_ORGANIZATION_ASSIGNMENT ( #254, #180, ( #265 ) ) ;
#144 = VECTOR ( 'NONE', #176, 1000.000000000000000 ) ;
#145 = EDGE_CURVE ( 'NONE', #207, #3, #303, .T. ) ;
#146 = FACE_OUTER_BOUND ( 'NONE', #128, .T. ) ;
#147 = CARTESIAN_POINT ( 'NONE',  ( 1.920314736363723472E-13, -6.735557395310442615E-15, 55.00000000000000000 ) ) ;
#148 = CIRCLE ( 'NONE', #197, 2.049999999999999822 ) ;
#149 = CIRCLE ( 'NONE', #201, 2.049999999999995381 ) ;
#150 = DIRECTION ( 'NONE',  ( 3.757912086609253442E-31, 1.000000000000000000, 1.057758217059032306E-16 ) ) ;
#151 = DIRECTION ( 'NONE',  ( 0.0000000000000000000, 1.000000000000000000, 0.0000000000000000000 ) ) ;
#152 = CARTESIAN_POINT ( 'NONE',  ( 4.300681959089975527E-15, -2.049999999999993161, 1.231764269006507817 ) ) ;
#153 = CC_DESIGN_DATE_AND_TIME_ASSIGNMENT ( #196, #25, ( #118 ) ) ;
#154 = ORIENTED_EDGE ( 'NONE', *, *, #278, .F. ) ;
#155 = AXIS2_PLACEMENT_3D ( 'NONE', #147, #275, #151 ) ;
#156 = AXIS2_PLACEMENT_3D ( 'NONE', #123, #332, #307 ) ;
#157 = ADVANCED_BREP_SHAPE_REPRESENTATION ( '54570', ( #69, #63, #232 ), #260 ) ;
#158 = EDGE_LOOP ( 'NONE', ( #238, #211, #162 ) ) ;
#159 = ORIENTED_EDGE ( 'NONE', *, *, #256, .T. ) ;
#160 = AXIS2_PLACEMENT_3D ( 'NONE', #170, #80, #321 ) ;
#161 = EDGE_CURVE ( 'NONE', #168, #101, #195, .T. ) ;
#162 = ORIENTED_EDGE ( 'NONE', *, *, #12, .T. ) ;
#163 = ORIENTED_EDGE ( 'NONE', *, *, #115, .T. ) ;
#164 = DIRECTION ( 'NONE',  ( 0.0000000000000000000, 1.000000000000000000, 0.0000000000000000000 ) ) ;
#165 = DATE_AND_TIME ( #50, #91 ) ;
#166 = DIRECTION ( 'NONE',  ( -4.275831445896958607E-31, -1.000000000000000000, -1.224646799147353207E-16 ) ) ;
#167 = CALENDAR_DATE ( 2021, 3, 9 ) ;
#168 = VERTEX_POINT ( 'NONE', #60 ) ;
#169 =( LENGTH_UNIT ( ) NAMED_UNIT ( * ) SI_UNIT ( .MILLI., .METRE. ) );
#170 = CARTESIAN_POINT ( 'NONE',  ( 0.0000000000000000000, 0.0000000000000000000, 0.0000000000000000000 ) ) ;
#171 = DIRECTION ( 'NONE',  ( -3.491481338843133355E-15, 1.224646799147353207E-16, -1.000000000000000000 ) ) ;
#172 = SHAPE_DEFINITION_REPRESENTATION ( #134, #157 ) ;
#173 = APPROVAL_DATE_TIME ( #77, #73 ) ;
#174 = APPROVAL_DATE_TIME ( #165, #88 ) ;
#175 = CC_DESIGN_DATE_AND_TIME_ASSIGNMENT ( #56, #141, ( #235 ) ) ;
#176 = DIRECTION ( 'NONE',  ( -3.491481338843133355E-15, 1.224646799147353207E-16, -1.000000000000000000 ) ) ;
#177 = AXIS2_PLACEMENT_3D ( 'NONE', #13, #119, #92 ) ;
#178 = DIRECTION ( 'NONE',  ( -3.491481338843133355E-15, 1.224646799147353207E-16, -1.000000000000000000 ) ) ;
#179 = EDGE_CURVE ( 'NONE', #323, #83, #325, .T. ) ;
#180 = PERSON_AND_ORGANIZATION_ROLE ( 'design_owner' ) ;
#181 = DIRECTION ( 'NONE',  ( 3.491481338843133355E-15, -1.224646799147353207E-16, 1.000000000000000000 ) ) ;
#182 = EDGE_CURVE ( 'NONE', #323, #44, #202, .T. ) ;
#183 = PERSON_AND_ORGANIZATION ( #248, #14 ) ;
#184 = AXIS2_PLACEMENT_3D ( 'NONE', #271, #113, #222 ) ;
#185 = ORIENTED_EDGE ( 'NONE', *, *, #331, .T. ) ;
#186 = EDGE_CURVE ( 'NONE', #83, #336, #273, .T. ) ;
#187 = ORIENTED_EDGE ( 'NONE', *, *, #208, .T. ) ;
#188 = EDGE_CURVE ( 'NONE', #336, #313, #225, .T. ) ;
#189 =( NAMED_UNIT ( * ) PLANE_ANGLE_UNIT ( ) SI_UNIT ( $, .RADIAN. ) );
#190 = DIRECTION ( 'NONE',  ( 0.0000000000000000000, 1.000000000000000000, 0.0000000000000000000 ) ) ;
#191 = EDGE_LOOP ( 'NONE', ( #268, #39 ) ) ;
#192 = DIRECTION ( 'NONE',  ( -3.491481338843133355E-15, 1.224646799147353207E-16, -1.000000000000000000 ) ) ;
#193 = PERSON_AND_ORGANIZATION ( #248, #14 ) ;
#194 = LINE ( 'NONE', #243, #266 ) ;
#195 = CIRCLE ( 'NONE', #37, 2.049999999999995381 ) ;
#196 = DATE_AND_TIME ( #167, #204 ) ;
#197 = AXIS2_PLACEMENT_3D ( 'NONE', #226, #300, #62 ) ;
#198 = FACE_OUTER_BOUND ( 'NONE', #130, .T. ) ;
#199 = CARTESIAN_POINT ( 'NONE',  ( 4.300681959089976316E-15, -1.508476169342899336E-16, 1.231764269006508039 ) ) ;
#200 = CARTESIAN_POINT ( 'NONE',  ( 4.551734552915183685E-15, 2.049999999999993161, 1.231764269006508261 ) ) ;
#201 = AXIS2_PLACEMENT_3D ( 'NONE', #291, #326, #261 ) ;
#202 = LINE ( 'NONE', #36, #335 ) ;
#203 = AXIS2_PLACEMENT_3D ( 'NONE', #305, #16, #150 ) ;
#204 = LOCAL_TIME ( 9, 50, 41.00000000000000000, #220 ) ;
#205 = LINE ( 'NONE', #255, #144 ) ;
#206 = EDGE_CURVE ( 'NONE', #44, #336, #148, .T. ) ;
#207 = VERTEX_POINT ( 'NONE', #122 ) ;
#208 = EDGE_CURVE ( 'NONE', #213, #3, #224, .T. ) ;
#209 = ORIENTED_EDGE ( 'NONE', *, *, #294, .T. ) ;
#210 = VECTOR ( 'NONE', #127, 999.9999999999998863 ) ;
#211 = ORIENTED_EDGE ( 'NONE', *, *, #145, .T. ) ;
#212 = CARTESIAN_POINT ( 'NONE',  ( 4.551734552915183685E-15, 2.049999999999993161, 1.231764269006508261 ) ) ;
#213 = VERTEX_POINT ( 'NONE', #200 ) ;
#214 = CC_DESIGN_PERSON_AND_ORGANIZATION_ASSIGNMENT ( #7, #82, ( #118 ) ) ;
#215 = CALENDAR_DATE ( 2021, 3, 9 ) ;
#216 = PERSON_AND_ORGANIZATION_ROLE ( 'creator' ) ;
#217 = AXIS2_PLACEMENT_3D ( 'NONE', #55, #116, #166 ) ;
#218 = FACE_OUTER_BOUND ( 'NONE', #30, .T. ) ;
#219 = CYLINDRICAL_SURFACE ( 'NONE', #160, 2.049999999999994493 ) ;
#220 = COORDINATED_UNIVERSAL_TIME_OFFSET ( 1, 0, .AHEAD. ) ;
#221 = PERSON_AND_ORGANIZATION_ROLE ( 'design_supplier' ) ;
#222 = DIRECTION ( 'NONE',  ( -3.757912086609253442E-31, -1.000000000000000000, -1.057758217059032306E-16 ) ) ;
#223 = CONICAL_SURFACE ( 'NONE', #177, 1.550000000000000044, 0.7853981633974476129 ) ;
#224 = CIRCLE ( 'NONE', #296, 2.049999999999993161 ) ;
#225 = LINE ( 'NONE', #121, #301 ) ;
#226 = CARTESIAN_POINT ( 'NONE',  ( 1.902857329669507616E-13, -6.674325055353075041E-15, 54.50000000000000000 ) ) ;
#227 = APPROVAL_PERSON_ORGANIZATION ( #318, #73, #292 ) ;
#228 =( NAMED_UNIT ( * ) SI_UNIT ( $, .STERADIAN. ) SOLID_ANGLE_UNIT ( ) );
#229 = CARTESIAN_POINT ( 'NONE',  ( 1.913790397255080701E-13, -1.550000000000006706, 55.00000000000000000 ) ) ;
#230 = DIRECTION ( 'NONE',  ( 0.0000000000000000000, 1.000000000000000000, 0.0000000000000000000 ) ) ;
#231 = AXIS2_PLACEMENT_3D ( 'NONE', #133, #120, #328 ) ;
#232 = AXIS2_PLACEMENT_3D ( 'NONE', #100, #70, #66 ) ;
#233 = DIRECTION ( 'NONE',  ( -4.275831445896958607E-31, -1.000000000000000000, -1.224646799147353207E-16 ) ) ;
#234 = VERTEX_POINT ( 'NONE', #76 ) ;
#235 = PRODUCT_DEFINITION ( 'UNKNOWN', '', #274, #102 ) ;
#236 = EDGE_LOOP ( 'NONE', ( #99, #270, #282, #96 ) ) ;
#237 = UNCERTAINTY_MEASURE_WITH_UNIT (LENGTH_MEASURE( 1.000000000000000082E-05 ), #169, 'distance_accuracy_value', 'NONE');
#238 = ORIENTED_EDGE ( 'NONE', *, *, #294, .F. ) ;
#239 = CONICAL_SURFACE ( 'NONE', #32, 1.550000000000000044, 0.7853981633974476129 ) ;
#240 = AXIS2_PLACEMENT_3D ( 'NONE', #287, #246, #137 ) ;
#241 = ORIENTED_EDGE ( 'NONE', *, *, #333, .T. ) ;
#242 = ADVANCED_FACE ( 'NONE', ( #81 ), #219, .T. ) ;
#243 = CARTESIAN_POINT ( 'NONE',  ( 8.765454464088755597E-31, 2.049999999999997602, 2.510525938252071227E-16 ) ) ;
#244 = PERSON_AND_ORGANIZATION_ROLE ( 'creator' ) ;
#245 = EDGE_CURVE ( 'NONE', #83, #323, #97, .T. ) ;
#246 = DIRECTION ( 'NONE',  ( 3.491481338843133355E-15, -1.224646799147353207E-16, 1.000000000000000000 ) ) ;
#247 = CARTESIAN_POINT ( 'NONE',  ( 5.935518276033326704E-14, -2.081899558550500280E-15, 17.00000000000000000 ) ) ;
#248 = PERSON ( 'UNSPECIFIED', 'UNSPECIFIED', 'UNSPECIFIED', ('UNSPECIFIED'), ('UNSPECIFIED'), ('UNSPECIFIED') ) ;
#249 = CC_DESIGN_APPROVAL ( #73, ( #235 ) ) ;
#250 = PRODUCT_RELATED_PRODUCT_CATEGORY ( 'detail', '', ( #265 ) ) ;
#251 = DIRECTION ( 'NONE',  ( -2.468850131082267316E-15, 0.7071067811865471286, -0.7071067811865479058 ) ) ;
#252 = CC_DESIGN_SECURITY_CLASSIFICATION ( #118, ( #274 ) ) ;
#253 = CARTESIAN_POINT ( 'NONE',  ( 5.935518276033326704E-14, 1.537253777228397479E-32, 17.00000000000000000 ) ) ;
#254 = PERSON_AND_ORGANIZATION ( #248, #14 ) ;
#255 = CARTESIAN_POINT ( 'NONE',  ( 2.510525938252058901E-16, -2.049999999999994493, -2.510525938252076158E-16 ) ) ;
#256 = EDGE_CURVE ( 'NONE', #313, #234, #149, .T. ) ;
#257 = CARTESIAN_POINT ( 'NONE',  ( 1.902857329669507616E-13, 2.049999999999993161, 54.50000000000000000 ) ) ;
#258 = APPLICATION_CONTEXT ( 'configuration controlled 3d designs of mechanical parts and assemblies' ) ;
#259 = ADVANCED_FACE ( 'NONE', ( #6 ), #71, .T. ) ;
#260 =( GEOMETRIC_REPRESENTATION_CONTEXT ( 3 ) GLOBAL_UNCERTAINTY_ASSIGNED_CONTEXT ( ( #237 ) ) GLOBAL_UNIT_ASSIGNED_CONTEXT ( ( #169, #189, #228 ) ) REPRESENTATION_CONTEXT ( 'NONE', 'WORKASPACE' ) );
#261 = DIRECTION ( 'NONE',  ( 0.0000000000000000000, 1.000000000000000000, 0.0000000000000000000 ) ) ;
#262 = CALENDAR_DATE ( 2021, 3, 9 ) ;
#263 = CARTESIAN_POINT ( 'NONE',  ( 5.935518276033326704E-14, -2.081899558550500280E-15, 17.00000000000000000 ) ) ;
#264 = VECTOR ( 'NONE', #35, 999.9999999999998863 ) ;
#265 = PRODUCT ( '54570', '54570', '', ( #304 ) ) ;
#266 = VECTOR ( 'NONE', #192, 1000.000000000000000 ) ;
#267 = APPROVAL_ROLE ( '' ) ;
#268 = ORIENTED_EDGE ( 'NONE', *, *, #179, .F. ) ;
#269 = DIRECTION ( 'NONE',  ( 4.275831445896958607E-31, 1.000000000000000000, 1.224646799147353207E-16 ) ) ;
#270 = ORIENTED_EDGE ( 'NONE', *, *, #15, .T. ) ;
#271 = CARTESIAN_POINT ( 'NONE',  ( 4.300681959089976316E-15, -1.508476169342899336E-16, 1.231764269006508039 ) ) ;
#272 = CYLINDRICAL_SURFACE ( 'NONE', #84, 2.049999999999997602 ) ;
#273 = LINE ( 'NONE', #93, #264 ) ;
#274 = PRODUCT_DEFINITION_FORMATION_WITH_SPECIFIED_SOURCE ( 'ANY', '', #265, .NOT_KNOWN. ) ;
#275 = DIRECTION ( 'NONE',  ( -3.491481338843133355E-15, 1.224646799147353207E-16, -1.000000000000000000 ) ) ;
#276 = DIRECTION ( 'NONE',  ( -3.491481338843133355E-15, 1.224646799147353207E-16, -1.000000000000000000 ) ) ;
#277 = VECTOR ( 'NONE', #89, 1000.000000000000000 ) ;
#278 = EDGE_CURVE ( 'NONE', #44, #234, #194, .T. ) ;
#279 = CARTESIAN_POINT ( 'NONE',  ( 5.935518276033326704E-14, 2.049999999999993161, 17.00000000000000000 ) ) ;
#280 = ORIENTED_EDGE ( 'NONE', *, *, #161, .T. ) ;
#281 = EDGE_LOOP ( 'NONE', ( #334, #280, #163, #95 ) ) ;
#282 = ORIENTED_EDGE ( 'NONE', *, *, #278, .T. ) ;
#283 = ORIENTED_EDGE ( 'NONE', *, *, #245, .T. ) ;
#284 = CYLINDRICAL_SURFACE ( 'NONE', #231, 2.049999999999997602 ) ;
#285 = ORIENTED_EDGE ( 'NONE', *, *, #21, .T. ) ;
#286 = CC_DESIGN_APPROVAL ( #88, ( #118 ) ) ;
#287 = CARTESIAN_POINT ( 'NONE',  ( 4.300681959089976316E-15, -1.508476169342899336E-16, 1.231764269006508039 ) ) ;
#288 = CARTESIAN_POINT ( 'NONE',  ( 1.250715104574671633E-13, -2.049999999999997602, 17.00000000000000000 ) ) ;
#289 = CALENDAR_DATE ( 2021, 3, 9 ) ;
#290 = ADVANCED_FACE ( 'NONE', ( #52 ), #24, .T. ) ;
#291 = CARTESIAN_POINT ( 'NONE',  ( 5.935518276033326704E-14, -2.081899558550500280E-15, 17.00000000000000000 ) ) ;
#292 = APPROVAL_ROLE ( '' ) ;
#293 = APPROVAL_ROLE ( '' ) ;
#294 = EDGE_CURVE ( 'NONE', #207, #213, #29, .T. ) ;
#295 = CARTESIAN_POINT ( 'NONE',  ( 0.0000000000000000000, 0.0000000000000000000, 0.0000000000000000000 ) ) ;
#296 = AXIS2_PLACEMENT_3D ( 'NONE', #199, #171, #327 ) ;
#297 = PERSON_AND_ORGANIZATION ( #248, #14 ) ;
#298 = CC_DESIGN_PERSON_AND_ORGANIZATION_ASSIGNMENT ( #183, #216, ( #235 ) ) ;
#299 = CARTESIAN_POINT ( 'NONE',  ( 4.300681959089975527E-15, -2.049999999999993161, 1.231764269006507817 ) ) ;
#300 = DIRECTION ( 'NONE',  ( -3.491481338843133355E-15, 1.224646799147353207E-16, -1.000000000000000000 ) ) ;
#301 = VECTOR ( 'NONE', #302, 1000.000000000000000 ) ;
#302 = DIRECTION ( 'NONE',  ( -3.491481338843133355E-15, 1.224646799147353207E-16, -1.000000000000000000 ) ) ;
#303 = LINE ( 'NONE', #299, #277 ) ;
#304 = MECHANICAL_CONTEXT ( 'NONE', #311, 'mechanical' ) ;
#305 = CARTESIAN_POINT ( 'NONE',  ( 4.300681959089976316E-15, -1.508476169342899336E-16, 1.231764269006508039 ) ) ;
#306 = AXIS2_PLACEMENT_3D ( 'NONE', #23, #49, #164 ) ;
#307 = DIRECTION ( 'NONE',  ( 0.0000000000000000000, 1.000000000000000000, 0.0000000000000000000 ) ) ;
#308 = ADVANCED_FACE ( 'NONE', ( #67 ), #315, .F. ) ;
#309 = EDGE_LOOP ( 'NONE', ( #185, #285, #317, #312 ) ) ;
#310 = CIRCLE ( 'NONE', #306, 2.049999999999995381 ) ;
#311 = APPLICATION_CONTEXT ( 'configuration controlled 3d designs of mechanical parts and assemblies' ) ;
#312 = ORIENTED_EDGE ( 'NONE', *, *, #115, .F. ) ;
#313 = VERTEX_POINT ( 'NONE', #288 ) ;
#314 = PLANE ( 'NONE',  #217 ) ;
#315 = PLANE ( 'NONE',  #65 ) ;
#316 = CIRCLE ( 'NONE', #156, 2.049999999999999822 ) ;
#317 = ORIENTED_EDGE ( 'NONE', *, *, #208, .F. ) ;
#318 = PERSON_AND_ORGANIZATION ( #248, #14 ) ;
#319 = APPROVAL_STATUS ( 'not_yet_approved' ) ;
#320 = ADVANCED_FACE ( 'NONE', ( #218 ), #314, .F. ) ;
#321 = DIRECTION ( 'NONE',  ( 4.275831445896958607E-31, 1.000000000000000000, 1.224646799147353207E-16 ) ) ;
#322 = SECURITY_CLASSIFICATION_LEVEL ( 'unclassified' ) ;
#323 = VERTEX_POINT ( 'NONE', #8 ) ;
#324 = ADVANCED_FACE ( 'NONE', ( #75 ), #108, .T. ) ;
#325 = CIRCLE ( 'NONE', #155, 1.550000000000000044 ) ;
#326 = DIRECTION ( 'NONE',  ( -3.491481338843133355E-15, 1.224646799147353207E-16, -1.000000000000000000 ) ) ;
#327 = DIRECTION ( 'NONE',  ( 3.757912086609253442E-31, 1.000000000000000000, 1.057758217059032306E-16 ) ) ;
#328 = DIRECTION ( 'NONE',  ( 4.275831445896958607E-31, 1.000000000000000000, 1.224646799147353207E-16 ) ) ;
#329 = LOCAL_TIME ( 9, 50, 41.00000000000000000, #104 ) ;
#330 = APPLICATION_PROTOCOL_DEFINITION ( 'international standard', 'config_control_design', 1994, #311 ) ;
#331 = EDGE_CURVE ( 'NONE', #101, #168, #26, .T. ) ;
#332 = DIRECTION ( 'NONE',  ( -3.491481338843133355E-15, 1.224646799147353207E-16, -1.000000000000000000 ) ) ;
#333 = EDGE_CURVE ( 'NONE', #234, #313, #310, .T. ) ;
#334 = ORIENTED_EDGE ( 'NONE', *, *, #21, .F. ) ;
#335 = VECTOR ( 'NONE', #251, 1000.000000000000000 ) ;
#336 = VERTEX_POINT ( 'NONE', #85 ) ;
#337 = AXIS2_PLACEMENT_3D ( 'NONE', #295, #58, #269 ) ;
ENDSEC;
END-ISO-10303-21;
