ISO-10303-21;
HEADER;
FILE_DESCRIPTION (( 'STEP AP203' ),
    '1' );
FILE_NAME ('53569.step',
    '2021-09-03T07:48:17',
    ( '' ),
    ( '' ),
    'SwSTEP 2.0',
    'SolidWorks 2019',
    '' );
FILE_SCHEMA (( 'CONFIG_CONTROL_DESIGN' ));
ENDSEC;

DATA;
#1 = UNCERTAINTY_MEASURE_WITH_UNIT (LENGTH_MEASURE( 1.000000000000000082E-05 ), #246, 'distance_accuracy_value', 'NONE');
#2 = CONICAL_SURFACE ( 'NONE', #20, 2.024999999999993250, 1.029744258676649649 ) ;
#3 = AXIS2_PLACEMENT_3D ( 'NONE', #82, #55, #46 ) ;
#4 = LINE ( 'NONE', #48, #18 ) ;
#5 = DIRECTION ( 'NONE',  ( 1.903218546456022717E-15, 0.8571673007021097801, 0.5150380749100585964 ) ) ;
#6 = ORIENTED_EDGE ( 'NONE', *, *, #38, .T. ) ;
#7 = DIRECTION ( 'NONE',  ( -4.275831445896958607E-31, -1.000000000000000000, -1.224646799147353207E-16 ) ) ;
#8 =( NAMED_UNIT ( * ) PLANE_ANGLE_UNIT ( ) SI_UNIT ( $, .RADIAN. ) );
#9 = APPROVAL_DATE_TIME ( #56, #294 ) ;
#10 = ORIENTED_EDGE ( 'NONE', *, *, #57, .T. ) ;
#11 = VERTEX_POINT ( 'NONE', #65 ) ;
#12 = CARTESIAN_POINT ( 'NONE',  ( 0.0000000000000000000, 0.0000000000000000000, 0.0000000000000000000 ) ) ;
#13 = DIRECTION ( 'NONE',  ( 0.0000000000000000000, 1.000000000000000000, 0.0000000000000000000 ) ) ;
#14 = ADVANCED_FACE ( 'NONE', ( #63 ), #307, .T. ) ;
#15 = APPROVAL_DATE_TIME ( #100, #74 ) ;
#16 = ORIENTED_EDGE ( 'NONE', *, *, #304, .T. ) ;
#17 = EDGE_LOOP ( 'NONE', ( #148, #146, #117 ) ) ;
#18 = VECTOR ( 'NONE', #289, 1000.000000000000000 ) ;
#19 = CARTESIAN_POINT ( 'NONE',  ( 2.479909768273375016E-16, -2.024999999999994582, -2.479909768273392272E-16 ) ) ;
#20 = AXIS2_PLACEMENT_3D ( 'NONE', #163, #277, #275 ) ;
#21 = CARTESIAN_POINT ( 'NONE',  ( 4.496225594952803338E-15, 2.024999999999993250, 1.216742753530819066 ) ) ;
#22 = AXIS2_PLACEMENT_3D ( 'NONE', #107, #50, #234 ) ;
#23 = ADVANCED_FACE ( 'NONE', ( #119 ), #258, .T. ) ;
#24 = DIRECTION ( 'NONE',  ( -3.491481338843133355E-15, 1.224646799147353207E-16, -1.000000000000000000 ) ) ;
#25 = AXIS2_PLACEMENT_3D ( 'NONE', #259, #305, #39 ) ;
#26 = DIRECTION ( 'NONE',  ( -2.382254525458718258E-15, -0.7071067811865469066, -0.7071067811865482389 ) ) ;
#27 = EDGE_CURVE ( 'NONE', #254, #283, #132, .T. ) ;
#28 = ORIENTED_EDGE ( 'NONE', *, *, #224, .F. ) ;
#29 = DIRECTION ( 'NONE',  ( 3.491481338843133355E-15, -1.224646799147353207E-16, 1.000000000000000000 ) ) ;
#30 = FACE_OUTER_BOUND ( 'NONE', #40, .T. ) ;
#31 = ORIENTED_EDGE ( 'NONE', *, *, #304, .F. ) ;
#32 = CARTESIAN_POINT ( 'NONE',  ( 1.913759781085102212E-13, -1.525000000000006795, 55.00000000000000000 ) ) ;
#33 = APPLICATION_PROTOCOL_DEFINITION ( 'international standard', 'config_control_design', 1994, #320 ) ;
#34 = ORIENTED_EDGE ( 'NONE', *, *, #310, .T. ) ;
#35 = DIRECTION ( 'NONE',  ( -3.804306062987145065E-31, -1.000000000000000000, -1.070816960479514075E-16 ) ) ;
#36 = ORIENTED_EDGE ( 'NONE', *, *, #43, .F. ) ;
#37 = DIRECTION ( 'NONE',  ( 4.275831445896958607E-31, 1.000000000000000000, 1.224646799147353207E-16 ) ) ;
#38 = EDGE_CURVE ( 'NONE', #11, #278, #111, .T. ) ;
#39 = DIRECTION ( 'NONE',  ( 0.0000000000000000000, 1.000000000000000000, 0.0000000000000000000 ) ) ;
#40 = EDGE_LOOP ( 'NONE', ( #60, #58 ) ) ;
#41 = CALENDAR_DATE ( 2021, 3, 9 ) ;
#42 = DIRECTION ( 'NONE',  ( -3.491481338843133355E-15, 1.224646799147353207E-16, -1.000000000000000000 ) ) ;
#43 = EDGE_CURVE ( 'NONE', #101, #272, #47, .T. ) ;
#44 = DIRECTION ( 'NONE',  ( 0.0000000000000000000, 1.000000000000000000, 0.0000000000000000000 ) ) ;
#45 = CLOSED_SHELL ( 'NONE', ( #263, #317, #250, #87, #23, #137 ) ) ;
#46 = DIRECTION ( 'NONE',  ( 0.0000000000000000000, 1.000000000000000000, 0.0000000000000000000 ) ) ;
#47 = CIRCLE ( 'NONE', #123, 2.024999999999995470 ) ;
#48 = CARTESIAN_POINT ( 'NONE',  ( 4.248234618125463717E-15, -2.024999999999993250, 1.216742753530818621 ) ) ;
#49 = EDGE_CURVE ( 'NONE', #101, #297, #251, .T. ) ;
#50 = DIRECTION ( 'NONE',  ( -3.491481338843133355E-15, 1.224646799147353207E-16, -1.000000000000000000 ) ) ;
#51 = VERTEX_POINT ( 'NONE', #256 ) ;
#52 = AXIS2_PLACEMENT_3D ( 'NONE', #265, #24, #131 ) ;
#53 = CARTESIAN_POINT ( 'NONE',  ( 2.479909768273378960E-16, -2.024999999999997691, -2.479909768273395723E-16 ) ) ;
#54 = VERTEX_POINT ( 'NONE', #329 ) ;
#55 = DIRECTION ( 'NONE',  ( -3.491481338843133355E-15, 1.224646799147353207E-16, -1.000000000000000000 ) ) ;
#56 = DATE_AND_TIME ( #86, #154 ) ;
#57 = EDGE_CURVE ( 'NONE', #11, #51, #126, .T. ) ;
#58 = ORIENTED_EDGE ( 'NONE', *, *, #130, .F. ) ;
#59 = EDGE_LOOP ( 'NONE', ( #6, #81, #188, #334 ) ) ;
#60 = ORIENTED_EDGE ( 'NONE', *, *, #38, .F. ) ;
#61 = APPROVAL_PERSON_ORGANIZATION ( #219, #264, #73 ) ;
#62 = EDGE_CURVE ( 'NONE', #51, #54, #151, .T. ) ;
#63 = FACE_OUTER_BOUND ( 'NONE', #84, .T. ) ;
#64 = PERSON_AND_ORGANIZATION ( #177, #184 ) ;
#65 = CARTESIAN_POINT ( 'NONE',  ( 1.920314736363723472E-13, 1.524999999999993472, 55.00000000000000000 ) ) ;
#66 = PERSON_AND_ORGANIZATION_ROLE ( 'classification_officer' ) ;
#67 = CARTESIAN_POINT ( 'NONE',  ( 5.935518276033326704E-14, -2.081899558550500280E-15, 17.00000000000000000 ) ) ;
#68 = DIRECTION ( 'NONE',  ( 4.275831445896958607E-31, 1.000000000000000000, 1.224646799147353454E-16 ) ) ;
#69 = DIRECTION ( 'NONE',  ( -3.491481338843133355E-15, 1.224646799147353207E-16, -1.000000000000000000 ) ) ;
#70 = CONICAL_SURFACE ( 'NONE', #52, 1.525000000000000133, 0.7853981633974476129 ) ;
#71 = PERSON_AND_ORGANIZATION ( #177, #184 ) ;
#72 = FACE_OUTER_BOUND ( 'NONE', #59, .T. ) ;
#73 = APPROVAL_ROLE ( '' ) ;
#74 = APPROVAL ( #337, 'UNSPECIFIED' ) ;
#75 = CC_DESIGN_APPROVAL ( #294, ( #179 ) ) ;
#76 = DESIGN_CONTEXT ( 'detailed design', #320, 'design' ) ;
#77 = AXIS2_PLACEMENT_3D ( 'NONE', #217, #216, #156 ) ;
#78 = CC_DESIGN_PERSON_AND_ORGANIZATION_ASSIGNMENT ( #235, #181, ( #215 ) ) ;
#79 = CARTESIAN_POINT ( 'NONE',  ( 5.935518276033326704E-14, 2.024999999999993250, 17.00000000000000000 ) ) ;
#80 =( GEOMETRIC_REPRESENTATION_CONTEXT ( 3 ) GLOBAL_UNCERTAINTY_ASSIGNED_CONTEXT ( ( #1 ) ) GLOBAL_UNIT_ASSIGNED_CONTEXT ( ( #246, #8, #144 ) ) REPRESENTATION_CONTEXT ( 'NONE', 'WORKASPACE' ) );
#81 = ORIENTED_EDGE ( 'NONE', *, *, #127, .T. ) ;
#82 = CARTESIAN_POINT ( 'NONE',  ( 1.920314736363723472E-13, -6.735557395310442615E-15, 55.00000000000000000 ) ) ;
#83 = MANIFOLD_SOLID_BREP ( 'Corps-Déplacer/Copier1[1]', #45 ) ;
#84 = EDGE_LOOP ( 'NONE', ( #34, #241, #28, #166 ) ) ;
#85 = LINE ( 'NONE', #136, #284 ) ;
#86 = CALENDAR_DATE ( 2021, 3, 9 ) ;
#87 = ADVANCED_FACE ( 'NONE', ( #290 ), #269, .T. ) ;
#88 = COORDINATED_UNIVERSAL_TIME_OFFSET ( 1, 0, .AHEAD. ) ;
#89 = FACE_OUTER_BOUND ( 'NONE', #300, .T. ) ;
#90 = CIRCLE ( 'NONE', #22, 2.024999999999993250 ) ;
#91 = DIRECTION ( 'NONE',  ( -2.468850131082267316E-15, 0.7071067811865471286, -0.7071067811865479058 ) ) ;
#92 = EDGE_CURVE ( 'NONE', #176, #270, #309, .T. ) ;
#93 = VECTOR ( 'NONE', #91, 1000.000000000000000 ) ;
#94 = PERSON_AND_ORGANIZATION_ROLE ( 'design_owner' ) ;
#95 = ORIENTED_EDGE ( 'NONE', *, *, #147, .F. ) ;
#96 = ADVANCED_BREP_SHAPE_REPRESENTATION ( '53569', ( #83, #192, #242 ), #80 ) ;
#97 = DIRECTION ( 'NONE',  ( 0.0000000000000000000, 1.000000000000000000, 0.0000000000000000000 ) ) ;
#98 = DIRECTION ( 'NONE',  ( -3.491481338843133355E-15, 1.224646799147353207E-16, -1.000000000000000000 ) ) ;
#99 = AXIS2_PLACEMENT_3D ( 'NONE', #158, #29, #7 ) ;
#100 = DATE_AND_TIME ( #152, #226 ) ;
#101 = VERTEX_POINT ( 'NONE', #180 ) ;
#102 = DATE_TIME_ROLE ( 'classification_date' ) ;
#103 = CYLINDRICAL_SURFACE ( 'NONE', #213, 2.024999999999994582 ) ;
#104 = FACE_OUTER_BOUND ( 'NONE', #279, .T. ) ;
#105 = CC_DESIGN_PERSON_AND_ORGANIZATION_ASSIGNMENT ( #112, #321, ( #179 ) ) ;
#106 = CARTESIAN_POINT ( 'NONE',  ( 4.496225594952803338E-15, 2.024999999999993250, 1.216742753530819066 ) ) ;
#107 = CARTESIAN_POINT ( 'NONE',  ( 4.248234618125464506E-15, -1.490080118497254315E-16, 1.216742753530818844 ) ) ;
#108 = CC_DESIGN_APPROVAL ( #264, ( #215 ) ) ;
#109 = DIRECTION ( 'NONE',  ( -3.491481338843133355E-15, 1.224646799147353207E-16, -1.000000000000000000 ) ) ;
#110 = DIRECTION ( 'NONE',  ( -3.491481338843133355E-15, 1.224646799147353207E-16, -1.000000000000000000 ) ) ;
#111 = CIRCLE ( 'NONE', #25, 1.525000000000000133 ) ;
#112 = PERSON_AND_ORGANIZATION ( #177, #184 ) ;
#113 = MECHANICAL_CONTEXT ( 'NONE', #248, 'mechanical' ) ;
#114 = EDGE_CURVE ( 'NONE', #272, #270, #312, .T. ) ;
#115 = FACE_OUTER_BOUND ( 'NONE', #17, .T. ) ;
#116 = AXIS2_PLACEMENT_3D ( 'NONE', #298, #169, #35 ) ;
#117 = ORIENTED_EDGE ( 'NONE', *, *, #147, .T. ) ;
#118 = DIRECTION ( 'NONE',  ( 0.0000000000000000000, 0.0000000000000000000, 1.000000000000000000 ) ) ;
#119 = FACE_OUTER_BOUND ( 'NONE', #150, .T. ) ;
#120 = ORIENTED_EDGE ( 'NONE', *, *, #172, .T. ) ;
#121 = CC_DESIGN_DATE_AND_TIME_ASSIGNMENT ( #141, #247, ( #179 ) ) ;
#122 = DATE_AND_TIME ( #41, #199 ) ;
#123 = AXIS2_PLACEMENT_3D ( 'NONE', #67, #145, #13 ) ;
#124 = EDGE_LOOP ( 'NONE', ( #253, #120, #268, #31 ) ) ;
#125 = PERSON_AND_ORGANIZATION ( #177, #184 ) ;
#126 = LINE ( 'NONE', #325, #93 ) ;
#127 = EDGE_CURVE ( 'NONE', #278, #54, #85, .T. ) ;
#128 = DIRECTION ( 'NONE',  ( -3.491481338843133355E-15, 1.224646799147353207E-16, -1.000000000000000000 ) ) ;
#129 = APPROVAL_STATUS ( 'not_yet_approved' ) ;
#130 = EDGE_CURVE ( 'NONE', #278, #11, #173, .T. ) ;
#131 = DIRECTION ( 'NONE',  ( 0.0000000000000000000, 1.000000000000000000, 0.0000000000000000000 ) ) ;
#132 = CIRCLE ( 'NONE', #295, 2.024999999999995470 ) ;
#133 = CARTESIAN_POINT ( 'NONE',  ( 0.0000000000000000000, 0.0000000000000000000, 0.0000000000000000000 ) ) ;
#134 = CLOSED_SHELL ( 'NONE', ( #14, #322, #288, #238, #189 ) ) ;
#135 = ORIENTED_EDGE ( 'NONE', *, *, #224, .T. ) ;
#136 = CARTESIAN_POINT ( 'NONE',  ( 1.922182322732423113E-13, -1.525000000000006795, 55.00000000000000000 ) ) ;
#137 = ADVANCED_FACE ( 'NONE', ( #30 ), #214, .F. ) ;
#138 = APPROVAL_ROLE ( '' ) ;
#139 = CIRCLE ( 'NONE', #333, 2.024999999999995470 ) ;
#140 = PRODUCT_RELATED_PRODUCT_CATEGORY ( 'detail', '', ( #302 ) ) ;
#141 = DATE_AND_TIME ( #195, #287 ) ;
#142 = EDGE_LOOP ( 'NONE', ( #206, #198, #220, #95 ) ) ;
#143 = ORIENTED_EDGE ( 'NONE', *, *, #212, .F. ) ;
#144 =( NAMED_UNIT ( * ) SI_UNIT ( $, .STERADIAN. ) SOLID_ANGLE_UNIT ( ) );
#145 = DIRECTION ( 'NONE',  ( -3.491481338843133355E-15, 1.224646799147353207E-16, -1.000000000000000000 ) ) ;
#146 = ORIENTED_EDGE ( 'NONE', *, *, #245, .T. ) ;
#147 = EDGE_CURVE ( 'NONE', #297, #270, #90, .T. ) ;
#148 = ORIENTED_EDGE ( 'NONE', *, *, #92, .F. ) ;
#149 = VECTOR ( 'NONE', #5, 999.9999999999998863 ) ;
#150 = EDGE_LOOP ( 'NONE', ( #174, #227, #10, #143 ) ) ;
#151 = CIRCLE ( 'NONE', #197, 2.024999999999999911 ) ;
#152 = CALENDAR_DATE ( 2021, 3, 9 ) ;
#153 = CARTESIAN_POINT ( 'NONE',  ( 0.0000000000000000000, 0.0000000000000000000, 0.0000000000000000000 ) ) ;
#154 = LOCAL_TIME ( 9, 48, 17.00000000000000000, #244 ) ;
#155 = DIRECTION ( 'NONE',  ( -4.275831445896958607E-31, -1.000000000000000000, -1.224646799147353207E-16 ) ) ;
#156 = DIRECTION ( 'NONE',  ( 0.0000000000000000000, 1.000000000000000000, 0.0000000000000000000 ) ) ;
#157 = AXIS2_PLACEMENT_3D ( 'NONE', #202, #196, #328 ) ;
#158 = CARTESIAN_POINT ( 'NONE',  ( 5.935518276033326704E-14, 1.518506779945124123E-32, 17.00000000000000000 ) ) ;
#159 = CC_DESIGN_PERSON_AND_ORGANIZATION_ASSIGNMENT ( #64, #94, ( #302 ) ) ;
#160 = ORIENTED_EDGE ( 'NONE', *, *, #245, .F. ) ;
#161 = DIRECTION ( 'NONE',  ( -3.491481338843133355E-15, 1.224646799147353207E-16, -1.000000000000000000 ) ) ;
#162 = CC_DESIGN_APPROVAL ( #74, ( #299 ) ) ;
#163 = CARTESIAN_POINT ( 'NONE',  ( 4.248234618125464506E-15, -1.490080118497254315E-16, 1.216742753530818844 ) ) ;
#164 = AXIS2_PLACEMENT_3D ( 'NONE', #228, #282, #68 ) ;
#165 = CYLINDRICAL_SURFACE ( 'NONE', #255, 2.024999999999997691 ) ;
#166 = ORIENTED_EDGE ( 'NONE', *, *, #114, .F. ) ;
#167 = APPROVAL_PERSON_ORGANIZATION ( #171, #294, #138 ) ;
#168 = CARTESIAN_POINT ( 'NONE',  ( 1.902857329669507616E-13, -6.674325055353075041E-15, 54.50000000000000000 ) ) ;
#169 = DIRECTION ( 'NONE',  ( 3.491481338843133355E-15, -1.224646799147353207E-16, 1.000000000000000000 ) ) ;
#170 = DIRECTION ( 'NONE',  ( 0.0000000000000000000, 1.000000000000000000, 0.0000000000000000000 ) ) ;
#171 = PERSON_AND_ORGANIZATION ( #177, #184 ) ;
#172 = EDGE_CURVE ( 'NONE', #54, #254, #291, .T. ) ;
#173 = CIRCLE ( 'NONE', #3, 1.525000000000000133 ) ;
#174 = ORIENTED_EDGE ( 'NONE', *, *, #127, .F. ) ;
#175 = SECURITY_CLASSIFICATION_LEVEL ( 'unclassified' ) ;
#176 = VERTEX_POINT ( 'NONE', #153 ) ;
#177 = PERSON ( 'UNSPECIFIED', 'UNSPECIFIED', 'UNSPECIFIED', ('UNSPECIFIED'), ('UNSPECIFIED'), ('UNSPECIFIED') ) ;
#178 = DIRECTION ( 'NONE',  ( -3.491481338843133355E-15, 1.224646799147353207E-16, -1.000000000000000000 ) ) ;
#179 = PRODUCT_DEFINITION ( 'UNKNOWN', '', #215, #76 ) ;
#180 = CARTESIAN_POINT ( 'NONE',  ( 3.204969966605667226E-14, -2.024999999999997691, 17.00000000000000000 ) ) ;
#181 = PERSON_AND_ORGANIZATION_ROLE ( 'design_supplier' ) ;
#182 = DIRECTION ( 'NONE',  ( 0.0000000000000000000, 1.000000000000000000, 0.0000000000000000000 ) ) ;
#183 = APPROVAL_PERSON_ORGANIZATION ( #262, #74, #308 ) ;
#184 = ORGANIZATION ( 'UNSPECIFIED', 'UNSPECIFIED', '' ) ;
#185 = CC_DESIGN_PERSON_AND_ORGANIZATION_ASSIGNMENT ( #71, #332, ( #215 ) ) ;
#186 = CIRCLE ( 'NONE', #77, 2.024999999999999911 ) ;
#187 = CARTESIAN_POINT ( 'NONE',  ( 5.935518276033326704E-14, -2.081899558550500280E-15, 17.00000000000000000 ) ) ;
#188 = ORIENTED_EDGE ( 'NONE', *, *, #62, .F. ) ;
#189 = ADVANCED_FACE ( 'NONE', ( #104 ), #231, .T. ) ;
#190 = CARTESIAN_POINT ( 'NONE',  ( 1.250684488404693145E-13, -2.024999999999997691, 17.00000000000000000 ) ) ;
#191 = ORIENTED_EDGE ( 'NONE', *, *, #27, .F. ) ;
#192 = MANIFOLD_SOLID_BREP ( 'Corps-Déplacer/Copier1[2]', #134 ) ;
#193 = DIRECTION ( 'NONE',  ( 4.275831445896958607E-31, 1.000000000000000000, 1.224646799147353207E-16 ) ) ;
#194 = EDGE_LOOP ( 'NONE', ( #230, #301, #16, #191 ) ) ;
#195 = CALENDAR_DATE ( 2021, 3, 9 ) ;
#196 = DIRECTION ( 'NONE',  ( -3.491481338843133355E-15, 1.224646799147353207E-16, -1.000000000000000000 ) ) ;
#197 = AXIS2_PLACEMENT_3D ( 'NONE', #168, #223, #97 ) ;
#198 = ORIENTED_EDGE ( 'NONE', *, *, #43, .T. ) ;
#199 = LOCAL_TIME ( 9, 48, 17.00000000000000000, #306 ) ;
#200 = ORIENTED_EDGE ( 'NONE', *, *, #205, .T. ) ;
#201 = CC_DESIGN_DATE_AND_TIME_ASSIGNMENT ( #122, #102, ( #299 ) ) ;
#202 = CARTESIAN_POINT ( 'NONE',  ( 5.935518276033326704E-14, -2.081899558550500280E-15, 17.00000000000000000 ) ) ;
#203 = ORIENTED_EDGE ( 'NONE', *, *, #27, .T. ) ;
#204 = CARTESIAN_POINT ( 'NONE',  ( 5.935518276033326704E-14, -2.081899558550500280E-15, 17.00000000000000000 ) ) ;
#205 = EDGE_CURVE ( 'NONE', #283, #254, #139, .T. ) ;
#206 = ORIENTED_EDGE ( 'NONE', *, *, #49, .F. ) ;
#207 = SHAPE_DEFINITION_REPRESENTATION ( #232, #96 ) ;
#208 = DIRECTION ( 'NONE',  ( -3.491481338843133355E-15, 1.224646799147353207E-16, -1.000000000000000000 ) ) ;
#209 = PLANE ( 'NONE',  #252 ) ;
#210 = CALENDAR_DATE ( 2021, 3, 9 ) ;
#211 = CC_DESIGN_SECURITY_CLASSIFICATION ( #299, ( #215 ) ) ;
#212 = EDGE_CURVE ( 'NONE', #54, #51, #186, .T. ) ;
#213 = AXIS2_PLACEMENT_3D ( 'NONE', #133, #293, #266 ) ;
#214 = PLANE ( 'NONE',  #239 ) ;
#215 = PRODUCT_DEFINITION_FORMATION_WITH_SPECIFIED_SOURCE ( 'ANY', '', #302, .NOT_KNOWN. ) ;
#216 = DIRECTION ( 'NONE',  ( -3.491481338843133355E-15, 1.224646799147353207E-16, -1.000000000000000000 ) ) ;
#217 = CARTESIAN_POINT ( 'NONE',  ( 1.902857329669507616E-13, -6.674325055353075041E-15, 54.50000000000000000 ) ) ;
#218 = LINE ( 'NONE', #273, #221 ) ;
#219 = PERSON_AND_ORGANIZATION ( #177, #184 ) ;
#220 = ORIENTED_EDGE ( 'NONE', *, *, #114, .T. ) ;
#221 = VECTOR ( 'NONE', #249, 1000.000000000000000 ) ;
#222 = CARTESIAN_POINT ( 'NONE',  ( 5.935518276033326704E-14, 2.024999999999993250, 17.00000000000000000 ) ) ;
#223 = DIRECTION ( 'NONE',  ( -3.491481338843133355E-15, 1.224646799147353207E-16, -1.000000000000000000 ) ) ;
#224 = EDGE_CURVE ( 'NONE', #270, #297, #274, .T. ) ;
#225 = APPLICATION_PROTOCOL_DEFINITION ( 'international standard', 'config_control_design', 1994, #248 ) ;
#226 = LOCAL_TIME ( 9, 48, 17.00000000000000000, #257 ) ;
#227 = ORIENTED_EDGE ( 'NONE', *, *, #130, .T. ) ;
#228 = CARTESIAN_POINT ( 'NONE',  ( 0.0000000000000000000, 0.0000000000000000000, 0.0000000000000000000 ) ) ;
#229 = AXIS2_PLACEMENT_3D ( 'NONE', #285, #161, #193 ) ;
#230 = ORIENTED_EDGE ( 'NONE', *, *, #172, .F. ) ;
#231 = PLANE ( 'NONE',  #99 ) ;
#232 = PRODUCT_DEFINITION_SHAPE ( 'NONE', 'NONE',  #179 ) ;
#233 = COORDINATED_UNIVERSAL_TIME_OFFSET ( 1, 0, .AHEAD. ) ;
#234 = DIRECTION ( 'NONE',  ( 3.804306062987145065E-31, 1.000000000000000000, 1.070816960479514075E-16 ) ) ;
#235 = PERSON_AND_ORGANIZATION ( #177, #184 ) ;
#236 = CC_DESIGN_PERSON_AND_ORGANIZATION_ASSIGNMENT ( #125, #66, ( #299 ) ) ;
#237 = DIRECTION ( 'NONE',  ( 4.275831445896958607E-31, 1.000000000000000000, 1.224646799147353207E-16 ) ) ;
#238 = ADVANCED_FACE ( 'NONE', ( #336 ), #103, .T. ) ;
#239 = AXIS2_PLACEMENT_3D ( 'NONE', #316, #69, #237 ) ;
#240 = CARTESIAN_POINT ( 'NONE',  ( 5.935518276033326704E-14, 1.518506779945124123E-32, 17.00000000000000000 ) ) ;
#241 = ORIENTED_EDGE ( 'NONE', *, *, #49, .T. ) ;
#242 = AXIS2_PLACEMENT_3D ( 'NONE', #12, #118, #319 ) ;
#243 = CARTESIAN_POINT ( 'NONE',  ( 8.658558677941318013E-31, 2.024999999999994582, 2.479909768273383890E-16 ) ) ;
#244 = COORDINATED_UNIVERSAL_TIME_OFFSET ( 1, 0, .AHEAD. ) ;
#245 = EDGE_CURVE ( 'NONE', #176, #297, #4, .T. ) ;
#246 =( LENGTH_UNIT ( ) NAMED_UNIT ( * ) SI_UNIT ( .MILLI., .METRE. ) );
#247 = DATE_TIME_ROLE ( 'creation_date' ) ;
#248 = APPLICATION_CONTEXT ( 'configuration controlled 3d designs of mechanical parts and assemblies' ) ;
#249 = DIRECTION ( 'NONE',  ( -3.491481338843133355E-15, 1.224646799147353207E-16, -1.000000000000000000 ) ) ;
#250 = ADVANCED_FACE ( 'NONE', ( #271 ), #209, .F. ) ;
#251 = LINE ( 'NONE', #19, #313 ) ;
#252 = AXIS2_PLACEMENT_3D ( 'NONE', #240, #335, #155 ) ;
#253 = ORIENTED_EDGE ( 'NONE', *, *, #62, .T. ) ;
#254 = VERTEX_POINT ( 'NONE', #190 ) ;
#255 = AXIS2_PLACEMENT_3D ( 'NONE', #296, #110, #37 ) ;
#256 = CARTESIAN_POINT ( 'NONE',  ( 1.902857329669507616E-13, 2.024999999999993250, 54.50000000000000000 ) ) ;
#257 = COORDINATED_UNIVERSAL_TIME_OFFSET ( 1, 0, .AHEAD. ) ;
#258 = CONICAL_SURFACE ( 'NONE', #326, 1.525000000000000133, 0.7853981633974476129 ) ;
#259 = CARTESIAN_POINT ( 'NONE',  ( 1.920314736363723472E-13, -6.735557395310442615E-15, 55.00000000000000000 ) ) ;
#260 = DIRECTION ( 'NONE',  ( 3.804306062987145065E-31, 1.000000000000000000, 1.070816960479514075E-16 ) ) ;
#261 = LOCAL_TIME ( 9, 48, 17.00000000000000000, #233 ) ;
#262 = PERSON_AND_ORGANIZATION ( #177, #184 ) ;
#263 = ADVANCED_FACE ( 'NONE', ( #72 ), #70, .T. ) ;
#264 = APPROVAL ( #129, 'UNSPECIFIED' ) ;
#265 = CARTESIAN_POINT ( 'NONE',  ( 1.920314736363723472E-13, -6.735557395310442615E-15, 55.00000000000000000 ) ) ;
#266 = DIRECTION ( 'NONE',  ( 4.275831445896958607E-31, 1.000000000000000000, 1.224646799147353454E-16 ) ) ;
#267 = CONICAL_SURFACE ( 'NONE', #116, 2.024999999999993250, 1.029744258676649649 ) ;
#268 = ORIENTED_EDGE ( 'NONE', *, *, #205, .F. ) ;
#269 = CYLINDRICAL_SURFACE ( 'NONE', #229, 2.024999999999997691 ) ;
#270 = VERTEX_POINT ( 'NONE', #106 ) ;
#271 = FACE_OUTER_BOUND ( 'NONE', #276, .T. ) ;
#272 = VERTEX_POINT ( 'NONE', #79 ) ;
#273 = CARTESIAN_POINT ( 'NONE',  ( 8.658558677941332026E-31, 2.024999999999997691, 2.479909768273387342E-16 ) ) ;
#274 = CIRCLE ( 'NONE', #314, 2.024999999999993250 ) ;
#275 = DIRECTION ( 'NONE',  ( -3.804306062987145065E-31, -1.000000000000000000, -1.070816960479514075E-16 ) ) ;
#276 = EDGE_LOOP ( 'NONE', ( #200, #203 ) ) ;
#277 = DIRECTION ( 'NONE',  ( 3.491481338843133355E-15, -1.224646799147353207E-16, 1.000000000000000000 ) ) ;
#278 = VERTEX_POINT ( 'NONE', #32 ) ;
#279 = EDGE_LOOP ( 'NONE', ( #281, #36 ) ) ;
#280 = APPROVAL_STATUS ( 'not_yet_approved' ) ;
#281 = ORIENTED_EDGE ( 'NONE', *, *, #310, .F. ) ;
#282 = DIRECTION ( 'NONE',  ( -3.491481338843133355E-15, 1.224646799147353207E-16, -1.000000000000000000 ) ) ;
#283 = VERTEX_POINT ( 'NONE', #222 ) ;
#284 = VECTOR ( 'NONE', #26, 999.9999999999998863 ) ;
#285 = CARTESIAN_POINT ( 'NONE',  ( 0.0000000000000000000, 0.0000000000000000000, 0.0000000000000000000 ) ) ;
#286 = DATE_AND_TIME ( #210, #261 ) ;
#287 = LOCAL_TIME ( 9, 48, 17.00000000000000000, #88 ) ;
#288 = ADVANCED_FACE ( 'NONE', ( #115 ), #267, .T. ) ;
#289 = DIRECTION ( 'NONE',  ( 1.798245827342160317E-15, -0.8571673007021098911, 0.5150380749100582634 ) ) ;
#290 = FACE_OUTER_BOUND ( 'NONE', #194, .T. ) ;
#291 = LINE ( 'NONE', #53, #303 ) ;
#292 = ORIENTED_EDGE ( 'NONE', *, *, #92, .T. ) ;
#293 = DIRECTION ( 'NONE',  ( -3.491481338843133355E-15, 1.224646799147353207E-16, -1.000000000000000000 ) ) ;
#294 = APPROVAL ( #280, 'UNSPECIFIED' ) ;
#295 = AXIS2_PLACEMENT_3D ( 'NONE', #204, #178, #170 ) ;
#296 = CARTESIAN_POINT ( 'NONE',  ( 0.0000000000000000000, 0.0000000000000000000, 0.0000000000000000000 ) ) ;
#297 = VERTEX_POINT ( 'NONE', #323 ) ;
#298 = CARTESIAN_POINT ( 'NONE',  ( 4.248234618125464506E-15, -1.490080118497254315E-16, 1.216742753530818844 ) ) ;
#299 = SECURITY_CLASSIFICATION ( '', '', #175 ) ;
#300 = EDGE_LOOP ( 'NONE', ( #160, #292, #135 ) ) ;
#301 = ORIENTED_EDGE ( 'NONE', *, *, #212, .T. ) ;
#302 = PRODUCT ( '53569', '53569', '', ( #113 ) ) ;
#303 = VECTOR ( 'NONE', #208, 1000.000000000000000 ) ;
#304 = EDGE_CURVE ( 'NONE', #51, #283, #218, .T. ) ;
#305 = DIRECTION ( 'NONE',  ( -3.491481338843133355E-15, 1.224646799147353207E-16, -1.000000000000000000 ) ) ;
#306 = COORDINATED_UNIVERSAL_TIME_OFFSET ( 1, 0, .AHEAD. ) ;
#307 = CYLINDRICAL_SURFACE ( 'NONE', #164, 2.024999999999994582 ) ;
#308 = APPROVAL_ROLE ( '' ) ;
#309 = LINE ( 'NONE', #21, #149 ) ;
#310 = EDGE_CURVE ( 'NONE', #272, #101, #311, .T. ) ;
#311 = CIRCLE ( 'NONE', #157, 2.024999999999995470 ) ;
#312 = LINE ( 'NONE', #243, #324 ) ;
#313 = VECTOR ( 'NONE', #42, 1000.000000000000000 ) ;
#314 = AXIS2_PLACEMENT_3D ( 'NONE', #315, #318, #260 ) ;
#315 = CARTESIAN_POINT ( 'NONE',  ( 4.248234618125464506E-15, -1.490080118497254315E-16, 1.216742753530818844 ) ) ;
#316 = CARTESIAN_POINT ( 'NONE',  ( 1.920314736363723472E-13, 1.143566834279656573E-32, 55.00000000000000000 ) ) ;
#317 = ADVANCED_FACE ( 'NONE', ( #327 ), #165, .T. ) ;
#318 = DIRECTION ( 'NONE',  ( -3.491481338843133355E-15, 1.224646799147353207E-16, -1.000000000000000000 ) ) ;
#319 = DIRECTION ( 'NONE',  ( 1.000000000000000000, 0.0000000000000000000, 0.0000000000000000000 ) ) ;
#320 = APPLICATION_CONTEXT ( 'configuration controlled 3d designs of mechanical parts and assemblies' ) ;
#321 = PERSON_AND_ORGANIZATION_ROLE ( 'creator' ) ;
#322 = ADVANCED_FACE ( 'NONE', ( #89 ), #2, .T. ) ;
#323 = CARTESIAN_POINT ( 'NONE',  ( 4.248234618125463717E-15, -2.024999999999993250, 1.216742753530818621 ) ) ;
#324 = VECTOR ( 'NONE', #128, 1000.000000000000000 ) ;
#325 = CARTESIAN_POINT ( 'NONE',  ( 1.920314736363723472E-13, 1.524999999999993472, 55.00000000000000000 ) ) ;
#326 = AXIS2_PLACEMENT_3D ( 'NONE', #331, #98, #44 ) ;
#327 = FACE_OUTER_BOUND ( 'NONE', #124, .T. ) ;
#328 = DIRECTION ( 'NONE',  ( 0.0000000000000000000, 1.000000000000000000, 0.0000000000000000000 ) ) ;
#329 = CARTESIAN_POINT ( 'NONE',  ( 1.250684488404692135E-13, -2.025000000000006573, 54.50000000000000000 ) ) ;
#330 = APPROVAL_DATE_TIME ( #286, #264 ) ;
#331 = CARTESIAN_POINT ( 'NONE',  ( 1.920314736363723472E-13, -6.735557395310442615E-15, 55.00000000000000000 ) ) ;
#332 = PERSON_AND_ORGANIZATION_ROLE ( 'creator' ) ;
#333 = AXIS2_PLACEMENT_3D ( 'NONE', #187, #109, #182 ) ;
#334 = ORIENTED_EDGE ( 'NONE', *, *, #57, .F. ) ;
#335 = DIRECTION ( 'NONE',  ( 3.491481338843133355E-15, -1.224646799147353207E-16, 1.000000000000000000 ) ) ;
#336 = FACE_OUTER_BOUND ( 'NONE', #142, .T. ) ;
#337 = APPROVAL_STATUS ( 'not_yet_approved' ) ;
ENDSEC;
END-ISO-10303-21;
