ISO-10303-21;
HEADER;
FILE_DESCRIPTION (( 'STEP AP203' ),
    '1' );
FILE_NAME ('53568.step',
    '2021-09-03T07:48:17',
    ( '' ),
    ( '' ),
    'SwSTEP 2.0',
    'SolidWorks 2019',
    '' );
FILE_SCHEMA (( 'CONFIG_CONTROL_DESIGN' ));
ENDSEC;

DATA;
#1 = EDGE_LOOP ( 'NONE', ( #77, #81 ) ) ;
#2 = CC_DESIGN_PERSON_AND_ORGANIZATION_ASSIGNMENT ( #322, #243, ( #239 ) ) ;
#3 = FACE_OUTER_BOUND ( 'NONE', #291, .T. ) ;
#4 = APPROVAL_PERSON_ORGANIZATION ( #295, #331, #60 ) ;
#5 = APPROVAL_STATUS ( 'not_yet_approved' ) ;
#6 = CIRCLE ( 'NONE', #46, 1.999999999999995781 ) ;
#7 = ORIENTED_EDGE ( 'NONE', *, *, #316, .T. ) ;
#8 = SECURITY_CLASSIFICATION_LEVEL ( 'unclassified' ) ;
#9 = LINE ( 'NONE', #223, #12 ) ;
#10 = CALENDAR_DATE ( 2021, 3, 9 ) ;
#11 = DIRECTION ( 'NONE',  ( -3.491481338843133355E-15, 1.224646799147353207E-16, -1.000000000000000000 ) ) ;
#12 = VECTOR ( 'NONE', #256, 1000.000000000000000 ) ;
#13 = DIRECTION ( 'NONE',  ( -3.491481338843133355E-15, 1.224646799147353207E-16, -1.000000000000000000 ) ) ;
#14 = ADVANCED_FACE ( 'NONE', ( #3 ), #246, .T. ) ;
#15 = DIRECTION ( 'NONE',  ( -3.491481338843133355E-15, 1.224646799147353207E-16, -1.000000000000000000 ) ) ;
#16 = DIRECTION ( 'NONE',  ( -3.491481338843133355E-15, 1.224646799147353207E-16, -1.000000000000000000 ) ) ;
#17 = DIRECTION ( 'NONE',  ( 4.275831445896957731E-31, 1.000000000000000000, 1.224646799147353454E-16 ) ) ;
#18 = CARTESIAN_POINT ( 'NONE',  ( 5.935518276033326704E-14, -2.081899558550500280E-15, 17.00000000000000000 ) ) ;
#19 = ADVANCED_BREP_SHAPE_REPRESENTATION ( '53568', ( #73, #188, #66 ), #48 ) ;
#20 = CIRCLE ( 'NONE', #330, 2.000000000000000000 ) ;
#21 = DIRECTION ( 'NONE',  ( 3.491481338843133355E-15, -1.224646799147353207E-16, 1.000000000000000000 ) ) ;
#22 = APPLICATION_CONTEXT ( 'configuration controlled 3d designs of mechanical parts and assemblies' ) ;
#23 = ORIENTED_EDGE ( 'NONE', *, *, #175, .T. ) ;
#24 = VERTEX_POINT ( 'NONE', #114 ) ;
#25 = AXIS2_PLACEMENT_3D ( 'NONE', #271, #11, #89 ) ;
#26 = CC_DESIGN_PERSON_AND_ORGANIZATION_ASSIGNMENT ( #313, #165, ( #78 ) ) ;
#27 = ORIENTED_EDGE ( 'NONE', *, *, #99, .F. ) ;
#28 = ORIENTED_EDGE ( 'NONE', *, *, #209, .F. ) ;
#29 = EDGE_LOOP ( 'NONE', ( #261, #320, #235 ) ) ;
#30 = DATE_AND_TIME ( #215, #257 ) ;
#31 = EDGE_CURVE ( 'NONE', #138, #24, #248, .T. ) ;
#32 = CYLINDRICAL_SURFACE ( 'NONE', #176, 1.999999999999994893 ) ;
#33 = CARTESIAN_POINT ( 'NONE',  ( 0.0000000000000000000, 0.0000000000000000000, 0.0000000000000000000 ) ) ;
#34 = LINE ( 'NONE', #36, #101 ) ;
#35 = PERSON_AND_ORGANIZATION ( #84, #226 ) ;
#36 = CARTESIAN_POINT ( 'NONE',  ( 4.440716636990423781E-15, 1.999999999999993561, 1.201721238055130092 ) ) ;
#37 = DIRECTION ( 'NONE',  ( -3.491481338843133355E-15, 1.224646799147353207E-16, -1.000000000000000000 ) ) ;
#38 = DIRECTION ( 'NONE',  ( -2.382254525458718258E-15, -0.7071067811865469066, -0.7071067811865482389 ) ) ;
#39 = CARTESIAN_POINT ( 'NONE',  ( 5.935518276033326704E-14, -2.081899558550500280E-15, 17.00000000000000000 ) ) ;
#40 =( LENGTH_UNIT ( ) NAMED_UNIT ( * ) SI_UNIT ( .MILLI., .METRE. ) );
#41 = CONICAL_SURFACE ( 'NONE', #318, 1.500000000000000222, 0.7853981633974476129 ) ;
#42 = CARTESIAN_POINT ( 'NONE',  ( 3.202041437857654467E-14, -1.999999999999997780, 17.00000000000000000 ) ) ;
#43 = DIRECTION ( 'NONE',  ( 3.491481338843133355E-15, -1.224646799147353207E-16, 1.000000000000000000 ) ) ;
#44 = APPROVAL ( #181, 'UNSPECIFIED' ) ;
#45 = DIRECTION ( 'NONE',  ( -3.491481338843133355E-15, 1.224646799147353207E-16, -1.000000000000000000 ) ) ;
#46 = AXIS2_PLACEMENT_3D ( 'NONE', #18, #304, #254 ) ;
#47 = VECTOR ( 'NONE', #69, 1000.000000000000000 ) ;
#48 =( GEOMETRIC_REPRESENTATION_CONTEXT ( 3 ) GLOBAL_UNCERTAINTY_ASSIGNED_CONTEXT ( ( #80 ) ) GLOBAL_UNIT_ASSIGNED_CONTEXT ( ( #40, #224, #281 ) ) REPRESENTATION_CONTEXT ( 'NONE', 'WORKASPACE' ) );
#49 = PERSON_AND_ORGANIZATION ( #84, #226 ) ;
#50 = ORIENTED_EDGE ( 'NONE', *, *, #286, .F. ) ;
#51 = VERTEX_POINT ( 'NONE', #92 ) ;
#52 = CC_DESIGN_PERSON_AND_ORGANIZATION_ASSIGNMENT ( #49, #192, ( #230 ) ) ;
#53 = ORIENTED_EDGE ( 'NONE', *, *, #298, .T. ) ;
#54 = AXIS2_PLACEMENT_3D ( 'NONE', #178, #45, #17 ) ;
#55 = ORIENTED_EDGE ( 'NONE', *, *, #157, .T. ) ;
#56 = APPROVAL_DATE_TIME ( #139, #185 ) ;
#57 = VERTEX_POINT ( 'NONE', #65 ) ;
#58 = APPLICATION_PROTOCOL_DEFINITION ( 'international standard', 'config_control_design', 1994, #22 ) ;
#59 = DIRECTION ( 'NONE',  ( -3.491481338843133355E-15, 1.224646799147353207E-16, -1.000000000000000000 ) ) ;
#60 = APPROVAL_ROLE ( '' ) ;
#61 = DIRECTION ( 'NONE',  ( 4.275831445896958607E-31, 1.000000000000000000, 1.224646799147353207E-16 ) ) ;
#62 = SHAPE_DEFINITION_REPRESENTATION ( #107, #19 ) ;
#63 = DIRECTION ( 'NONE',  ( 0.0000000000000000000, 1.000000000000000000, 0.0000000000000000000 ) ) ;
#64 = EDGE_CURVE ( 'NONE', #293, #57, #83, .T. ) ;
#65 = CARTESIAN_POINT ( 'NONE',  ( 1.250653872234713394E-13, -2.000000000000006661, 54.50000000000000000 ) ) ;
#66 = AXIS2_PLACEMENT_3D ( 'NONE', #33, #292, #184 ) ;
#67 = FACE_OUTER_BOUND ( 'NONE', #266, .T. ) ;
#68 = ADVANCED_FACE ( 'NONE', ( #115 ), #218, .F. ) ;
#69 = DIRECTION ( 'NONE',  ( -3.491481338843133355E-15, 1.224646799147353207E-16, -1.000000000000000000 ) ) ;
#70 = DIRECTION ( 'NONE',  ( 0.0000000000000000000, 1.000000000000000000, 0.0000000000000000000 ) ) ;
#71 = LOCAL_TIME ( 9, 48, 17.00000000000000000, #245 ) ;
#72 = FACE_OUTER_BOUND ( 'NONE', #29, .T. ) ;
#73 = MANIFOLD_SOLID_BREP ( 'Corps-Déplacer/Copier1[1]', #121 ) ;
#74 = DIRECTION ( 'NONE',  ( -4.275831445896958607E-31, -1.000000000000000000, -1.224646799147353207E-16 ) ) ;
#75 = APPROVAL_ROLE ( '' ) ;
#76 = AXIS2_PLACEMENT_3D ( 'NONE', #172, #145, #278 ) ;
#77 = ORIENTED_EDGE ( 'NONE', *, *, #31, .T. ) ;
#78 = PRODUCT_DEFINITION ( 'UNKNOWN', '', #239, #287 ) ;
#79 = ORIENTED_EDGE ( 'NONE', *, *, #136, .T. ) ;
#80 = UNCERTAINTY_MEASURE_WITH_UNIT (LENGTH_MEASURE( 1.000000000000000082E-05 ), #40, 'distance_accuracy_value', 'NONE');
#81 = ORIENTED_EDGE ( 'NONE', *, *, #312, .T. ) ;
#82 = LOCAL_TIME ( 9, 48, 17.00000000000000000, #130 ) ;
#83 = CIRCLE ( 'NONE', #25, 2.000000000000000000 ) ;
#84 = PERSON ( 'UNSPECIFIED', 'UNSPECIFIED', 'UNSPECIFIED', ('UNSPECIFIED'), ('UNSPECIFIED'), ('UNSPECIFIED') ) ;
#85 = ORIENTED_EDGE ( 'NONE', *, *, #316, .F. ) ;
#86 = COORDINATED_UNIVERSAL_TIME_OFFSET ( 1, 0, .AHEAD. ) ;
#87 = CARTESIAN_POINT ( 'NONE',  ( 0.0000000000000000000, 0.0000000000000000000, 0.0000000000000000000 ) ) ;
#88 = PERSON_AND_ORGANIZATION ( #84, #226 ) ;
#89 = DIRECTION ( 'NONE',  ( 0.0000000000000000000, 1.000000000000000000, 0.0000000000000000000 ) ) ;
#90 = DATE_TIME_ROLE ( 'classification_date' ) ;
#91 = DIRECTION ( 'NONE',  ( -3.491481338843133355E-15, 1.224646799147353207E-16, -1.000000000000000000 ) ) ;
#92 = CARTESIAN_POINT ( 'NONE',  ( 1.913729164915123472E-13, -1.500000000000006883, 55.00000000000000000 ) ) ;
#93 = FACE_OUTER_BOUND ( 'NONE', #207, .T. ) ;
#94 = PLANE ( 'NONE',  #284 ) ;
#95 = CC_DESIGN_PERSON_AND_ORGANIZATION_ASSIGNMENT ( #335, #231, ( #239 ) ) ;
#96 = CC_DESIGN_APPROVAL ( #185, ( #239 ) ) ;
#97 = CARTESIAN_POINT ( 'NONE',  ( 1.920314736363723472E-13, -6.735557395310442615E-15, 55.00000000000000000 ) ) ;
#98 = DIRECTION ( 'NONE',  ( -3.491481338843133355E-15, 1.224646799147353207E-16, -1.000000000000000000 ) ) ;
#99 = EDGE_CURVE ( 'NONE', #51, #159, #148, .T. ) ;
#100 = DIRECTION ( 'NONE',  ( 0.0000000000000000000, 1.000000000000000000, 0.0000000000000000000 ) ) ;
#101 = VECTOR ( 'NONE', #325, 999.9999999999998863 ) ;
#102 = LOCAL_TIME ( 9, 48, 17.00000000000000000, #112 ) ;
#103 = DIRECTION ( 'NONE',  ( 3.491481338843133355E-15, -1.224646799147353207E-16, 1.000000000000000000 ) ) ;
#104 = APPROVAL_DATE_TIME ( #297, #44 ) ;
#105 = EDGE_CURVE ( 'NONE', #108, #259, #34, .T. ) ;
#106 = ORIENTED_EDGE ( 'NONE', *, *, #234, .F. ) ;
#107 = PRODUCT_DEFINITION_SHAPE ( 'NONE', 'NONE',  #78 ) ;
#108 = VERTEX_POINT ( 'NONE', #327 ) ;
#109 = ADVANCED_FACE ( 'NONE', ( #120 ), #41, .T. ) ;
#110 = LOCAL_TIME ( 9, 48, 17.00000000000000000, #86 ) ;
#111 = CONICAL_SURFACE ( 'NONE', #302, 1.500000000000000222, 0.7853981633974476129 ) ;
#112 = COORDINATED_UNIVERSAL_TIME_OFFSET ( 1, 0, .AHEAD. ) ;
#113 = PERSON_AND_ORGANIZATION_ROLE ( 'classification_officer' ) ;
#114 = CARTESIAN_POINT ( 'NONE',  ( 1.250653872234714404E-13, -1.999999999999997780, 17.00000000000000000 ) ) ;
#115 = FACE_OUTER_BOUND ( 'NONE', #1, .T. ) ;
#116 = ADVANCED_FACE ( 'NONE', ( #93 ), #216, .T. ) ;
#117 = CIRCLE ( 'NONE', #307, 1.999999999999993561 ) ;
#118 = DIRECTION ( 'NONE',  ( -4.275831445896958607E-31, -1.000000000000000000, -1.224646799147353207E-16 ) ) ;
#119 = DIRECTION ( 'NONE',  ( -3.491481338843133355E-15, 1.224646799147353207E-16, -1.000000000000000000 ) ) ;
#120 = FACE_OUTER_BOUND ( 'NONE', #135, .T. ) ;
#121 = CLOSED_SHELL ( 'NONE', ( #227, #180, #68, #116, #109, #151 ) ) ;
#122 = DIRECTION ( 'NONE',  ( 0.0000000000000000000, 1.000000000000000000, 0.0000000000000000000 ) ) ;
#123 = FACE_OUTER_BOUND ( 'NONE', #160, .T. ) ;
#124 = EDGE_CURVE ( 'NONE', #259, #137, #283, .T. ) ;
#125 = CC_DESIGN_SECURITY_CLASSIFICATION ( #275, ( #239 ) ) ;
#126 = LINE ( 'NONE', #150, #213 ) ;
#127 = AXIS2_PLACEMENT_3D ( 'NONE', #39, #255, #100 ) ;
#128 = LINE ( 'NONE', #305, #47 ) ;
#129 = ADVANCED_FACE ( 'NONE', ( #197 ), #32, .T. ) ;
#130 = COORDINATED_UNIVERSAL_TIME_OFFSET ( 1, 0, .AHEAD. ) ;
#131 = ORIENTED_EDGE ( 'NONE', *, *, #312, .F. ) ;
#132 = ORIENTED_EDGE ( 'NONE', *, *, #31, .F. ) ;
#133 = AXIS2_PLACEMENT_3D ( 'NONE', #140, #193, #268 ) ;
#134 = AXIS2_PLACEMENT_3D ( 'NONE', #142, #167, #63 ) ;
#135 = EDGE_LOOP ( 'NONE', ( #285, #210, #337, #50 ) ) ;
#136 = EDGE_CURVE ( 'NONE', #240, #259, #296, .T. ) ;
#137 = VERTEX_POINT ( 'NONE', #326 ) ;
#138 = VERTEX_POINT ( 'NONE', #323 ) ;
#139 = DATE_AND_TIME ( #238, #102 ) ;
#140 = CARTESIAN_POINT ( 'NONE',  ( 4.195787277160952695E-15, -1.471684067651609295E-16, 1.201721238055129870 ) ) ;
#141 = PERSON_AND_ORGANIZATION ( #84, #226 ) ;
#142 = CARTESIAN_POINT ( 'NONE',  ( 5.935518276033326704E-14, -2.081899558550500280E-15, 17.00000000000000000 ) ) ;
#143 = CARTESIAN_POINT ( 'NONE',  ( 1.920314736363723472E-13, -6.735557395310442615E-15, 55.00000000000000000 ) ) ;
#144 = CC_DESIGN_APPROVAL ( #331, ( #78 ) ) ;
#145 = DIRECTION ( 'NONE',  ( -3.491481338843133355E-15, 1.224646799147353207E-16, -1.000000000000000000 ) ) ;
#146 = LINE ( 'NONE', #191, #262 ) ;
#147 = CYLINDRICAL_SURFACE ( 'NONE', #54, 1.999999999999997780 ) ;
#148 = CIRCLE ( 'NONE', #198, 1.500000000000000222 ) ;
#149 = DIRECTION ( 'NONE',  ( -3.491481338843133355E-15, 1.224646799147353207E-16, -1.000000000000000000 ) ) ;
#150 = CARTESIAN_POINT ( 'NONE',  ( 1.920314736363723472E-13, 1.499999999999993561, 55.00000000000000000 ) ) ;
#151 = ADVANCED_FACE ( 'NONE', ( #67 ), #196, .F. ) ;
#152 = FACE_OUTER_BOUND ( 'NONE', #264, .T. ) ;
#153 = VECTOR ( 'NONE', #16, 1000.000000000000000 ) ;
#154 = DIRECTION ( 'NONE',  ( -2.468850131082267316E-15, 0.7071067811865471286, -0.7071067811865479058 ) ) ;
#155 = VECTOR ( 'NONE', #258, 1000.000000000000000 ) ;
#156 = AXIS2_PLACEMENT_3D ( 'NONE', #334, #103, #328 ) ;
#157 = EDGE_CURVE ( 'NONE', #159, #51, #182, .T. ) ;
#158 = DATE_AND_TIME ( #217, #82 ) ;
#159 = VERTEX_POINT ( 'NONE', #222 ) ;
#160 = EDGE_LOOP ( 'NONE', ( #55, #186, #288, #28 ) ) ;
#161 = ORIENTED_EDGE ( 'NONE', *, *, #171, .F. ) ;
#162 = ORIENTED_EDGE ( 'NONE', *, *, #157, .F. ) ;
#163 = EDGE_LOOP ( 'NONE', ( #336, #263, #132, #106 ) ) ;
#164 = DIRECTION ( 'NONE',  ( -3.491481338843133355E-15, 1.224646799147353207E-16, -1.000000000000000000 ) ) ;
#165 = PERSON_AND_ORGANIZATION_ROLE ( 'creator' ) ;
#166 = EDGE_CURVE ( 'NONE', #51, #57, #146, .T. ) ;
#167 = DIRECTION ( 'NONE',  ( -3.491481338843133355E-15, 1.224646799147353207E-16, -1.000000000000000000 ) ) ;
#168 = APPROVAL_STATUS ( 'not_yet_approved' ) ;
#169 = CARTESIAN_POINT ( 'NONE',  ( 5.935518276033326704E-14, 1.499759782661851039E-32, 17.00000000000000000 ) ) ;
#170 = DIRECTION ( 'NONE',  ( 0.0000000000000000000, 1.000000000000000000, 0.0000000000000000000 ) ) ;
#171 = EDGE_CURVE ( 'NONE', #137, #259, #117, .T. ) ;
#172 = CARTESIAN_POINT ( 'NONE',  ( 1.920314736363723472E-13, -6.735557395310442615E-15, 55.00000000000000000 ) ) ;
#173 = CARTESIAN_POINT ( 'NONE',  ( 2.449293598294691623E-16, -1.999999999999994893, -2.449293598294708880E-16 ) ) ;
#174 = CARTESIAN_POINT ( 'NONE',  ( 1.902857329669507616E-13, -6.674325055353075041E-15, 54.50000000000000000 ) ) ;
#175 = EDGE_CURVE ( 'NONE', #108, #137, #9, .T. ) ;
#176 = AXIS2_PLACEMENT_3D ( 'NONE', #301, #13, #219 ) ;
#177 = CARTESIAN_POINT ( 'NONE',  ( 8.551662891793906703E-31, 1.999999999999997780, 2.449293598294703949E-16 ) ) ;
#178 = CARTESIAN_POINT ( 'NONE',  ( 0.0000000000000000000, 0.0000000000000000000, 0.0000000000000000000 ) ) ;
#179 = LINE ( 'NONE', #173, #153 ) ;
#180 = ADVANCED_FACE ( 'NONE', ( #225 ), #147, .T. ) ;
#181 = APPROVAL_STATUS ( 'not_yet_approved' ) ;
#182 = CIRCLE ( 'NONE', #76, 1.500000000000000222 ) ;
#183 = ORIENTED_EDGE ( 'NONE', *, *, #273, .F. ) ;
#184 = DIRECTION ( 'NONE',  ( 1.000000000000000000, 0.0000000000000000000, 0.0000000000000000000 ) ) ;
#185 = APPROVAL ( #5, 'UNSPECIFIED' ) ;
#186 = ORIENTED_EDGE ( 'NONE', *, *, #166, .T. ) ;
#187 = AXIS2_PLACEMENT_3D ( 'NONE', #87, #119, #61 ) ;
#188 = MANIFOLD_SOLID_BREP ( 'Corps-Déplacer/Copier1[2]', #228 ) ;
#189 = ORIENTED_EDGE ( 'NONE', *, *, #105, .F. ) ;
#190 = CALENDAR_DATE ( 2021, 3, 9 ) ;
#191 = CARTESIAN_POINT ( 'NONE',  ( 1.922151706562444373E-13, -1.500000000000006883, 55.00000000000000000 ) ) ;
#192 = PERSON_AND_ORGANIZATION_ROLE ( 'design_owner' ) ;
#193 = DIRECTION ( 'NONE',  ( -3.491481338843133355E-15, 1.224646799147353207E-16, -1.000000000000000000 ) ) ;
#194 = APPROVAL_ROLE ( '' ) ;
#195 = DIRECTION ( 'NONE',  ( 4.275831445896957731E-31, 1.000000000000000000, 1.224646799147353454E-16 ) ) ;
#196 = PLANE ( 'NONE',  #269 ) ;
#197 = FACE_OUTER_BOUND ( 'NONE', #289, .T. ) ;
#198 = AXIS2_PLACEMENT_3D ( 'NONE', #143, #251, #170 ) ;
#199 = CARTESIAN_POINT ( 'NONE',  ( 5.935518276033326704E-14, -2.081899558550500280E-15, 17.00000000000000000 ) ) ;
#200 = FACE_OUTER_BOUND ( 'NONE', #214, .T. ) ;
#201 = EDGE_CURVE ( 'NONE', #240, #208, #202, .T. ) ;
#202 = CIRCLE ( 'NONE', #127, 1.999999999999995781 ) ;
#203 = CARTESIAN_POINT ( 'NONE',  ( 4.440716636990423781E-15, 1.999999999999993561, 1.201721238055130092 ) ) ;
#204 = PRODUCT_RELATED_PRODUCT_CATEGORY ( 'detail', '', ( #230 ) ) ;
#205 = DIRECTION ( 'NONE',  ( -3.491481338843133355E-15, 1.224646799147353207E-16, -1.000000000000000000 ) ) ;
#206 = DATE_TIME_ROLE ( 'creation_date' ) ;
#207 = EDGE_LOOP ( 'NONE', ( #183, #236, #212, #131 ) ) ;
#208 = VERTEX_POINT ( 'NONE', #42 ) ;
#209 = EDGE_CURVE ( 'NONE', #159, #293, #126, .T. ) ;
#210 = ORIENTED_EDGE ( 'NONE', *, *, #99, .T. ) ;
#211 = CIRCLE ( 'NONE', #303, 1.999999999999995781 ) ;
#212 = ORIENTED_EDGE ( 'NONE', *, *, #234, .T. ) ;
#213 = VECTOR ( 'NONE', #154, 1000.000000000000000 ) ;
#214 = EDGE_LOOP ( 'NONE', ( #189, #23, #315 ) ) ;
#215 = CALENDAR_DATE ( 2021, 3, 9 ) ;
#216 = CYLINDRICAL_SURFACE ( 'NONE', #233, 1.999999999999997780 ) ;
#217 = CALENDAR_DATE ( 2021, 3, 9 ) ;
#218 = PLANE ( 'NONE',  #277 ) ;
#219 = DIRECTION ( 'NONE',  ( 4.275831445896958607E-31, 1.000000000000000000, 1.224646799147353207E-16 ) ) ;
#220 = CARTESIAN_POINT ( 'NONE',  ( 0.0000000000000000000, 0.0000000000000000000, 0.0000000000000000000 ) ) ;
#221 = APPLICATION_CONTEXT ( 'configuration controlled 3d designs of mechanical parts and assemblies' ) ;
#222 = CARTESIAN_POINT ( 'NONE',  ( 1.920314736363723472E-13, 1.499999999999993561, 55.00000000000000000 ) ) ;
#223 = CARTESIAN_POINT ( 'NONE',  ( 4.195787277160951907E-15, -1.999999999999993561, 1.201721238055129648 ) ) ;
#224 =( NAMED_UNIT ( * ) PLANE_ANGLE_UNIT ( ) SI_UNIT ( $, .RADIAN. ) );
#225 = FACE_OUTER_BOUND ( 'NONE', #163, .T. ) ;
#226 = ORGANIZATION ( 'UNSPECIFIED', 'UNSPECIFIED', '' ) ;
#227 = ADVANCED_FACE ( 'NONE', ( #123 ), #111, .T. ) ;
#228 = CLOSED_SHELL ( 'NONE', ( #129, #279, #260, #14, #290 ) ) ;
#229 = LINE ( 'NONE', #177, #155 ) ;
#230 = PRODUCT ( '53568', '53568', '', ( #311 ) ) ;
#231 = PERSON_AND_ORGANIZATION_ROLE ( 'design_supplier' ) ;
#232 = ORIENTED_EDGE ( 'NONE', *, *, #136, .F. ) ;
#233 = AXIS2_PLACEMENT_3D ( 'NONE', #220, #91, #195 ) ;
#234 = EDGE_CURVE ( 'NONE', #293, #138, #229, .T. ) ;
#235 = ORIENTED_EDGE ( 'NONE', *, *, #124, .T. ) ;
#236 = ORIENTED_EDGE ( 'NONE', *, *, #286, .T. ) ;
#237 = ORIENTED_EDGE ( 'NONE', *, *, #201, .T. ) ;
#238 = CALENDAR_DATE ( 2021, 3, 9 ) ;
#239 = PRODUCT_DEFINITION_FORMATION_WITH_SPECIFIED_SOURCE ( 'ANY', '', #230, .NOT_KNOWN. ) ;
#240 = VERTEX_POINT ( 'NONE', #280 ) ;
#241 = CONICAL_SURFACE ( 'NONE', #242, 1.999999999999993561, 1.029744258676649649 ) ;
#242 = AXIS2_PLACEMENT_3D ( 'NONE', #332, #21, #309 ) ;
#243 = PERSON_AND_ORGANIZATION_ROLE ( 'creator' ) ;
#244 = CARTESIAN_POINT ( 'NONE',  ( 4.195787277160952695E-15, -1.471684067651609295E-16, 1.201721238055129870 ) ) ;
#245 = COORDINATED_UNIVERSAL_TIME_OFFSET ( 1, 0, .AHEAD. ) ;
#246 = CYLINDRICAL_SURFACE ( 'NONE', #187, 1.999999999999994893 ) ;
#247 = CARTESIAN_POINT ( 'NONE',  ( 1.920314736363723472E-13, -6.735557395310442615E-15, 55.00000000000000000 ) ) ;
#248 = CIRCLE ( 'NONE', #134, 1.999999999999995781 ) ;
#249 = CONICAL_SURFACE ( 'NONE', #156, 1.999999999999993561, 1.029744258676649649 ) ;
#250 = DIRECTION ( 'NONE',  ( 0.0000000000000000000, 1.000000000000000000, 0.0000000000000000000 ) ) ;
#251 = DIRECTION ( 'NONE',  ( -3.491481338843133355E-15, 1.224646799147353207E-16, -1.000000000000000000 ) ) ;
#252 = CC_DESIGN_PERSON_AND_ORGANIZATION_ASSIGNMENT ( #88, #113, ( #275 ) ) ;
#253 = DIRECTION ( 'NONE',  ( 0.0000000000000000000, 1.000000000000000000, 0.0000000000000000000 ) ) ;
#254 = DIRECTION ( 'NONE',  ( 0.0000000000000000000, 1.000000000000000000, 0.0000000000000000000 ) ) ;
#255 = DIRECTION ( 'NONE',  ( -3.491481338843133355E-15, 1.224646799147353207E-16, -1.000000000000000000 ) ) ;
#256 = DIRECTION ( 'NONE',  ( 1.798245827342160317E-15, -0.8571673007021098911, 0.5150380749100582634 ) ) ;
#257 = LOCAL_TIME ( 9, 48, 17.00000000000000000, #272 ) ;
#258 = DIRECTION ( 'NONE',  ( -3.491481338843133355E-15, 1.224646799147353207E-16, -1.000000000000000000 ) ) ;
#259 = VERTEX_POINT ( 'NONE', #203 ) ;
#260 = ADVANCED_FACE ( 'NONE', ( #200 ), #241, .T. ) ;
#261 = ORIENTED_EDGE ( 'NONE', *, *, #175, .F. ) ;
#262 = VECTOR ( 'NONE', #38, 999.9999999999998863 ) ;
#263 = ORIENTED_EDGE ( 'NONE', *, *, #273, .T. ) ;
#264 = EDGE_LOOP ( 'NONE', ( #314, #317 ) ) ;
#265 = CC_DESIGN_DATE_AND_TIME_ASSIGNMENT ( #30, #206, ( #78 ) ) ;
#266 = EDGE_LOOP ( 'NONE', ( #162, #27 ) ) ;
#267 = APPLICATION_PROTOCOL_DEFINITION ( 'international standard', 'config_control_design', 1994, #221 ) ;
#268 = DIRECTION ( 'NONE',  ( 3.851859888774483967E-31, 1.000000000000000000, 1.084202172485507885E-16 ) ) ;
#269 = AXIS2_PLACEMENT_3D ( 'NONE', #300, #164, #276 ) ;
#270 = APPROVAL_DATE_TIME ( #158, #331 ) ;
#271 = CARTESIAN_POINT ( 'NONE',  ( 1.902857329669507616E-13, -6.674325055353075041E-15, 54.50000000000000000 ) ) ;
#272 = COORDINATED_UNIVERSAL_TIME_OFFSET ( 1, 0, .AHEAD. ) ;
#273 = EDGE_CURVE ( 'NONE', #57, #24, #128, .T. ) ;
#274 = DIRECTION ( 'NONE',  ( 3.491481338843133355E-15, -1.224646799147353207E-16, 1.000000000000000000 ) ) ;
#275 = SECURITY_CLASSIFICATION ( '', '', #8 ) ;
#276 = DIRECTION ( 'NONE',  ( 4.275831445896958607E-31, 1.000000000000000000, 1.224646799147353207E-16 ) ) ;
#277 = AXIS2_PLACEMENT_3D ( 'NONE', #169, #274, #118 ) ;
#278 = DIRECTION ( 'NONE',  ( 0.0000000000000000000, 1.000000000000000000, 0.0000000000000000000 ) ) ;
#279 = ADVANCED_FACE ( 'NONE', ( #72 ), #249, .T. ) ;
#280 = CARTESIAN_POINT ( 'NONE',  ( 5.935518276033326704E-14, 1.999999999999993561, 17.00000000000000000 ) ) ;
#281 =( NAMED_UNIT ( * ) SI_UNIT ( $, .STERADIAN. ) SOLID_ANGLE_UNIT ( ) );
#282 = CC_DESIGN_APPROVAL ( #44, ( #275 ) ) ;
#283 = CIRCLE ( 'NONE', #133, 1.999999999999993561 ) ;
#284 = AXIS2_PLACEMENT_3D ( 'NONE', #310, #43, #74 ) ;
#285 = ORIENTED_EDGE ( 'NONE', *, *, #166, .F. ) ;
#286 = EDGE_CURVE ( 'NONE', #57, #293, #20, .T. ) ;
#287 = DESIGN_CONTEXT ( 'detailed design', #221, 'design' ) ;
#288 = ORIENTED_EDGE ( 'NONE', *, *, #64, .F. ) ;
#289 = EDGE_LOOP ( 'NONE', ( #237, #7, #321, #232 ) ) ;
#290 = ADVANCED_FACE ( 'NONE', ( #152 ), #94, .T. ) ;
#291 = EDGE_LOOP ( 'NONE', ( #85, #53, #79, #161 ) ) ;
#292 = DIRECTION ( 'NONE',  ( 0.0000000000000000000, 0.0000000000000000000, 1.000000000000000000 ) ) ;
#293 = VERTEX_POINT ( 'NONE', #306 ) ;
#294 = DIRECTION ( 'NONE',  ( 3.851859888774483967E-31, 1.000000000000000000, 1.084202172485507885E-16 ) ) ;
#295 = PERSON_AND_ORGANIZATION ( #84, #226 ) ;
#296 = LINE ( 'NONE', #299, #329 ) ;
#297 = DATE_AND_TIME ( #190, #110 ) ;
#298 = EDGE_CURVE ( 'NONE', #208, #240, #211, .T. ) ;
#299 = CARTESIAN_POINT ( 'NONE',  ( 8.551662891793896194E-31, 1.999999999999994893, 2.449293598294700005E-16 ) ) ;
#300 = CARTESIAN_POINT ( 'NONE',  ( 1.920314736363723472E-13, 1.124819836996383490E-32, 55.00000000000000000 ) ) ;
#301 = CARTESIAN_POINT ( 'NONE',  ( 0.0000000000000000000, 0.0000000000000000000, 0.0000000000000000000 ) ) ;
#302 = AXIS2_PLACEMENT_3D ( 'NONE', #97, #98, #70 ) ;
#303 = AXIS2_PLACEMENT_3D ( 'NONE', #199, #149, #122 ) ;
#304 = DIRECTION ( 'NONE',  ( -3.491481338843133355E-15, 1.224646799147353207E-16, -1.000000000000000000 ) ) ;
#305 = CARTESIAN_POINT ( 'NONE',  ( 2.449293598294695074E-16, -1.999999999999997780, -2.449293598294711838E-16 ) ) ;
#306 = CARTESIAN_POINT ( 'NONE',  ( 1.902857329669507616E-13, 1.999999999999993561, 54.50000000000000000 ) ) ;
#307 = AXIS2_PLACEMENT_3D ( 'NONE', #244, #59, #294 ) ;
#308 = CC_DESIGN_DATE_AND_TIME_ASSIGNMENT ( #324, #90, ( #275 ) ) ;
#309 = DIRECTION ( 'NONE',  ( -3.851859888774483967E-31, -1.000000000000000000, -1.084202172485507885E-16 ) ) ;
#310 = CARTESIAN_POINT ( 'NONE',  ( 5.935518276033326704E-14, 1.499759782661851039E-32, 17.00000000000000000 ) ) ;
#311 = MECHANICAL_CONTEXT ( 'NONE', #22, 'mechanical' ) ;
#312 = EDGE_CURVE ( 'NONE', #24, #138, #6, .T. ) ;
#313 = PERSON_AND_ORGANIZATION ( #84, #226 ) ;
#314 = ORIENTED_EDGE ( 'NONE', *, *, #201, .F. ) ;
#315 = ORIENTED_EDGE ( 'NONE', *, *, #171, .T. ) ;
#316 = EDGE_CURVE ( 'NONE', #208, #137, #179, .T. ) ;
#317 = ORIENTED_EDGE ( 'NONE', *, *, #298, .F. ) ;
#318 = AXIS2_PLACEMENT_3D ( 'NONE', #247, #37, #250 ) ;
#319 = APPROVAL_PERSON_ORGANIZATION ( #141, #185, #75 ) ;
#320 = ORIENTED_EDGE ( 'NONE', *, *, #105, .T. ) ;
#321 = ORIENTED_EDGE ( 'NONE', *, *, #124, .F. ) ;
#322 = PERSON_AND_ORGANIZATION ( #84, #226 ) ;
#323 = CARTESIAN_POINT ( 'NONE',  ( 5.935518276033326704E-14, 1.999999999999993561, 17.00000000000000000 ) ) ;
#324 = DATE_AND_TIME ( #10, #71 ) ;
#325 = DIRECTION ( 'NONE',  ( 1.903218546456022717E-15, 0.8571673007021097801, 0.5150380749100585964 ) ) ;
#326 = CARTESIAN_POINT ( 'NONE',  ( 4.195787277160951907E-15, -1.999999999999993561, 1.201721238055129648 ) ) ;
#327 = CARTESIAN_POINT ( 'NONE',  ( 0.0000000000000000000, 0.0000000000000000000, 0.0000000000000000000 ) ) ;
#328 = DIRECTION ( 'NONE',  ( -3.851859888774483967E-31, -1.000000000000000000, -1.084202172485507885E-16 ) ) ;
#329 = VECTOR ( 'NONE', #15, 1000.000000000000000 ) ;
#330 = AXIS2_PLACEMENT_3D ( 'NONE', #174, #205, #253 ) ;
#331 = APPROVAL ( #168, 'UNSPECIFIED' ) ;
#332 = CARTESIAN_POINT ( 'NONE',  ( 4.195787277160952695E-15, -1.471684067651609295E-16, 1.201721238055129870 ) ) ;
#333 = APPROVAL_PERSON_ORGANIZATION ( #35, #44, #194 ) ;
#334 = CARTESIAN_POINT ( 'NONE',  ( 4.195787277160952695E-15, -1.471684067651609295E-16, 1.201721238055129870 ) ) ;
#335 = PERSON_AND_ORGANIZATION ( #84, #226 ) ;
#336 = ORIENTED_EDGE ( 'NONE', *, *, #64, .T. ) ;
#337 = ORIENTED_EDGE ( 'NONE', *, *, #209, .T. ) ;
ENDSEC;
END-ISO-10303-21;
