ISO-10303-21;
HEADER;
FILE_DESCRIPTION (( 'STEP AP203' ),
    '1' );
FILE_NAME ('53567.step',
    '2021-09-03T07:48:16',
    ( '' ),
    ( '' ),
    'SwSTEP 2.0',
    'SolidWorks 2019',
    '' );
FILE_SCHEMA (( 'CONFIG_CONTROL_DESIGN' ));
ENDSEC;

DATA;
#1 = FACE_OUTER_BOUND ( 'NONE', #188, .T. ) ;
#2 = DIRECTION ( 'NONE',  ( 0.0000000000000000000, 1.000000000000000000, 0.0000000000000000000 ) ) ;
#3 = ADVANCED_FACE ( 'NONE', ( #334 ), #67, .T. ) ;
#4 = DIRECTION ( 'NONE',  ( -3.491481338843133355E-15, 1.224646799147353207E-16, -1.000000000000000000 ) ) ;
#5 = APPROVAL_STATUS ( 'not_yet_approved' ) ;
#6 = ADVANCED_FACE ( 'NONE', ( #274 ), #92, .T. ) ;
#7 = AXIS2_PLACEMENT_3D ( 'NONE', #267, #113, #272 ) ;
#8 = PERSON_AND_ORGANIZATION ( #105, #271 ) ;
#9 = CARTESIAN_POINT ( 'NONE',  ( 0.0000000000000000000, 0.0000000000000000000, 0.0000000000000000000 ) ) ;
#10 = CALENDAR_DATE ( 2021, 3, 9 ) ;
#11 = AXIS2_PLACEMENT_3D ( 'NONE', #179, #210, #100 ) ;
#12 = EDGE_LOOP ( 'NONE', ( #16, #149, #253, #295 ) ) ;
#13 = SECURITY_CLASSIFICATION ( '', '', #247 ) ;
#14 = DATE_TIME_ROLE ( 'classification_date' ) ;
#15 = DIRECTION ( 'NONE',  ( -3.491481338843133355E-15, 1.224646799147353207E-16, -1.000000000000000000 ) ) ;
#16 = ORIENTED_EDGE ( 'NONE', *, *, #146, .T. ) ;
#17 = ADVANCED_FACE ( 'NONE', ( #279 ), #82, .T. ) ;
#18 = DIRECTION ( 'NONE',  ( -3.491481338843133355E-15, 1.224646799147353207E-16, -1.000000000000000000 ) ) ;
#19 = APPROVAL_ROLE ( '' ) ;
#20 = EDGE_LOOP ( 'NONE', ( #62, #118, #207, #306 ) ) ;
#21 = CARTESIAN_POINT ( 'NONE',  ( 0.0000000000000000000, 0.0000000000000000000, 0.0000000000000000000 ) ) ;
#22 = DIRECTION ( 'NONE',  ( -3.491481338843133355E-15, 1.224646799147353207E-16, -1.000000000000000000 ) ) ;
#23 = AXIS2_PLACEMENT_3D ( 'NONE', #256, #22, #132 ) ;
#24 = CARTESIAN_POINT ( 'NONE',  ( 1.920314736363723472E-13, 1.181060828846204519E-32, 55.00000000000000000 ) ) ;
#25 = CARTESIAN_POINT ( 'NONE',  ( 1.922243555072380594E-13, -1.575000000000008837, 55.00000000000000000 ) ) ;
#26 = APPROVAL ( #5, 'UNSPECIFIED' ) ;
#27 = DIRECTION ( 'NONE',  ( 4.275831445896958607E-31, 1.000000000000000000, 1.224646799147353207E-16 ) ) ;
#28 = CONICAL_SURFACE ( 'NONE', #103, 1.974999999999995426, 1.029744258676649649 ) ;
#29 = PERSON_AND_ORGANIZATION ( #105, #271 ) ;
#30 = ORIENTED_EDGE ( 'NONE', *, *, #168, .T. ) ;
#31 = EDGE_LOOP ( 'NONE', ( #297, #69, #330 ) ) ;
#32 = AXIS2_PLACEMENT_3D ( 'NONE', #158, #259, #130 ) ;
#33 = APPROVAL_DATE_TIME ( #191, #26 ) ;
#34 = CYLINDRICAL_SURFACE ( 'NONE', #7, 1.974999999999996758 ) ;
#35 = ORIENTED_EDGE ( 'NONE', *, *, #168, .F. ) ;
#36 = EDGE_LOOP ( 'NONE', ( #250, #30, #165, #273 ) ) ;
#37 = AXIS2_PLACEMENT_3D ( 'NONE', #261, #183, #231 ) ;
#38 = DIRECTION ( 'NONE',  ( 0.0000000000000000000, 1.000000000000000000, 0.0000000000000000000 ) ) ;
#39 = AXIS2_PLACEMENT_3D ( 'NONE', #58, #80, #294 ) ;
#40 = EDGE_CURVE ( 'NONE', #174, #85, #331, .T. ) ;
#41 = ORIENTED_EDGE ( 'NONE', *, *, #139, .F. ) ;
#42 = DIRECTION ( 'NONE',  ( 4.275831445896958607E-31, 1.000000000000000000, 1.224646799147353207E-16 ) ) ;
#43 = CALENDAR_DATE ( 2021, 3, 9 ) ;
#44 = DIRECTION ( 'NONE',  ( 4.275831445896958607E-31, 1.000000000000000000, 1.224646799147352961E-16 ) ) ;
#45 = AXIS2_PLACEMENT_3D ( 'NONE', #224, #64, #327 ) ;
#46 = CARTESIAN_POINT ( 'NONE',  ( 2.418677428316010203E-16, -1.974999999999996758, -2.418677428316026966E-16 ) ) ;
#47 = EDGE_CURVE ( 'NONE', #328, #301, #236, .T. ) ;
#48 = DIRECTION ( 'NONE',  ( -3.491481338843133355E-15, 1.224646799147353207E-16, -1.000000000000000000 ) ) ;
#49 = FACE_OUTER_BOUND ( 'NONE', #228, .T. ) ;
#50 = CIRCLE ( 'NONE', #32, 1.974999999999997646 ) ;
#51 = LOCAL_TIME ( 9, 48, 16.00000000000000000, #254 ) ;
#52 = LINE ( 'NONE', #336, #319 ) ;
#53 = EDGE_CURVE ( 'NONE', #266, #137, #208, .T. ) ;
#54 = CARTESIAN_POINT ( 'NONE',  ( 8.444767105646491890E-31, 1.974999999999999867, 2.418677428316022036E-16 ) ) ;
#55 = DIRECTION ( 'NONE',  ( 3.900617608885549931E-31, 1.000000000000000000, 1.097926250618234861E-16 ) ) ;
#56 = ORIENTED_EDGE ( 'NONE', *, *, #146, .F. ) ;
#57 = EDGE_CURVE ( 'NONE', #199, #137, #176, .T. ) ;
#58 = CARTESIAN_POINT ( 'NONE',  ( 1.920314736363723472E-13, -6.735557395310442615E-15, 55.00000000000000000 ) ) ;
#59 = PERSON_AND_ORGANIZATION_ROLE ( 'design_owner' ) ;
#60 = CC_DESIGN_APPROVAL ( #278, ( #196 ) ) ;
#61 = FACE_OUTER_BOUND ( 'NONE', #145, .T. ) ;
#62 = ORIENTED_EDGE ( 'NONE', *, *, #180, .T. ) ;
#63 = SHAPE_DEFINITION_REPRESENTATION ( #329, #133 ) ;
#64 = DIRECTION ( 'NONE',  ( 3.491481338843133355E-15, -1.224646799147353207E-16, 1.000000000000000000 ) ) ;
#65 = AXIS2_PLACEMENT_3D ( 'NONE', #72, #131, #155 ) ;
#66 = DIRECTION ( 'NONE',  ( 3.900617608885549931E-31, 1.000000000000000000, 1.097926250618234861E-16 ) ) ;
#67 = CYLINDRICAL_SURFACE ( 'NONE', #195, 1.974999999999996758 ) ;
#68 = PERSON_AND_ORGANIZATION_ROLE ( 'design_supplier' ) ;
#69 = ORIENTED_EDGE ( 'NONE', *, *, #139, .T. ) ;
#70 = ORIENTED_EDGE ( 'NONE', *, *, #156, .T. ) ;
#71 = CONICAL_SURFACE ( 'NONE', #39, 1.575000000000002176, 0.7853981633974510546 ) ;
#72 = CARTESIAN_POINT ( 'NONE',  ( 1.920314736363723472E-13, -6.735557395310442615E-15, 55.00000000000000000 ) ) ;
#73 = CARTESIAN_POINT ( 'NONE',  ( 1.915505521754523621E-13, -1.575000000000008837, 55.00000000000000000 ) ) ;
#74 = ADVANCED_FACE ( 'NONE', ( #333 ), #97, .T. ) ;
#75 = DIRECTION ( 'NONE',  ( 1.798245827342160317E-15, -0.8571673007021098911, 0.5150380749100582634 ) ) ;
#76 = CIRCLE ( 'NONE', #222, 1.575000000000002176 ) ;
#77 = AXIS2_PLACEMENT_3D ( 'NONE', #323, #162, #55 ) ;
#78 = CARTESIAN_POINT ( 'NONE',  ( 1.920314736363723472E-13, 1.574999999999995515, 55.00000000000000000 ) ) ;
#79 = DIRECTION ( 'NONE',  ( 1.000000000000000000, 0.0000000000000000000, 0.0000000000000000000 ) ) ;
#80 = DIRECTION ( 'NONE',  ( -3.491481338843133355E-15, 1.224646799147353207E-16, -1.000000000000000000 ) ) ;
#81 = CC_DESIGN_PERSON_AND_ORGANIZATION_ASSIGNMENT ( #307, #169, ( #196 ) ) ;
#82 = CONICAL_SURFACE ( 'NONE', #110, 1.974999999999995426, 1.029744258676649649 ) ;
#83 = AXIS2_PLACEMENT_3D ( 'NONE', #91, #15, #173 ) ;
#84 = CARTESIAN_POINT ( 'NONE',  ( 5.935518276033326704E-14, 1.974999999999995426, 17.00000000000000000 ) ) ;
#85 = VERTEX_POINT ( 'NONE', #285 ) ;
#86 =( LENGTH_UNIT ( ) NAMED_UNIT ( * ) SI_UNIT ( .MILLI., .METRE. ) );
#87 = EDGE_LOOP ( 'NONE', ( #192, #194 ) ) ;
#88 = EDGE_CURVE ( 'NONE', #301, #328, #157, .T. ) ;
#89 = APPLICATION_CONTEXT ( 'configuration controlled 3d designs of mechanical parts and assemblies' ) ;
#90 = COORDINATED_UNIVERSAL_TIME_OFFSET ( 1, 0, .AHEAD. ) ;
#91 = CARTESIAN_POINT ( 'NONE',  ( 1.906348811008350938E-13, -6.686571523344548398E-15, 54.60000000000000142 ) ) ;
#92 = PLANE ( 'NONE',  #45 ) ;
#93 = PERSON_AND_ORGANIZATION ( #105, #271 ) ;
#94 = CLOSED_SHELL ( 'NONE', ( #3, #17, #332, #322, #6 ) ) ;
#95 = APPROVAL_PERSON_ORGANIZATION ( #167, #326, #200 ) ;
#96 = PERSON_AND_ORGANIZATION_ROLE ( 'classification_officer' ) ;
#97 = CYLINDRICAL_SURFACE ( 'NONE', #277, 1.974999999999999867 ) ;
#98 = DIRECTION ( 'NONE',  ( -3.900617608885549931E-31, -1.000000000000000000, -1.097926250618234861E-16 ) ) ;
#99 = DIRECTION ( 'NONE',  ( 3.491481338843133355E-15, -1.224646799147353207E-16, 1.000000000000000000 ) ) ;
#100 = DIRECTION ( 'NONE',  ( 0.0000000000000000000, 1.000000000000000000, 0.0000000000000000000 ) ) ;
#101 = CARTESIAN_POINT ( 'NONE',  ( 1.920314736363723472E-13, -6.735557395310442615E-15, 55.00000000000000000 ) ) ;
#102 = DIRECTION ( 'NONE',  ( -4.275831445896958607E-31, -1.000000000000000000, -1.224646799147353207E-16 ) ) ;
#103 = AXIS2_PLACEMENT_3D ( 'NONE', #111, #246, #291 ) ;
#104 = CARTESIAN_POINT ( 'NONE',  ( 1.906348811008350938E-13, 1.974999999999995426, 54.60000000000000142 ) ) ;
#105 = PERSON ( 'UNSPECIFIED', 'UNSPECIFIED', 'UNSPECIFIED', ('UNSPECIFIED'), ('UNSPECIFIED'), ('UNSPECIFIED') ) ;
#106 = CARTESIAN_POINT ( 'NONE',  ( 0.0000000000000000000, 0.0000000000000000000, 0.0000000000000000000 ) ) ;
#107 = EDGE_CURVE ( 'NONE', #225, #199, #178, .T. ) ;
#108 = DIRECTION ( 'NONE',  ( 0.0000000000000000000, 0.0000000000000000000, 1.000000000000000000 ) ) ;
#109 = ORIENTED_EDGE ( 'NONE', *, *, #107, .F. ) ;
#110 = AXIS2_PLACEMENT_3D ( 'NONE', #309, #202, #98 ) ;
#111 = CARTESIAN_POINT ( 'NONE',  ( 4.143339936196444830E-15, -1.453288016805965507E-16, 1.186699722579441785 ) ) ;
#112 = EDGE_CURVE ( 'NONE', #137, #301, #181, .T. ) ;
#113 = DIRECTION ( 'NONE',  ( -3.491481338843133355E-15, 1.224646799147353207E-16, -1.000000000000000000 ) ) ;
#114 = CIRCLE ( 'NONE', #11, 1.975000000000001865 ) ;
#115 = ORIENTED_EDGE ( 'NONE', *, *, #260, .T. ) ;
#116 = EDGE_CURVE ( 'NONE', #221, #174, #52, .T. ) ;
#117 = ORIENTED_EDGE ( 'NONE', *, *, #265, .F. ) ;
#118 = ORIENTED_EDGE ( 'NONE', *, *, #107, .T. ) ;
#119 = APPROVAL_STATUS ( 'not_yet_approved' ) ;
#120 = VECTOR ( 'NONE', #75, 1000.000000000000000 ) ;
#121 = LOCAL_TIME ( 9, 48, 16.00000000000000000, #136 ) ;
#122 = ORIENTED_EDGE ( 'NONE', *, *, #112, .T. ) ;
#123 = PRODUCT_DEFINITION ( 'UNKNOWN', '', #196, #284 ) ;
#124 = APPROVAL_DATE_TIME ( #205, #278 ) ;
#125 = VERTEX_POINT ( 'NONE', #21 ) ;
#126 = DIRECTION ( 'NONE',  ( -3.491481338843133355E-15, 1.224646799147353207E-16, -1.000000000000000000 ) ) ;
#127 = CLOSED_SHELL ( 'NONE', ( #296, #270, #240, #74, #249, #211 ) ) ;
#128 = CARTESIAN_POINT ( 'NONE',  ( 2.418677428316014147E-16, -1.974999999999999867, -2.418677428316030910E-16 ) ) ;
#129 = AXIS2_PLACEMENT_3D ( 'NONE', #106, #108, #79 ) ;
#130 = DIRECTION ( 'NONE',  ( 0.0000000000000000000, 1.000000000000000000, 0.0000000000000000000 ) ) ;
#131 = DIRECTION ( 'NONE',  ( -3.491481338843133355E-15, 1.224646799147353207E-16, -1.000000000000000000 ) ) ;
#132 = DIRECTION ( 'NONE',  ( 0.0000000000000000000, 1.000000000000000000, 0.0000000000000000000 ) ) ;
#133 = ADVANCED_BREP_SHAPE_REPRESENTATION ( '53567', ( #293, #288, #129 ), #292 ) ;
#134 = VECTOR ( 'NONE', #4, 1000.000000000000000 ) ;
#135 = APPROVAL_PERSON_ORGANIZATION ( #29, #26, #290 ) ;
#136 = COORDINATED_UNIVERSAL_TIME_OFFSET ( 1, 0, .AHEAD. ) ;
#137 = VERTEX_POINT ( 'NONE', #104 ) ;
#138 =( NAMED_UNIT ( * ) PLANE_ANGLE_UNIT ( ) SI_UNIT ( $, .RADIAN. ) );
#139 = EDGE_CURVE ( 'NONE', #125, #174, #161, .T. ) ;
#140 = ORIENTED_EDGE ( 'NONE', *, *, #180, .F. ) ;
#141 = VECTOR ( 'NONE', #48, 1000.000000000000000 ) ;
#142 = CALENDAR_DATE ( 2021, 3, 9 ) ;
#143 = ORIENTED_EDGE ( 'NONE', *, *, #234, .T. ) ;
#144 = DIRECTION ( 'NONE',  ( -3.491481338843133355E-15, 1.224646799147353207E-16, -1.000000000000000000 ) ) ;
#145 = EDGE_LOOP ( 'NONE', ( #117, #143, #324, #229 ) ) ;
#146 = EDGE_CURVE ( 'NONE', #221, #163, #282, .T. ) ;
#147 = LOCAL_TIME ( 9, 48, 16.00000000000000000, #90 ) ;
#148 = DIRECTION ( 'NONE',  ( -2.468850131082258244E-15, 0.7071067811865495711, -0.7071067811865454633 ) ) ;
#149 = ORIENTED_EDGE ( 'NONE', *, *, #265, .T. ) ;
#150 = CARTESIAN_POINT ( 'NONE',  ( 4.143339936196444830E-15, -1.453288016805965507E-16, 1.186699722579441785 ) ) ;
#151 = CC_DESIGN_PERSON_AND_ORGANIZATION_ASSIGNMENT ( #93, #96, ( #13 ) ) ;
#152 = CC_DESIGN_SECURITY_CLASSIFICATION ( #13, ( #196 ) ) ;
#153 = ORIENTED_EDGE ( 'NONE', *, *, #53, .T. ) ;
#154 = DIRECTION ( 'NONE',  ( -2.382254525458709186E-15, -0.7071067811865493491, -0.7071067811865456854 ) ) ;
#155 = DIRECTION ( 'NONE',  ( 0.0000000000000000000, 1.000000000000000000, 0.0000000000000000000 ) ) ;
#156 = EDGE_CURVE ( 'NONE', #225, #266, #217, .T. ) ;
#157 = CIRCLE ( 'NONE', #37, 1.974999999999997646 ) ;
#158 = CARTESIAN_POINT ( 'NONE',  ( 5.935518276033326704E-14, -2.081899558550500280E-15, 17.00000000000000000 ) ) ;
#159 = CIRCLE ( 'NONE', #77, 1.974999999999995426 ) ;
#160 = DIRECTION ( 'NONE',  ( -3.491481338843133355E-15, 1.224646799147353207E-16, -1.000000000000000000 ) ) ;
#161 = LINE ( 'NONE', #257, #171 ) ;
#162 = DIRECTION ( 'NONE',  ( -3.491481338843133355E-15, 1.224646799147353207E-16, -1.000000000000000000 ) ) ;
#163 = VERTEX_POINT ( 'NONE', #335 ) ;
#164 = CARTESIAN_POINT ( 'NONE',  ( 1.252368996734157325E-13, -1.974999999999999867, 17.00000000000000000 ) ) ;
#165 = ORIENTED_EDGE ( 'NONE', *, *, #88, .F. ) ;
#166 = ORIENTED_EDGE ( 'NONE', *, *, #317, .T. ) ;
#167 = PERSON_AND_ORGANIZATION ( #105, #271 ) ;
#168 = EDGE_CURVE ( 'NONE', #199, #328, #312, .T. ) ;
#169 = PERSON_AND_ORGANIZATION_ROLE ( 'creator' ) ;
#170 = CARTESIAN_POINT ( 'NONE',  ( 1.920314736363723472E-13, 1.574999999999995515, 55.00000000000000000 ) ) ;
#171 = VECTOR ( 'NONE', #316, 999.9999999999998863 ) ;
#172 = LOCAL_TIME ( 9, 48, 16.00000000000000000, #223 ) ;
#173 = DIRECTION ( 'NONE',  ( 0.0000000000000000000, 1.000000000000000000, 0.0000000000000000000 ) ) ;
#174 = VERTEX_POINT ( 'NONE', #289 ) ;
#175 = CARTESIAN_POINT ( 'NONE',  ( 0.0000000000000000000, 0.0000000000000000000, 0.0000000000000000000 ) ) ;
#176 = CIRCLE ( 'NONE', #83, 1.975000000000001865 ) ;
#177 = LOCAL_TIME ( 9, 48, 16.00000000000000000, #321 ) ;
#178 = LINE ( 'NONE', #25, #182 ) ;
#179 = CARTESIAN_POINT ( 'NONE',  ( 1.906348811008350938E-13, -6.686571523344548398E-15, 54.60000000000000142 ) ) ;
#180 = EDGE_CURVE ( 'NONE', #266, #225, #76, .T. ) ;
#181 = LINE ( 'NONE', #54, #141 ) ;
#182 = VECTOR ( 'NONE', #154, 1000.000000000000000 ) ;
#183 = DIRECTION ( 'NONE',  ( -3.491481338843133355E-15, 1.224646799147353207E-16, -1.000000000000000000 ) ) ;
#184 = AXIS2_PLACEMENT_3D ( 'NONE', #101, #160, #2 ) ;
#185 = FACE_OUTER_BOUND ( 'NONE', #36, .T. ) ;
#186 = PERSON_AND_ORGANIZATION ( #105, #271 ) ;
#187 = FACE_OUTER_BOUND ( 'NONE', #197, .T. ) ;
#188 = EDGE_LOOP ( 'NONE', ( #109, #70, #153, #255 ) ) ;
#189 = AXIS2_PLACEMENT_3D ( 'NONE', #150, #304, #66 ) ;
#190 = CC_DESIGN_PERSON_AND_ORGANIZATION_ASSIGNMENT ( #8, #269, ( #123 ) ) ;
#191 = DATE_AND_TIME ( #241, #177 ) ;
#192 = ORIENTED_EDGE ( 'NONE', *, *, #88, .T. ) ;
#193 = PERSON_AND_ORGANIZATION ( #105, #271 ) ;
#194 = ORIENTED_EDGE ( 'NONE', *, *, #47, .T. ) ;
#195 = AXIS2_PLACEMENT_3D ( 'NONE', #280, #18, #42 ) ;
#196 = PRODUCT_DEFINITION_FORMATION_WITH_SPECIFIED_SOURCE ( 'ANY', '', #201, .NOT_KNOWN. ) ;
#197 = EDGE_LOOP ( 'NONE', ( #41, #115, #166 ) ) ;
#198 = DATE_AND_TIME ( #43, #51 ) ;
#199 = VERTEX_POINT ( 'NONE', #262 ) ;
#200 = APPROVAL_ROLE ( '' ) ;
#201 = PRODUCT ( '53567', '53567', '', ( #264 ) ) ;
#202 = DIRECTION ( 'NONE',  ( 3.491481338843133355E-15, -1.224646799147353207E-16, 1.000000000000000000 ) ) ;
#203 = EDGE_CURVE ( 'NONE', #137, #199, #114, .T. ) ;
#204 = VECTOR ( 'NONE', #126, 1000.000000000000000 ) ;
#205 = DATE_AND_TIME ( #300, #147 ) ;
#206 = ORIENTED_EDGE ( 'NONE', *, *, #156, .F. ) ;
#207 = ORIENTED_EDGE ( 'NONE', *, *, #203, .F. ) ;
#208 = LINE ( 'NONE', #170, #242 ) ;
#209 = AXIS2_PLACEMENT_3D ( 'NONE', #303, #276, #38 ) ;
#210 = DIRECTION ( 'NONE',  ( -3.491481338843133355E-15, 1.224646799147353207E-16, -1.000000000000000000 ) ) ;
#211 = ADVANCED_FACE ( 'NONE', ( #49 ), #237, .F. ) ;
#212 = CARTESIAN_POINT ( 'NONE',  ( 5.935518276033326704E-14, 1.974999999999995426, 17.00000000000000000 ) ) ;
#213 = LINE ( 'NONE', #313, #120 ) ;
#214 = CC_DESIGN_PERSON_AND_ORGANIZATION_ASSIGNMENT ( #186, #59, ( #201 ) ) ;
#215 = DIRECTION ( 'NONE',  ( -3.491481338843133355E-15, 1.224646799147353207E-16, -1.000000000000000000 ) ) ;
#216 = CYLINDRICAL_SURFACE ( 'NONE', #243, 1.974999999999999867 ) ;
#217 = CIRCLE ( 'NONE', #65, 1.575000000000002176 ) ;
#218 = CONICAL_SURFACE ( 'NONE', #184, 1.575000000000002176, 0.7853981633974510546 ) ;
#219 =( NAMED_UNIT ( * ) SI_UNIT ( $, .STERADIAN. ) SOLID_ANGLE_UNIT ( ) );
#220 = APPLICATION_PROTOCOL_DEFINITION ( 'international standard', 'config_control_design', 1994, #89 ) ;
#221 = VERTEX_POINT ( 'NONE', #212 ) ;
#222 = AXIS2_PLACEMENT_3D ( 'NONE', #232, #283, #311 ) ;
#223 = COORDINATED_UNIVERSAL_TIME_OFFSET ( 1, 0, .AHEAD. ) ;
#224 = CARTESIAN_POINT ( 'NONE',  ( 5.935518276033326704E-14, 1.481012785378579324E-32, 17.00000000000000000 ) ) ;
#225 = VERTEX_POINT ( 'NONE', #73 ) ;
#226 = ORIENTED_EDGE ( 'NONE', *, *, #234, .F. ) ;
#227 = AXIS2_PLACEMENT_3D ( 'NONE', #287, #99, #102 ) ;
#228 = EDGE_LOOP ( 'NONE', ( #140, #206 ) ) ;
#229 = ORIENTED_EDGE ( 'NONE', *, *, #317, .F. ) ;
#230 = CC_DESIGN_PERSON_AND_ORGANIZATION_ASSIGNMENT ( #275, #68, ( #196 ) ) ;
#231 = DIRECTION ( 'NONE',  ( 0.0000000000000000000, 1.000000000000000000, 0.0000000000000000000 ) ) ;
#232 = CARTESIAN_POINT ( 'NONE',  ( 1.920314736363723472E-13, -6.735557395310442615E-15, 55.00000000000000000 ) ) ;
#233 = FACE_OUTER_BOUND ( 'NONE', #87, .T. ) ;
#234 = EDGE_CURVE ( 'NONE', #163, #221, #50, .T. ) ;
#235 = PLANE ( 'NONE',  #227 ) ;
#236 = CIRCLE ( 'NONE', #209, 1.974999999999997646 ) ;
#237 = PLANE ( 'NONE',  #305 ) ;
#238 = DATE_TIME_ROLE ( 'creation_date' ) ;
#239 = APPLICATION_PROTOCOL_DEFINITION ( 'international standard', 'config_control_design', 1994, #263 ) ;
#240 = ADVANCED_FACE ( 'NONE', ( #233 ), #235, .F. ) ;
#241 = CALENDAR_DATE ( 2021, 3, 9 ) ;
#242 = VECTOR ( 'NONE', #148, 1000.000000000000000 ) ;
#243 = AXIS2_PLACEMENT_3D ( 'NONE', #9, #144, #318 ) ;
#244 = DATE_AND_TIME ( #142, #121 ) ;
#245 = PRODUCT_RELATED_PRODUCT_CATEGORY ( 'detail', '', ( #201 ) ) ;
#246 = DIRECTION ( 'NONE',  ( 3.491481338843133355E-15, -1.224646799147353207E-16, 1.000000000000000000 ) ) ;
#247 = SECURITY_CLASSIFICATION_LEVEL ( 'unclassified' ) ;
#248 = EDGE_LOOP ( 'NONE', ( #56, #226 ) ) ;
#249 = ADVANCED_FACE ( 'NONE', ( #1 ), #218, .T. ) ;
#250 = ORIENTED_EDGE ( 'NONE', *, *, #203, .T. ) ;
#251 = EDGE_LOOP ( 'NONE', ( #35, #310, #122, #268 ) ) ;
#252 = DATE_AND_TIME ( #10, #172 ) ;
#253 = ORIENTED_EDGE ( 'NONE', *, *, #40, .F. ) ;
#254 = COORDINATED_UNIVERSAL_TIME_OFFSET ( 1, 0, .AHEAD. ) ;
#255 = ORIENTED_EDGE ( 'NONE', *, *, #57, .F. ) ;
#256 = CARTESIAN_POINT ( 'NONE',  ( 5.935518276033326704E-14, -2.081899558550500280E-15, 17.00000000000000000 ) ) ;
#257 = CARTESIAN_POINT ( 'NONE',  ( 4.385207679028047378E-15, 1.974999999999995426, 1.186699722579442007 ) ) ;
#258 = UNCERTAINTY_MEASURE_WITH_UNIT (LENGTH_MEASURE( 1.000000000000000082E-05 ), #86, 'distance_accuracy_value', 'NONE');
#259 = DIRECTION ( 'NONE',  ( -3.491481338843133355E-15, 1.224646799147353207E-16, -1.000000000000000000 ) ) ;
#260 = EDGE_CURVE ( 'NONE', #125, #85, #213, .T. ) ;
#261 = CARTESIAN_POINT ( 'NONE',  ( 5.935518276033326704E-14, -2.081899558550500280E-15, 17.00000000000000000 ) ) ;
#262 = CARTESIAN_POINT ( 'NONE',  ( 1.252368996734156315E-13, -1.975000000000008527, 54.60000000000000142 ) ) ;
#263 = APPLICATION_CONTEXT ( 'configuration controlled 3d designs of mechanical parts and assemblies' ) ;
#264 = MECHANICAL_CONTEXT ( 'NONE', #89, 'mechanical' ) ;
#265 = EDGE_CURVE ( 'NONE', #163, #85, #315, .T. ) ;
#266 = VERTEX_POINT ( 'NONE', #78 ) ;
#267 = CARTESIAN_POINT ( 'NONE',  ( 0.0000000000000000000, 0.0000000000000000000, 0.0000000000000000000 ) ) ;
#268 = ORIENTED_EDGE ( 'NONE', *, *, #47, .F. ) ;
#269 = PERSON_AND_ORGANIZATION_ROLE ( 'creator' ) ;
#270 = ADVANCED_FACE ( 'NONE', ( #185 ), #216, .T. ) ;
#271 = ORGANIZATION ( 'UNSPECIFIED', 'UNSPECIFIED', '' ) ;
#272 = DIRECTION ( 'NONE',  ( 4.275831445896958607E-31, 1.000000000000000000, 1.224646799147353207E-16 ) ) ;
#273 = ORIENTED_EDGE ( 'NONE', *, *, #112, .F. ) ;
#274 = FACE_OUTER_BOUND ( 'NONE', #248, .T. ) ;
#275 = PERSON_AND_ORGANIZATION ( #105, #271 ) ;
#276 = DIRECTION ( 'NONE',  ( -3.491481338843133355E-15, 1.224646799147353207E-16, -1.000000000000000000 ) ) ;
#277 = AXIS2_PLACEMENT_3D ( 'NONE', #175, #281, #44 ) ;
#278 = APPROVAL ( #325, 'UNSPECIFIED' ) ;
#279 = FACE_OUTER_BOUND ( 'NONE', #31, .T. ) ;
#280 = CARTESIAN_POINT ( 'NONE',  ( 0.0000000000000000000, 0.0000000000000000000, 0.0000000000000000000 ) ) ;
#281 = DIRECTION ( 'NONE',  ( -3.491481338843133355E-15, 1.224646799147353207E-16, -1.000000000000000000 ) ) ;
#282 = CIRCLE ( 'NONE', #23, 1.974999999999997646 ) ;
#283 = DIRECTION ( 'NONE',  ( -3.491481338843133355E-15, 1.224646799147353207E-16, -1.000000000000000000 ) ) ;
#284 = DESIGN_CONTEXT ( 'detailed design', #263, 'design' ) ;
#285 = CARTESIAN_POINT ( 'NONE',  ( 4.143339936196444041E-15, -1.974999999999995426, 1.186699722579441563 ) ) ;
#286 = DIRECTION ( 'NONE',  ( -3.491481338843133355E-15, 1.224646799147353207E-16, -1.000000000000000000 ) ) ;
#287 = CARTESIAN_POINT ( 'NONE',  ( 5.935518276033326704E-14, 1.481012785378579324E-32, 17.00000000000000000 ) ) ;
#288 = MANIFOLD_SOLID_BREP ( 'Corps-Déplacer/Copier1[2]', #94 ) ;
#289 = CARTESIAN_POINT ( 'NONE',  ( 4.385207679028047378E-15, 1.974999999999995426, 1.186699722579442007 ) ) ;
#290 = APPROVAL_ROLE ( '' ) ;
#291 = DIRECTION ( 'NONE',  ( -3.900617608885549931E-31, -1.000000000000000000, -1.097926250618234861E-16 ) ) ;
#292 =( GEOMETRIC_REPRESENTATION_CONTEXT ( 3 ) GLOBAL_UNCERTAINTY_ASSIGNED_CONTEXT ( ( #258 ) ) GLOBAL_UNIT_ASSIGNED_CONTEXT ( ( #86, #138, #219 ) ) REPRESENTATION_CONTEXT ( 'NONE', 'WORKASPACE' ) );
#293 = MANIFOLD_SOLID_BREP ( 'Corps-Déplacer/Copier1[1]', #127 ) ;
#294 = DIRECTION ( 'NONE',  ( 0.0000000000000000000, 1.000000000000000000, 0.0000000000000000000 ) ) ;
#295 = ORIENTED_EDGE ( 'NONE', *, *, #116, .F. ) ;
#296 = ADVANCED_FACE ( 'NONE', ( #298 ), #71, .T. ) ;
#297 = ORIENTED_EDGE ( 'NONE', *, *, #260, .F. ) ;
#298 = FACE_OUTER_BOUND ( 'NONE', #20, .T. ) ;
#299 = CC_DESIGN_APPROVAL ( #326, ( #13 ) ) ;
#300 = CALENDAR_DATE ( 2021, 3, 9 ) ;
#301 = VERTEX_POINT ( 'NONE', #84 ) ;
#302 = APPROVAL_DATE_TIME ( #198, #326 ) ;
#303 = CARTESIAN_POINT ( 'NONE',  ( 5.935518276033326704E-14, -2.081899558550500280E-15, 17.00000000000000000 ) ) ;
#304 = DIRECTION ( 'NONE',  ( -3.491481338843133355E-15, 1.224646799147353207E-16, -1.000000000000000000 ) ) ;
#305 = AXIS2_PLACEMENT_3D ( 'NONE', #24, #215, #27 ) ;
#306 = ORIENTED_EDGE ( 'NONE', *, *, #53, .F. ) ;
#307 = PERSON_AND_ORGANIZATION ( #105, #271 ) ;
#308 = CC_DESIGN_DATE_AND_TIME_ASSIGNMENT ( #252, #14, ( #13 ) ) ;
#309 = CARTESIAN_POINT ( 'NONE',  ( 4.143339936196444830E-15, -1.453288016805965507E-16, 1.186699722579441785 ) ) ;
#310 = ORIENTED_EDGE ( 'NONE', *, *, #57, .T. ) ;
#311 = DIRECTION ( 'NONE',  ( 0.0000000000000000000, 1.000000000000000000, 0.0000000000000000000 ) ) ;
#312 = LINE ( 'NONE', #128, #134 ) ;
#313 = CARTESIAN_POINT ( 'NONE',  ( 4.143339936196444041E-15, -1.974999999999995426, 1.186699722579441563 ) ) ;
#314 = APPROVAL_PERSON_ORGANIZATION ( #193, #278, #19 ) ;
#315 = LINE ( 'NONE', #46, #204 ) ;
#316 = DIRECTION ( 'NONE',  ( 1.903218546456022717E-15, 0.8571673007021097801, 0.5150380749100585964 ) ) ;
#317 = EDGE_CURVE ( 'NONE', #85, #174, #159, .T. ) ;
#318 = DIRECTION ( 'NONE',  ( 4.275831445896958607E-31, 1.000000000000000000, 1.224646799147352961E-16 ) ) ;
#319 = VECTOR ( 'NONE', #286, 1000.000000000000000 ) ;
#320 = CC_DESIGN_APPROVAL ( #26, ( #123 ) ) ;
#321 = COORDINATED_UNIVERSAL_TIME_OFFSET ( 1, 0, .AHEAD. ) ;
#322 = ADVANCED_FACE ( 'NONE', ( #61 ), #34, .T. ) ;
#323 = CARTESIAN_POINT ( 'NONE',  ( 4.143339936196444830E-15, -1.453288016805965507E-16, 1.186699722579441785 ) ) ;
#324 = ORIENTED_EDGE ( 'NONE', *, *, #116, .T. ) ;
#325 = APPROVAL_STATUS ( 'not_yet_approved' ) ;
#326 = APPROVAL ( #119, 'UNSPECIFIED' ) ;
#327 = DIRECTION ( 'NONE',  ( -4.275831445896958607E-31, -1.000000000000000000, -1.224646799147353207E-16 ) ) ;
#328 = VERTEX_POINT ( 'NONE', #164 ) ;
#329 = PRODUCT_DEFINITION_SHAPE ( 'NONE', 'NONE',  #123 ) ;
#330 = ORIENTED_EDGE ( 'NONE', *, *, #40, .T. ) ;
#331 = CIRCLE ( 'NONE', #189, 1.974999999999995426 ) ;
#332 = ADVANCED_FACE ( 'NONE', ( #187 ), #28, .T. ) ;
#333 = FACE_OUTER_BOUND ( 'NONE', #251, .T. ) ;
#334 = FACE_OUTER_BOUND ( 'NONE', #12, .T. ) ;
#335 = CARTESIAN_POINT ( 'NONE',  ( 3.199112909109642969E-14, -1.974999999999999867, 17.00000000000000000 ) ) ;
#336 = CARTESIAN_POINT ( 'NONE',  ( 8.444767105646479629E-31, 1.974999999999996758, 2.418677428316018584E-16 ) ) ;
#337 = CC_DESIGN_DATE_AND_TIME_ASSIGNMENT ( #244, #238, ( #123 ) ) ;
ENDSEC;
END-ISO-10303-21;
