ISO-10303-21;
HEADER;
FILE_DESCRIPTION (( 'STEP AP203' ),
    '1' );
FILE_NAME ('54565.step',
    '2021-09-03T07:50:38',
    ( '' ),
    ( '' ),
    'SwSTEP 2.0',
    'SolidWorks 2019',
    '' );
FILE_SCHEMA (( 'CONFIG_CONTROL_DESIGN' ));
ENDSEC;

DATA;
#1 = EDGE_CURVE ( 'NONE', #151, #331, #235, .T. ) ;
#2 = PERSON_AND_ORGANIZATION ( #185, #312 ) ;
#3 = CC_DESIGN_PERSON_AND_ORGANIZATION_ASSIGNMENT ( #270, #219, ( #308 ) ) ;
#4 = PERSON_AND_ORGANIZATION_ROLE ( 'creator' ) ;
#5 = EDGE_CURVE ( 'NONE', #301, #154, #84, .T. ) ;
#6 = AXIS2_PLACEMENT_3D ( 'NONE', #275, #22, #305 ) ;
#7 = LOCAL_TIME ( 9, 50, 38.00000000000000000, #44 ) ;
#8 = DIRECTION ( 'NONE',  ( -3.491481338843133355E-15, 1.224646799147353207E-16, -1.000000000000000000 ) ) ;
#9 = ORIENTED_EDGE ( 'NONE', *, *, #42, .T. ) ;
#10 = ADVANCED_FACE ( 'NONE', ( #158 ), #20, .F. ) ;
#11 = CARTESIAN_POINT ( 'NONE',  ( 4.090892595231927498E-15, -1.434891965960318514E-16, 1.171678207103751257 ) ) ;
#12 = PLANE ( 'NONE',  #73 ) ;
#13 = CC_DESIGN_APPROVAL ( #138, ( #195 ) ) ;
#14 = ORIENTED_EDGE ( 'NONE', *, *, #209, .T. ) ;
#15 = ORIENTED_EDGE ( 'NONE', *, *, #196, .T. ) ;
#16 = DIRECTION ( 'NONE',  ( 0.0000000000000000000, 1.000000000000000000, 0.0000000000000000000 ) ) ;
#17 = CC_DESIGN_PERSON_AND_ORGANIZATION_ASSIGNMENT ( #179, #91, ( #152 ) ) ;
#18 = EDGE_CURVE ( 'NONE', #331, #151, #25, .T. ) ;
#19 = LINE ( 'NONE', #132, #211 ) ;
#20 = PLANE ( 'NONE',  #6 ) ;
#21 = CLOSED_SHELL ( 'NONE', ( #58, #88, #306, #265, #233, #10 ) ) ;
#22 = DIRECTION ( 'NONE',  ( -3.491481338843133355E-15, 1.224646799147353207E-16, -1.000000000000000000 ) ) ;
#23 = CARTESIAN_POINT ( 'NONE',  ( 1.906348811008350938E-13, 1.949999999999993294, 54.60000000000000142 ) ) ;
#24 = ORIENTED_EDGE ( 'NONE', *, *, #189, .T. ) ;
#25 = CIRCLE ( 'NONE', #329, 1.949999999999993516 ) ;
#26 = CIRCLE ( 'NONE', #182, 1.949999999999995293 ) ;
#27 = APPROVAL_STATUS ( 'not_yet_approved' ) ;
#28 = AXIS2_PLACEMENT_3D ( 'NONE', #311, #262, #165 ) ;
#29 = CARTESIAN_POINT ( 'NONE',  ( 4.329698721065660721E-15, 1.949999999999993294, 1.171678207103751479 ) ) ;
#30 = AXIS2_PLACEMENT_3D ( 'NONE', #325, #291, #64 ) ;
#31 = DIRECTION ( 'NONE',  ( 1.798245827342159528E-15, -0.8571673007021100021, 0.5150380749100580413 ) ) ;
#32 = CARTESIAN_POINT ( 'NONE',  ( 8.337871319499059561E-31, 1.949999999999997735, 2.388061258337336178E-16 ) ) ;
#33 = CARTESIAN_POINT ( 'NONE',  ( 2.388061258337323359E-16, -1.949999999999994182, -2.388061258337340122E-16 ) ) ;
#34 = APPROVAL_STATUS ( 'not_yet_approved' ) ;
#35 = EDGE_LOOP ( 'NONE', ( #148, #335, #124, #320 ) ) ;
#36 = AXIS2_PLACEMENT_3D ( 'NONE', #307, #157, #48 ) ;
#37 = DIRECTION ( 'NONE',  ( 0.0000000000000000000, 1.000000000000000000, 0.0000000000000000000 ) ) ;
#38 = ORIENTED_EDGE ( 'NONE', *, *, #209, .F. ) ;
#39 = APPLICATION_PROTOCOL_DEFINITION ( 'international standard', 'config_control_design', 1994, #334 ) ;
#40 = ORIENTED_EDGE ( 'NONE', *, *, #237, .F. ) ;
#41 = LOCAL_TIME ( 9, 50, 38.00000000000000000, #238 ) ;
#42 = EDGE_CURVE ( 'NONE', #295, #301, #19, .T. ) ;
#43 = ORIENTED_EDGE ( 'NONE', *, *, #5, .T. ) ;
#44 = COORDINATED_UNIVERSAL_TIME_OFFSET ( 1, 0, .AHEAD. ) ;
#45 = DIRECTION ( 'NONE',  ( 0.0000000000000000000, 1.000000000000000000, 0.0000000000000000000 ) ) ;
#46 = LINE ( 'NONE', #146, #321 ) ;
#47 = DIRECTION ( 'NONE',  ( -4.275831445896958607E-31, -1.000000000000000000, -1.224646799147353207E-16 ) ) ;
#48 = DIRECTION ( 'NONE',  ( -3.950625526948189224E-31, -1.000000000000000000, -1.112002228190264649E-16 ) ) ;
#49 = DIRECTION ( 'NONE',  ( 4.275831445896959482E-31, 1.000000000000000000, 1.224646799147353207E-16 ) ) ;
#50 = PRODUCT_DEFINITION_FORMATION_WITH_SPECIFIED_SOURCE ( 'ANY', '', #308, .NOT_KNOWN. ) ;
#51 = SHAPE_DEFINITION_REPRESENTATION ( #156, #293 ) ;
#52 = LINE ( 'NONE', #32, #108 ) ;
#53 = ORIENTED_EDGE ( 'NONE', *, *, #229, .F. ) ;
#54 = VERTEX_POINT ( 'NONE', #332 ) ;
#55 = ADVANCED_FACE ( 'NONE', ( #76 ), #12, .T. ) ;
#56 = CIRCLE ( 'NONE', #284, 1.949999999999995293 ) ;
#57 = CARTESIAN_POINT ( 'NONE',  ( 3.196184380361630209E-14, -1.949999999999997735, 17.00000000000000000 ) ) ;
#58 = ADVANCED_FACE ( 'NONE', ( #250 ), #260, .T. ) ;
#59 = SECURITY_CLASSIFICATION_LEVEL ( 'unclassified' ) ;
#60 = DIRECTION ( 'NONE',  ( 0.0000000000000000000, 1.000000000000000000, 0.0000000000000000000 ) ) ;
#61 = PERSON_AND_ORGANIZATION_ROLE ( 'creator' ) ;
#62 = ORIENTED_EDGE ( 'NONE', *, *, #243, .F. ) ;
#63 = DIRECTION ( 'NONE',  ( -3.491481338843133355E-15, 1.224646799147353207E-16, -1.000000000000000000 ) ) ;
#64 = DIRECTION ( 'NONE',  ( 4.275831445896958607E-31, 1.000000000000000000, 1.224646799147353207E-16 ) ) ;
#65 = PRODUCT_RELATED_PRODUCT_CATEGORY ( 'detail', '', ( #308 ) ) ;
#66 = EDGE_CURVE ( 'NONE', #301, #280, #52, .T. ) ;
#67 = CYLINDRICAL_SURFACE ( 'NONE', #322, 1.949999999999994182 ) ;
#68 = PERSON_AND_ORGANIZATION ( #185, #312 ) ;
#69 = VERTEX_POINT ( 'NONE', #57 ) ;
#70 = ORIENTED_EDGE ( 'NONE', *, *, #42, .F. ) ;
#71 = MANIFOLD_SOLID_BREP ( 'Corps-Déplacer/Copier1[1]', #21 ) ;
#72 = EDGE_LOOP ( 'NONE', ( #252, #248 ) ) ;
#73 = AXIS2_PLACEMENT_3D ( 'NONE', #324, #309, #47 ) ;
#74 = CC_DESIGN_PERSON_AND_ORGANIZATION_ASSIGNMENT ( #122, #61, ( #195 ) ) ;
#75 = EDGE_CURVE ( 'NONE', #220, #331, #286, .T. ) ;
#76 = FACE_OUTER_BOUND ( 'NONE', #282, .T. ) ;
#77 =( NAMED_UNIT ( * ) SI_UNIT ( $, .STERADIAN. ) SOLID_ANGLE_UNIT ( ) );
#78 = CARTESIAN_POINT ( 'NONE',  ( 1.920314736363723472E-13, -6.735557395310442615E-15, 55.00000000000000000 ) ) ;
#79 = CARTESIAN_POINT ( 'NONE',  ( 5.935518276033326704E-14, 1.462265788095304599E-32, 17.00000000000000000 ) ) ;
#80 = EDGE_CURVE ( 'NONE', #54, #69, #283, .T. ) ;
#81 = AXIS2_PLACEMENT_3D ( 'NONE', #78, #160, #249 ) ;
#82 = DESIGN_CONTEXT ( 'detailed design', #334, 'design' ) ;
#83 = DIRECTION ( 'NONE',  ( -3.491481338843133355E-15, 1.224646799147353207E-16, -1.000000000000000000 ) ) ;
#84 = CIRCLE ( 'NONE', #313, 1.949999999999999956 ) ;
#85 = CONICAL_SURFACE ( 'NONE', #172, 1.949999999999993516, 1.029744258676649871 ) ;
#86 = CALENDAR_DATE ( 2021, 3, 9 ) ;
#87 = PERSON_AND_ORGANIZATION_ROLE ( 'design_supplier' ) ;
#88 = ADVANCED_FACE ( 'NONE', ( #234 ), #163, .T. ) ;
#89 = DATE_AND_TIME ( #317, #41 ) ;
#90 = AXIS2_PLACEMENT_3D ( 'NONE', #79, #230, #328 ) ;
#91 = PERSON_AND_ORGANIZATION_ROLE ( 'classification_officer' ) ;
#92 = CARTESIAN_POINT ( 'NONE',  ( 0.0000000000000000000, 0.0000000000000000000, 0.0000000000000000000 ) ) ;
#93 = EDGE_CURVE ( 'NONE', #154, #277, #46, .T. ) ;
#94 = FACE_OUTER_BOUND ( 'NONE', #97, .T. ) ;
#95 = CYLINDRICAL_SURFACE ( 'NONE', #30, 1.949999999999997735 ) ;
#96 = ORIENTED_EDGE ( 'NONE', *, *, #1, .F. ) ;
#97 = EDGE_LOOP ( 'NONE', ( #145, #336, #296, #96 ) ) ;
#98 = FACE_OUTER_BOUND ( 'NONE', #326, .T. ) ;
#99 = FACE_OUTER_BOUND ( 'NONE', #193, .T. ) ;
#100 = AXIS2_PLACEMENT_3D ( 'NONE', #201, #147, #49 ) ;
#101 = FACE_OUTER_BOUND ( 'NONE', #35, .T. ) ;
#102 = EDGE_LOOP ( 'NONE', ( #43, #123, #62, #268 ) ) ;
#103 = CARTESIAN_POINT ( 'NONE',  ( 1.906348811008350938E-13, -6.686571523344548398E-15, 54.60000000000000142 ) ) ;
#104 = APPROVAL_STATUS ( 'not_yet_approved' ) ;
#105 = DIRECTION ( 'NONE',  ( -3.491481338843133355E-15, 1.224646799147353207E-16, -1.000000000000000000 ) ) ;
#106 = DIRECTION ( 'NONE',  ( -3.491481338843133355E-15, 1.224646799147353207E-16, -1.000000000000000000 ) ) ;
#107 = DIRECTION ( 'NONE',  ( 4.275831445896959482E-31, 1.000000000000000000, 1.224646799147353207E-16 ) ) ;
#108 = VECTOR ( 'NONE', #83, 1000.000000000000000 ) ;
#109 = DIRECTION ( 'NONE',  ( -3.491481338843133355E-15, 1.224646799147353207E-16, -1.000000000000000000 ) ) ;
#110 = CARTESIAN_POINT ( 'NONE',  ( 4.090892595231927498E-15, -1.434891965960318514E-16, 1.171678207103751257 ) ) ;
#111 = ORIENTED_EDGE ( 'NONE', *, *, #141, .T. ) ;
#112 = AXIS2_PLACEMENT_3D ( 'NONE', #188, #153, #216 ) ;
#113 = CARTESIAN_POINT ( 'NONE',  ( 8.337871319499045548E-31, 1.949999999999994182, 2.388061258337331741E-16 ) ) ;
#114 = CC_DESIGN_DATE_AND_TIME_ASSIGNMENT ( #184, #289, ( #152 ) ) ;
#115 = CARTESIAN_POINT ( 'NONE',  ( 1.922212938902401854E-13, -1.550000000000006706, 55.00000000000000000 ) ) ;
#116 = DIRECTION ( 'NONE',  ( -3.491481338843133355E-15, 1.224646799147353207E-16, -1.000000000000000000 ) ) ;
#117 = DIRECTION ( 'NONE',  ( 0.0000000000000000000, 1.000000000000000000, 0.0000000000000000000 ) ) ;
#118 = ORIENTED_EDGE ( 'NONE', *, *, #75, .F. ) ;
#119 = DIRECTION ( 'NONE',  ( 0.0000000000000000000, 1.000000000000000000, 0.0000000000000000000 ) ) ;
#120 = APPLICATION_PROTOCOL_DEFINITION ( 'international standard', 'config_control_design', 1994, #245 ) ;
#121 = AXIS2_PLACEMENT_3D ( 'NONE', #103, #269, #37 ) ;
#122 = PERSON_AND_ORGANIZATION ( #185, #312 ) ;
#123 = ORIENTED_EDGE ( 'NONE', *, *, #93, .T. ) ;
#124 = ORIENTED_EDGE ( 'NONE', *, *, #66, .T. ) ;
#125 = CARTESIAN_POINT ( 'NONE',  ( 4.090892595231927498E-15, -1.434891965960318514E-16, 1.171678207103751257 ) ) ;
#126 = ADVANCED_FACE ( 'NONE', ( #319 ), #85, .T. ) ;
#127 = AXIS2_PLACEMENT_3D ( 'NONE', #110, #274, #155 ) ;
#128 = CIRCLE ( 'NONE', #81, 1.550000000000000044 ) ;
#129 =( LENGTH_UNIT ( ) NAMED_UNIT ( * ) SI_UNIT ( .MILLI., .METRE. ) );
#130 = DIRECTION ( 'NONE',  ( 3.950625526948189224E-31, 1.000000000000000000, 1.112002228190264649E-16 ) ) ;
#131 = DIRECTION ( 'NONE',  ( -3.491481338843133355E-15, 1.224646799147353207E-16, -1.000000000000000000 ) ) ;
#132 = CARTESIAN_POINT ( 'NONE',  ( 1.920314736363723472E-13, 1.549999999999993161, 55.00000000000000000 ) ) ;
#133 = ADVANCED_FACE ( 'NONE', ( #98 ), #67, .T. ) ;
#134 = LINE ( 'NONE', #113, #278 ) ;
#135 = LOCAL_TIME ( 9, 50, 38.00000000000000000, #323 ) ;
#136 = APPROVAL ( #34, 'UNSPECIFIED' ) ;
#137 = ADVANCED_FACE ( 'NONE', ( #94 ), #218, .T. ) ;
#138 = APPROVAL ( #104, 'UNSPECIFIED' ) ;
#139 = CIRCLE ( 'NONE', #121, 1.949999999999999956 ) ;
#140 = CALENDAR_DATE ( 2021, 3, 9 ) ;
#141 = EDGE_CURVE ( 'NONE', #295, #200, #128, .T. ) ;
#142 = DIRECTION ( 'NONE',  ( -3.491481338843133355E-15, 1.224646799147353207E-16, -1.000000000000000000 ) ) ;
#143 = DIRECTION ( 'NONE',  ( -3.491481338843133355E-15, 1.224646799147353207E-16, -1.000000000000000000 ) ) ;
#144 = CONICAL_SURFACE ( 'NONE', #221, 1.550000000000000044, 0.7853981633974512766 ) ;
#145 = ORIENTED_EDGE ( 'NONE', *, *, #189, .F. ) ;
#146 = CARTESIAN_POINT ( 'NONE',  ( 2.388061258337327796E-16, -1.949999999999997735, -2.388061258337344066E-16 ) ) ;
#147 = DIRECTION ( 'NONE',  ( -3.491481338843133355E-15, 1.224646799147353207E-16, -1.000000000000000000 ) ) ;
#148 = ORIENTED_EDGE ( 'NONE', *, *, #93, .F. ) ;
#149 = EDGE_CURVE ( 'NONE', #277, #280, #56, .T. ) ;
#150 = CARTESIAN_POINT ( 'NONE',  ( 5.935518276033326704E-14, -2.081899558550500280E-15, 17.00000000000000000 ) ) ;
#151 = VERTEX_POINT ( 'NONE', #183 ) ;
#152 = SECURITY_CLASSIFICATION ( '', '', #59 ) ;
#153 = DIRECTION ( 'NONE',  ( 0.0000000000000000000, 0.0000000000000000000, 1.000000000000000000 ) ) ;
#154 = VERTEX_POINT ( 'NONE', #167 ) ;
#155 = DIRECTION ( 'NONE',  ( 3.950625526948189224E-31, 1.000000000000000000, 1.112002228190264649E-16 ) ) ;
#156 = PRODUCT_DEFINITION_SHAPE ( 'NONE', 'NONE',  #195 ) ;
#157 = DIRECTION ( 'NONE',  ( 3.491481338843133355E-15, -1.224646799147353207E-16, 1.000000000000000000 ) ) ;
#158 = FACE_OUTER_BOUND ( 'NONE', #257, .T. ) ;
#159 = FACE_OUTER_BOUND ( 'NONE', #72, .T. ) ;
#160 = DIRECTION ( 'NONE',  ( -3.491481338843133355E-15, 1.224646799147353207E-16, -1.000000000000000000 ) ) ;
#161 = DATE_AND_TIME ( #176, #7 ) ;
#162 = AXIS2_PLACEMENT_3D ( 'NONE', #298, #109, #256 ) ;
#163 = CYLINDRICAL_SURFACE ( 'NONE', #267, 1.949999999999997735 ) ;
#164 = ORIENTED_EDGE ( 'NONE', *, *, #80, .T. ) ;
#165 = DIRECTION ( 'NONE',  ( 0.0000000000000000000, 1.000000000000000000, 0.0000000000000000000 ) ) ;
#166 = APPROVAL_PERSON_ORGANIZATION ( #68, #138, #170 ) ;
#167 = CARTESIAN_POINT ( 'NONE',  ( 1.252338380564177827E-13, -1.950000000000006839, 54.60000000000000142 ) ) ;
#168 = APPROVAL_DATE_TIME ( #89, #258 ) ;
#169 = CIRCLE ( 'NONE', #162, 1.550000000000000044 ) ;
#170 = APPROVAL_ROLE ( '' ) ;
#171 = ORIENTED_EDGE ( 'NONE', *, *, #5, .F. ) ;
#172 = AXIS2_PLACEMENT_3D ( 'NONE', #11, #226, #244 ) ;
#173 = APPROVAL_DATE_TIME ( #161, #136 ) ;
#174 = ORIENTED_EDGE ( 'NONE', *, *, #213, .T. ) ;
#175 =( GEOMETRIC_REPRESENTATION_CONTEXT ( 3 ) GLOBAL_UNCERTAINTY_ASSIGNED_CONTEXT ( ( #204 ) ) GLOBAL_UNIT_ASSIGNED_CONTEXT ( ( #129, #255, #77 ) ) REPRESENTATION_CONTEXT ( 'NONE', 'WORKASPACE' ) );
#176 = CALENDAR_DATE ( 2021, 3, 9 ) ;
#177 = ORIENTED_EDGE ( 'NONE', *, *, #196, .F. ) ;
#178 = CC_DESIGN_PERSON_AND_ORGANIZATION_ASSIGNMENT ( #239, #87, ( #50 ) ) ;
#179 = PERSON_AND_ORGANIZATION ( #185, #312 ) ;
#180 = AXIS2_PLACEMENT_3D ( 'NONE', #150, #105, #119 ) ;
#181 = COORDINATED_UNIVERSAL_TIME_OFFSET ( 1, 0, .AHEAD. ) ;
#182 = AXIS2_PLACEMENT_3D ( 'NONE', #302, #143, #117 ) ;
#183 = CARTESIAN_POINT ( 'NONE',  ( 4.090892595231926709E-15, -1.949999999999993516, 1.171678207103751035 ) ) ;
#184 = DATE_AND_TIME ( #140, #227 ) ;
#185 = PERSON ( 'UNSPECIFIED', 'UNSPECIFIED', 'UNSPECIFIED', ('UNSPECIFIED'), ('UNSPECIFIED'), ('UNSPECIFIED') ) ;
#186 = DIRECTION ( 'NONE',  ( -2.382254525458708792E-15, -0.7071067811865495711, -0.7071067811865455743 ) ) ;
#187 = CARTESIAN_POINT ( 'NONE',  ( 1.920314736363723472E-13, -6.735557395310442615E-15, 55.00000000000000000 ) ) ;
#188 = CARTESIAN_POINT ( 'NONE',  ( 0.0000000000000000000, 0.0000000000000000000, 0.0000000000000000000 ) ) ;
#189 = EDGE_CURVE ( 'NONE', #69, #151, #263, .T. ) ;
#190 = EDGE_LOOP ( 'NONE', ( #111, #15, #171, #70 ) ) ;
#191 = MECHANICAL_CONTEXT ( 'NONE', #245, 'mechanical' ) ;
#192 = EDGE_LOOP ( 'NONE', ( #118, #174, #303 ) ) ;
#193 = EDGE_LOOP ( 'NONE', ( #177, #14, #9, #231 ) ) ;
#194 = CALENDAR_DATE ( 2021, 3, 9 ) ;
#195 = PRODUCT_DEFINITION ( 'UNKNOWN', '', #50, #82 ) ;
#196 = EDGE_CURVE ( 'NONE', #200, #154, #240, .T. ) ;
#197 = ORIENTED_EDGE ( 'NONE', *, *, #213, .F. ) ;
#198 = AXIS2_PLACEMENT_3D ( 'NONE', #279, #281, #60 ) ;
#199 = DIRECTION ( 'NONE',  ( -2.468850131082257455E-15, 0.7071067811865497932, -0.7071067811865453523 ) ) ;
#200 = VERTEX_POINT ( 'NONE', #290 ) ;
#201 = CARTESIAN_POINT ( 'NONE',  ( 0.0000000000000000000, 0.0000000000000000000, 0.0000000000000000000 ) ) ;
#202 = DIRECTION ( 'NONE',  ( 1.903218546456021928E-15, 0.8571673007021098911, 0.5150380749100583744 ) ) ;
#203 = CARTESIAN_POINT ( 'NONE',  ( 1.920314736363723472E-13, 1.549999999999993161, 55.00000000000000000 ) ) ;
#204 = UNCERTAINTY_MEASURE_WITH_UNIT (LENGTH_MEASURE( 1.000000000000000082E-05 ), #129, 'distance_accuracy_value', 'NONE');
#205 = LOCAL_TIME ( 9, 50, 38.00000000000000000, #181 ) ;
#206 = ORIENTED_EDGE ( 'NONE', *, *, #18, .T. ) ;
#207 = LINE ( 'NONE', #215, #304 ) ;
#208 = APPROVAL_PERSON_ORGANIZATION ( #318, #258, #287 ) ;
#209 = EDGE_CURVE ( 'NONE', #200, #295, #169, .T. ) ;
#210 = DATE_TIME_ROLE ( 'creation_date' ) ;
#211 = VECTOR ( 'NONE', #199, 1000.000000000000114 ) ;
#212 = CC_DESIGN_APPROVAL ( #136, ( #152 ) ) ;
#213 = EDGE_CURVE ( 'NONE', #220, #151, #207, .T. ) ;
#214 = DIRECTION ( 'NONE',  ( -3.491481338843133355E-15, 1.224646799147353207E-16, -1.000000000000000000 ) ) ;
#215 = CARTESIAN_POINT ( 'NONE',  ( 4.090892595231926709E-15, -1.949999999999993516, 1.171678207103751035 ) ) ;
#216 = DIRECTION ( 'NONE',  ( 1.000000000000000000, 0.0000000000000000000, 0.0000000000000000000 ) ) ;
#217 = ORIENTED_EDGE ( 'NONE', *, *, #75, .T. ) ;
#218 = CYLINDRICAL_SURFACE ( 'NONE', #100, 1.949999999999994182 ) ;
#219 = PERSON_AND_ORGANIZATION_ROLE ( 'design_owner' ) ;
#220 = VERTEX_POINT ( 'NONE', #92 ) ;
#221 = AXIS2_PLACEMENT_3D ( 'NONE', #187, #242, #16 ) ;
#222 = ORIENTED_EDGE ( 'NONE', *, *, #18, .F. ) ;
#223 = APPROVAL_ROLE ( '' ) ;
#224 = CARTESIAN_POINT ( 'NONE',  ( 5.935518276033326704E-14, 1.949999999999993294, 17.00000000000000000 ) ) ;
#225 = DIRECTION ( 'NONE',  ( -3.491481338843133355E-15, 1.224646799147353207E-16, -1.000000000000000000 ) ) ;
#226 = DIRECTION ( 'NONE',  ( 3.491481338843133355E-15, -1.224646799147353207E-16, 1.000000000000000000 ) ) ;
#227 = LOCAL_TIME ( 9, 50, 38.00000000000000000, #261 ) ;
#228 = DIRECTION ( 'NONE',  ( 0.0000000000000000000, 1.000000000000000000, 0.0000000000000000000 ) ) ;
#229 = EDGE_CURVE ( 'NONE', #54, #331, #134, .T. ) ;
#230 = DIRECTION ( 'NONE',  ( 3.491481338843133355E-15, -1.224646799147353207E-16, 1.000000000000000000 ) ) ;
#231 = ORIENTED_EDGE ( 'NONE', *, *, #271, .F. ) ;
#232 = APPROVAL_PERSON_ORGANIZATION ( #264, #136, #223 ) ;
#233 = ADVANCED_FACE ( 'NONE', ( #99 ), #144, .T. ) ;
#234 = FACE_OUTER_BOUND ( 'NONE', #102, .T. ) ;
#235 = CIRCLE ( 'NONE', #127, 1.949999999999993516 ) ;
#236 = CC_DESIGN_SECURITY_CLASSIFICATION ( #152, ( #50 ) ) ;
#237 = EDGE_CURVE ( 'NONE', #69, #54, #330, .T. ) ;
#238 = COORDINATED_UNIVERSAL_TIME_OFFSET ( 1, 0, .AHEAD. ) ;
#239 = PERSON_AND_ORGANIZATION ( #185, #312 ) ;
#240 = LINE ( 'NONE', #115, #272 ) ;
#241 = VECTOR ( 'NONE', #202, 1000.000000000000114 ) ;
#242 = DIRECTION ( 'NONE',  ( -3.491481338843133355E-15, 1.224646799147353207E-16, -1.000000000000000000 ) ) ;
#243 = EDGE_CURVE ( 'NONE', #280, #277, #26, .T. ) ;
#244 = DIRECTION ( 'NONE',  ( -3.950625526948189224E-31, -1.000000000000000000, -1.112002228190264649E-16 ) ) ;
#245 = APPLICATION_CONTEXT ( 'configuration controlled 3d designs of mechanical parts and assemblies' ) ;
#246 = DATE_AND_TIME ( #194, #135 ) ;
#247 = ORIENTED_EDGE ( 'NONE', *, *, #141, .F. ) ;
#248 = ORIENTED_EDGE ( 'NONE', *, *, #149, .T. ) ;
#249 = DIRECTION ( 'NONE',  ( 0.0000000000000000000, 1.000000000000000000, 0.0000000000000000000 ) ) ;
#250 = FACE_OUTER_BOUND ( 'NONE', #190, .T. ) ;
#251 = CARTESIAN_POINT ( 'NONE',  ( 4.329698721065660721E-15, 1.949999999999993294, 1.171678207103751479 ) ) ;
#252 = ORIENTED_EDGE ( 'NONE', *, *, #243, .T. ) ;
#253 = CARTESIAN_POINT ( 'NONE',  ( 5.935518276033326704E-14, -2.081899558550500280E-15, 17.00000000000000000 ) ) ;
#254 = CC_DESIGN_APPROVAL ( #258, ( #50 ) ) ;
#255 =( NAMED_UNIT ( * ) PLANE_ANGLE_UNIT ( ) SI_UNIT ( $, .RADIAN. ) );
#256 = DIRECTION ( 'NONE',  ( 0.0000000000000000000, 1.000000000000000000, 0.0000000000000000000 ) ) ;
#257 = EDGE_LOOP ( 'NONE', ( #247, #38 ) ) ;
#258 = APPROVAL ( #27, 'UNSPECIFIED' ) ;
#259 = CARTESIAN_POINT ( 'NONE',  ( 0.0000000000000000000, 0.0000000000000000000, 0.0000000000000000000 ) ) ;
#260 = CONICAL_SURFACE ( 'NONE', #198, 1.550000000000000044, 0.7853981633974512766 ) ;
#261 = COORDINATED_UNIVERSAL_TIME_OFFSET ( 1, 0, .AHEAD. ) ;
#262 = DIRECTION ( 'NONE',  ( -3.491481338843133355E-15, 1.224646799147353207E-16, -1.000000000000000000 ) ) ;
#263 = LINE ( 'NONE', #33, #314 ) ;
#264 = PERSON_AND_ORGANIZATION ( #185, #312 ) ;
#265 = ADVANCED_FACE ( 'NONE', ( #101 ), #95, .T. ) ;
#266 = ORIENTED_EDGE ( 'NONE', *, *, #80, .F. ) ;
#267 = AXIS2_PLACEMENT_3D ( 'NONE', #259, #116, #294 ) ;
#268 = ORIENTED_EDGE ( 'NONE', *, *, #66, .F. ) ;
#269 = DIRECTION ( 'NONE',  ( -3.491481338843133355E-15, 1.224646799147353207E-16, -1.000000000000000000 ) ) ;
#270 = PERSON_AND_ORGANIZATION ( #185, #312 ) ;
#271 = EDGE_CURVE ( 'NONE', #154, #301, #139, .T. ) ;
#272 = VECTOR ( 'NONE', #186, 1000.000000000000114 ) ;
#273 = PLANE ( 'NONE',  #90 ) ;
#274 = DIRECTION ( 'NONE',  ( -3.491481338843133355E-15, 1.224646799147353207E-16, -1.000000000000000000 ) ) ;
#275 = CARTESIAN_POINT ( 'NONE',  ( 1.920314736363723472E-13, 1.162313831562929656E-32, 55.00000000000000000 ) ) ;
#276 = CARTESIAN_POINT ( 'NONE',  ( 1.252338380564178837E-13, -1.949999999999997513, 17.00000000000000000 ) ) ;
#277 = VERTEX_POINT ( 'NONE', #276 ) ;
#278 = VECTOR ( 'NONE', #63, 1000.000000000000000 ) ;
#279 = CARTESIAN_POINT ( 'NONE',  ( 1.920314736363723472E-13, -6.735557395310442615E-15, 55.00000000000000000 ) ) ;
#280 = VERTEX_POINT ( 'NONE', #224 ) ;
#281 = DIRECTION ( 'NONE',  ( -3.491481338843133355E-15, 1.224646799147353207E-16, -1.000000000000000000 ) ) ;
#282 = EDGE_LOOP ( 'NONE', ( #266, #40 ) ) ;
#283 = CIRCLE ( 'NONE', #28, 1.949999999999995293 ) ;
#284 = AXIS2_PLACEMENT_3D ( 'NONE', #253, #131, #228 ) ;
#285 = DATE_AND_TIME ( #86, #205 ) ;
#286 = LINE ( 'NONE', #29, #241 ) ;
#287 = APPROVAL_ROLE ( '' ) ;
#288 = CC_DESIGN_PERSON_AND_ORGANIZATION_ASSIGNMENT ( #2, #4, ( #50 ) ) ;
#289 = DATE_TIME_ROLE ( 'classification_date' ) ;
#290 = CARTESIAN_POINT ( 'NONE',  ( 1.915474905584544881E-13, -1.550000000000006706, 55.00000000000000000 ) ) ;
#291 = DIRECTION ( 'NONE',  ( -3.491481338843133355E-15, 1.224646799147353207E-16, -1.000000000000000000 ) ) ;
#292 = EDGE_LOOP ( 'NONE', ( #197, #217, #206 ) ) ;
#293 = ADVANCED_BREP_SHAPE_REPRESENTATION ( '54565', ( #71, #297, #112 ), #175 ) ;
#294 = DIRECTION ( 'NONE',  ( 4.275831445896958607E-31, 1.000000000000000000, 1.224646799147353207E-16 ) ) ;
#295 = VERTEX_POINT ( 'NONE', #203 ) ;
#296 = ORIENTED_EDGE ( 'NONE', *, *, #229, .T. ) ;
#297 = MANIFOLD_SOLID_BREP ( 'Corps-Déplacer/Copier1[2]', #316 ) ;
#298 = CARTESIAN_POINT ( 'NONE',  ( 1.920314736363723472E-13, -6.735557395310442615E-15, 55.00000000000000000 ) ) ;
#299 = ADVANCED_FACE ( 'NONE', ( #310 ), #337, .T. ) ;
#300 = APPROVAL_DATE_TIME ( #246, #138 ) ;
#301 = VERTEX_POINT ( 'NONE', #23 ) ;
#302 = CARTESIAN_POINT ( 'NONE',  ( 5.935518276033326704E-14, -2.081899558550500280E-15, 17.00000000000000000 ) ) ;
#303 = ORIENTED_EDGE ( 'NONE', *, *, #1, .T. ) ;
#304 = VECTOR ( 'NONE', #31, 1000.000000000000000 ) ;
#305 = DIRECTION ( 'NONE',  ( 4.275831445896958607E-31, 1.000000000000000000, 1.224646799147353207E-16 ) ) ;
#306 = ADVANCED_FACE ( 'NONE', ( #159 ), #273, .F. ) ;
#307 = CARTESIAN_POINT ( 'NONE',  ( 4.090892595231927498E-15, -1.434891965960318514E-16, 1.171678207103751257 ) ) ;
#308 = PRODUCT ( '54565', '54565', '', ( #191 ) ) ;
#309 = DIRECTION ( 'NONE',  ( 3.491481338843133355E-15, -1.224646799147353207E-16, 1.000000000000000000 ) ) ;
#310 = FACE_OUTER_BOUND ( 'NONE', #192, .T. ) ;
#311 = CARTESIAN_POINT ( 'NONE',  ( 5.935518276033326704E-14, -2.081899558550500280E-15, 17.00000000000000000 ) ) ;
#312 = ORGANIZATION ( 'UNSPECIFIED', 'UNSPECIFIED', '' ) ;
#313 = AXIS2_PLACEMENT_3D ( 'NONE', #327, #106, #45 ) ;
#314 = VECTOR ( 'NONE', #142, 1000.000000000000000 ) ;
#315 = CC_DESIGN_DATE_AND_TIME_ASSIGNMENT ( #285, #210, ( #195 ) ) ;
#316 = CLOSED_SHELL ( 'NONE', ( #133, #126, #299, #137, #55 ) ) ;
#317 = CALENDAR_DATE ( 2021, 3, 9 ) ;
#318 = PERSON_AND_ORGANIZATION ( #185, #312 ) ;
#319 = FACE_OUTER_BOUND ( 'NONE', #292, .T. ) ;
#320 = ORIENTED_EDGE ( 'NONE', *, *, #149, .F. ) ;
#321 = VECTOR ( 'NONE', #214, 1000.000000000000000 ) ;
#322 = AXIS2_PLACEMENT_3D ( 'NONE', #333, #8, #107 ) ;
#323 = COORDINATED_UNIVERSAL_TIME_OFFSET ( 1, 0, .AHEAD. ) ;
#324 = CARTESIAN_POINT ( 'NONE',  ( 5.935518276033326704E-14, 1.462265788095304599E-32, 17.00000000000000000 ) ) ;
#325 = CARTESIAN_POINT ( 'NONE',  ( 0.0000000000000000000, 0.0000000000000000000, 0.0000000000000000000 ) ) ;
#326 = EDGE_LOOP ( 'NONE', ( #164, #24, #222, #53 ) ) ;
#327 = CARTESIAN_POINT ( 'NONE',  ( 1.906348811008350938E-13, -6.686571523344548398E-15, 54.60000000000000142 ) ) ;
#328 = DIRECTION ( 'NONE',  ( -4.275831445896958607E-31, -1.000000000000000000, -1.224646799147353207E-16 ) ) ;
#329 = AXIS2_PLACEMENT_3D ( 'NONE', #125, #225, #130 ) ;
#330 = CIRCLE ( 'NONE', #180, 1.949999999999995293 ) ;
#331 = VERTEX_POINT ( 'NONE', #251 ) ;
#332 = CARTESIAN_POINT ( 'NONE',  ( 5.935518276033326704E-14, 1.949999999999993294, 17.00000000000000000 ) ) ;
#333 = CARTESIAN_POINT ( 'NONE',  ( 0.0000000000000000000, 0.0000000000000000000, 0.0000000000000000000 ) ) ;
#334 = APPLICATION_CONTEXT ( 'configuration controlled 3d designs of mechanical parts and assemblies' ) ;
#335 = ORIENTED_EDGE ( 'NONE', *, *, #271, .T. ) ;
#336 = ORIENTED_EDGE ( 'NONE', *, *, #237, .T. ) ;
#337 = CONICAL_SURFACE ( 'NONE', #36, 1.949999999999993516, 1.029744258676649871 ) ;
ENDSEC;
END-ISO-10303-21;
