ISO-10303-21;
HEADER;
FILE_DESCRIPTION (( 'STEP AP203' ),
    '1' );
FILE_NAME ('54563.step',
    '2021-09-03T07:50:34',
    ( '' ),
    ( '' ),
    'SwSTEP 2.0',
    'SolidWorks 2019',
    '' );
FILE_SCHEMA (( 'CONFIG_CONTROL_DESIGN' ));
ENDSEC;

DATA;
#1 = DIRECTION ( 'NONE',  ( -4.275831445896958607E-31, -1.000000000000000000, -1.224646799147353207E-16 ) ) ;
#2 = LINE ( 'NONE', #258, #149 ) ;
#3 = CC_DESIGN_PERSON_AND_ORGANIZATION_ASSIGNMENT ( #218, #135, ( #7 ) ) ;
#4 = CONICAL_SURFACE ( 'NONE', #253, 1.924999999999993605, 1.029744258676649871 ) ;
#5 = AXIS2_PLACEMENT_3D ( 'NONE', #125, #332, #99 ) ;
#6 = VERTEX_POINT ( 'NONE', #247 ) ;
#7 = PRODUCT ( '54563', '54563', '', ( #222 ) ) ;
#8 = EDGE_CURVE ( 'NONE', #46, #242, #315, .T. ) ;
#9 = AXIS2_PLACEMENT_3D ( 'NONE', #32, #189, #256 ) ;
#10 = CIRCLE ( 'NONE', #201, 1.924999999999995604 ) ;
#11 = PERSON_AND_ORGANIZATION ( #234, #156 ) ;
#12 = CARTESIAN_POINT ( 'NONE',  ( 1.920314736363723472E-13, 1.524999999999993472, 55.00000000000000000 ) ) ;
#13 = ADVANCED_FACE ( 'NONE', ( #76 ), #180, .F. ) ;
#14 = CONICAL_SURFACE ( 'NONE', #336, 1.525000000000000133, 0.7853981633974512766 ) ;
#15 = PERSON_AND_ORGANIZATION ( #234, #156 ) ;
#16 = COORDINATED_UNIVERSAL_TIME_OFFSET ( 1, 0, .AHEAD. ) ;
#17 = CALENDAR_DATE ( 2021, 3, 9 ) ;
#18 = CARTESIAN_POINT ( 'NONE',  ( 1.920314736363723472E-13, -6.735557395310442615E-15, 55.00000000000000000 ) ) ;
#19 = VECTOR ( 'NONE', #173, 1000.000000000000114 ) ;
#20 = CARTESIAN_POINT ( 'NONE',  ( 4.274189763103281163E-15, 1.924999999999993383, 1.156656691628062283 ) ) ;
#21 = DIRECTION ( 'NONE',  ( 0.0000000000000000000, 1.000000000000000000, 0.0000000000000000000 ) ) ;
#22 = APPROVAL ( #53, 'UNSPECIFIED' ) ;
#23 = CIRCLE ( 'NONE', #86, 1.925000000000000044 ) ;
#24 = AXIS2_PLACEMENT_3D ( 'NONE', #126, #269, #146 ) ;
#25 = ADVANCED_FACE ( 'NONE', ( #311 ), #106, .T. ) ;
#26 = APPROVAL_ROLE ( '' ) ;
#27 = ORIENTED_EDGE ( 'NONE', *, *, #192, .F. ) ;
#28 = LINE ( 'NONE', #333, #167 ) ;
#29 = AXIS2_PLACEMENT_3D ( 'NONE', #117, #119, #84 ) ;
#30 = VERTEX_POINT ( 'NONE', #238 ) ;
#31 = COORDINATED_UNIVERSAL_TIME_OFFSET ( 1, 0, .AHEAD. ) ;
#32 = CARTESIAN_POINT ( 'NONE',  ( 5.935518276033326704E-14, -2.081899558550500280E-15, 17.00000000000000000 ) ) ;
#33 = CLOSED_SHELL ( 'NONE', ( #277, #25, #13, #63, #153, #130 ) ) ;
#34 = CC_DESIGN_APPROVAL ( #22, ( #329 ) ) ;
#35 = APPROVAL_STATUS ( 'not_yet_approved' ) ;
#36 = EDGE_CURVE ( 'NONE', #95, #6, #178, .T. ) ;
#37 = CARTESIAN_POINT ( 'NONE',  ( 3.193255851613617450E-14, -1.924999999999997824, 17.00000000000000000 ) ) ;
#38 = ORIENTED_EDGE ( 'NONE', *, *, #81, .F. ) ;
#39 = LINE ( 'NONE', #243, #297 ) ;
#40 = AXIS2_PLACEMENT_3D ( 'NONE', #211, #77, #166 ) ;
#41 = EDGE_LOOP ( 'NONE', ( #215, #154, #138, #27 ) ) ;
#42 = PERSON_AND_ORGANIZATION ( #234, #156 ) ;
#43 = PERSON_AND_ORGANIZATION_ROLE ( 'classification_officer' ) ;
#44 = CARTESIAN_POINT ( 'NONE',  ( 5.935518276033326704E-14, 1.924999999999993383, 17.00000000000000000 ) ) ;
#45 = APPROVAL_DATE_TIME ( #271, #22 ) ;
#46 = VERTEX_POINT ( 'NONE', #217 ) ;
#47 = CC_DESIGN_PERSON_AND_ORGANIZATION_ASSIGNMENT ( #61, #43, ( #329 ) ) ;
#48 =( NAMED_UNIT ( * ) SI_UNIT ( $, .STERADIAN. ) SOLID_ANGLE_UNIT ( ) );
#49 = AXIS2_PLACEMENT_3D ( 'NONE', #96, #302, #68 ) ;
#50 = CONICAL_SURFACE ( 'NONE', #83, 1.924999999999993605, 1.029744258676649871 ) ;
#51 = APPROVAL ( #35, 'UNSPECIFIED' ) ;
#52 = EDGE_LOOP ( 'NONE', ( #310, #251, #112, #187 ) ) ;
#53 = APPROVAL_STATUS ( 'not_yet_approved' ) ;
#54 = PERSON_AND_ORGANIZATION ( #234, #156 ) ;
#55 = LINE ( 'NONE', #219, #225 ) ;
#56 = PERSON_AND_ORGANIZATION ( #234, #156 ) ;
#57 = APPROVAL ( #294, 'UNSPECIFIED' ) ;
#58 = DIRECTION ( 'NONE',  ( -4.001932351973490746E-31, -1.000000000000000000, -1.126443815569359098E-16 ) ) ;
#59 = ORIENTED_EDGE ( 'NONE', *, *, #171, .T. ) ;
#60 = ORIENTED_EDGE ( 'NONE', *, *, #281, .T. ) ;
#61 = PERSON_AND_ORGANIZATION ( #234, #156 ) ;
#62 = VECTOR ( 'NONE', #285, 1000.000000000000000 ) ;
#63 = ADVANCED_FACE ( 'NONE', ( #314 ), #196, .T. ) ;
#64 = ORIENTED_EDGE ( 'NONE', *, *, #132, .F. ) ;
#65 = UNCERTAINTY_MEASURE_WITH_UNIT (LENGTH_MEASURE( 1.000000000000000082E-05 ), #296, 'distance_accuracy_value', 'NONE');
#66 = DIRECTION ( 'NONE',  ( 3.491481338843133355E-15, -1.224646799147353207E-16, 1.000000000000000000 ) ) ;
#67 = ORIENTED_EDGE ( 'NONE', *, *, #321, .T. ) ;
#68 = DIRECTION ( 'NONE',  ( 0.0000000000000000000, 1.000000000000000000, 0.0000000000000000000 ) ) ;
#69 = DIRECTION ( 'NONE',  ( 3.491481338843133355E-15, -1.224646799147353207E-16, 1.000000000000000000 ) ) ;
#70 = ORIENTED_EDGE ( 'NONE', *, *, #171, .F. ) ;
#71 = CARTESIAN_POINT ( 'NONE',  ( 5.935518276033326704E-14, -2.081899558550500280E-15, 17.00000000000000000 ) ) ;
#72 = EDGE_CURVE ( 'NONE', #46, #121, #28, .T. ) ;
#73 = DATE_AND_TIME ( #326, #185 ) ;
#74 = DIRECTION ( 'NONE',  ( -3.491481338843133355E-15, 1.224646799147353207E-16, -1.000000000000000000 ) ) ;
#75 = AXIS2_PLACEMENT_3D ( 'NONE', #275, #110, #1 ) ;
#76 = FACE_OUTER_BOUND ( 'NONE', #303, .T. ) ;
#77 = DIRECTION ( 'NONE',  ( -3.491481338843133355E-15, 1.224646799147353207E-16, -1.000000000000000000 ) ) ;
#78 = CIRCLE ( 'NONE', #94, 1.525000000000000133 ) ;
#79 = ORIENTED_EDGE ( 'NONE', *, *, #36, .F. ) ;
#80 = ORIENTED_EDGE ( 'NONE', *, *, #255, .F. ) ;
#81 = EDGE_CURVE ( 'NONE', #250, #121, #128, .T. ) ;
#82 = CARTESIAN_POINT ( 'NONE',  ( 4.038445254267415687E-15, -1.416495915114673493E-16, 1.156656691628062061 ) ) ;
#83 = AXIS2_PLACEMENT_3D ( 'NONE', #223, #66, #174 ) ;
#84 = DIRECTION ( 'NONE',  ( 4.275831445896958607E-31, 1.000000000000000000, 1.224646799147352961E-16 ) ) ;
#85 = DIRECTION ( 'NONE',  ( 0.0000000000000000000, 1.000000000000000000, 0.0000000000000000000 ) ) ;
#86 = AXIS2_PLACEMENT_3D ( 'NONE', #101, #152, #21 ) ;
#87 = CONICAL_SURFACE ( 'NONE', #279, 1.525000000000000133, 0.7853981633974512766 ) ;
#88 = CARTESIAN_POINT ( 'NONE',  ( 0.0000000000000000000, 0.0000000000000000000, 0.0000000000000000000 ) ) ;
#89 = DATE_AND_TIME ( #142, #267 ) ;
#90 = EDGE_CURVE ( 'NONE', #121, #250, #23, .T. ) ;
#91 = VERTEX_POINT ( 'NONE', #131 ) ;
#92 = COORDINATED_UNIVERSAL_TIME_OFFSET ( 1, 0, .AHEAD. ) ;
#93 = AXIS2_PLACEMENT_3D ( 'NONE', #205, #148, #304 ) ;
#94 = AXIS2_PLACEMENT_3D ( 'NONE', #18, #305, #202 ) ;
#95 = VERTEX_POINT ( 'NONE', #229 ) ;
#96 = CARTESIAN_POINT ( 'NONE',  ( 5.935518276033326704E-14, -2.081899558550500280E-15, 17.00000000000000000 ) ) ;
#97 = PLANE ( 'NONE',  #320 ) ;
#98 = EDGE_CURVE ( 'NONE', #242, #250, #182, .T. ) ;
#99 = DIRECTION ( 'NONE',  ( 0.0000000000000000000, 1.000000000000000000, 0.0000000000000000000 ) ) ;
#100 = CARTESIAN_POINT ( 'NONE',  ( 5.935518276033326704E-14, 1.443518790812031242E-32, 17.00000000000000000 ) ) ;
#101 = CARTESIAN_POINT ( 'NONE',  ( 1.906348811008350938E-13, -6.686571523344548398E-15, 54.60000000000000142 ) ) ;
#102 = DIRECTION ( 'NONE',  ( -3.491481338843133355E-15, 1.224646799147353207E-16, -1.000000000000000000 ) ) ;
#103 = DESIGN_CONTEXT ( 'detailed design', #169, 'design' ) ;
#104 = CARTESIAN_POINT ( 'NONE',  ( 1.920314736363723472E-13, 1.524999999999993472, 55.00000000000000000 ) ) ;
#105 = ORIENTED_EDGE ( 'NONE', *, *, #72, .T. ) ;
#106 = CYLINDRICAL_SURFACE ( 'NONE', #40, 1.924999999999997824 ) ;
#107 = ORIENTED_EDGE ( 'NONE', *, *, #220, .T. ) ;
#108 =( GEOMETRIC_REPRESENTATION_CONTEXT ( 3 ) GLOBAL_UNCERTAINTY_ASSIGNED_CONTEXT ( ( #65 ) ) GLOBAL_UNIT_ASSIGNED_CONTEXT ( ( #296, #273, #48 ) ) REPRESENTATION_CONTEXT ( 'NONE', 'WORKASPACE' ) );
#109 = SHAPE_DEFINITION_REPRESENTATION ( #184, #183 ) ;
#110 = DIRECTION ( 'NONE',  ( 3.491481338843133355E-15, -1.224646799147353207E-16, 1.000000000000000000 ) ) ;
#111 = CC_DESIGN_PERSON_AND_ORGANIZATION_ASSIGNMENT ( #11, #319, ( #232 ) ) ;
#112 = ORIENTED_EDGE ( 'NONE', *, *, #255, .T. ) ;
#113 = EDGE_LOOP ( 'NONE', ( #70, #213 ) ) ;
#114 = LOCAL_TIME ( 9, 50, 34.00000000000000000, #31 ) ;
#115 = PRODUCT_DEFINITION ( 'UNKNOWN', '', #232, #103 ) ;
#116 = DIRECTION ( 'NONE',  ( 1.000000000000000000, 0.0000000000000000000, 0.0000000000000000000 ) ) ;
#117 = CARTESIAN_POINT ( 'NONE',  ( 0.0000000000000000000, 0.0000000000000000000, 0.0000000000000000000 ) ) ;
#118 = AXIS2_PLACEMENT_3D ( 'NONE', #127, #102, #208 ) ;
#119 = DIRECTION ( 'NONE',  ( -3.491481338843133355E-15, 1.224646799147353207E-16, -1.000000000000000000 ) ) ;
#120 = CALENDAR_DATE ( 2021, 3, 9 ) ;
#121 = VERTEX_POINT ( 'NONE', #207 ) ;
#122 = PERSON_AND_ORGANIZATION_ROLE ( 'creator' ) ;
#123 = APPROVAL_DATE_TIME ( #325, #57 ) ;
#124 = CC_DESIGN_DATE_AND_TIME_ASSIGNMENT ( #89, #224, ( #115 ) ) ;
#125 = CARTESIAN_POINT ( 'NONE',  ( 5.935518276033326704E-14, -2.081899558550500280E-15, 17.00000000000000000 ) ) ;
#126 = CARTESIAN_POINT ( 'NONE',  ( 0.0000000000000000000, 0.0000000000000000000, 0.0000000000000000000 ) ) ;
#127 = CARTESIAN_POINT ( 'NONE',  ( 1.920314736363723472E-13, -6.735557395310442615E-15, 55.00000000000000000 ) ) ;
#128 = CIRCLE ( 'NONE', #235, 1.925000000000000044 ) ;
#129 = CC_DESIGN_SECURITY_CLASSIFICATION ( #329, ( #232 ) ) ;
#130 = ADVANCED_FACE ( 'NONE', ( #337 ), #274, .F. ) ;
#131 = CARTESIAN_POINT ( 'NONE',  ( 4.038445254267414899E-15, -1.924999999999993827, 1.156656691628061839 ) ) ;
#132 = EDGE_CURVE ( 'NONE', #30, #91, #306, .T. ) ;
#133 = ORIENTED_EDGE ( 'NONE', *, *, #8, .T. ) ;
#134 = DIRECTION ( 'NONE',  ( -3.491481338843133355E-15, 1.224646799147353207E-16, -1.000000000000000000 ) ) ;
#135 = PERSON_AND_ORGANIZATION_ROLE ( 'design_owner' ) ;
#136 = EDGE_CURVE ( 'NONE', #250, #95, #2, .T. ) ;
#137 = APPROVAL_ROLE ( '' ) ;
#138 = ORIENTED_EDGE ( 'NONE', *, *, #136, .T. ) ;
#139 = DIRECTION ( 'NONE',  ( 0.0000000000000000000, 0.0000000000000000000, 1.000000000000000000 ) ) ;
#140 = DIRECTION ( 'NONE',  ( -3.491481338843133355E-15, 1.224646799147353207E-16, -1.000000000000000000 ) ) ;
#141 = ADVANCED_FACE ( 'NONE', ( #237 ), #4, .T. ) ;
#142 = CALENDAR_DATE ( 2021, 3, 9 ) ;
#143 = CC_DESIGN_APPROVAL ( #57, ( #232 ) ) ;
#144 = ORIENTED_EDGE ( 'NONE', *, *, #192, .T. ) ;
#145 = PERSON_AND_ORGANIZATION ( #234, #156 ) ;
#146 = DIRECTION ( 'NONE',  ( 4.275831445896958607E-31, 1.000000000000000000, 1.224646799147352961E-16 ) ) ;
#147 = EDGE_CURVE ( 'NONE', #293, #30, #298, .T. ) ;
#148 = DIRECTION ( 'NONE',  ( -3.491481338843133355E-15, 1.224646799147353207E-16, -1.000000000000000000 ) ) ;
#149 = VECTOR ( 'NONE', #134, 1000.000000000000000 ) ;
#150 = LOCAL_TIME ( 9, 50, 34.00000000000000000, #92 ) ;
#151 = ORIENTED_EDGE ( 'NONE', *, *, #147, .T. ) ;
#152 = DIRECTION ( 'NONE',  ( -3.491481338843133355E-15, 1.224646799147353207E-16, -1.000000000000000000 ) ) ;
#153 = ADVANCED_FACE ( 'NONE', ( #270 ), #14, .T. ) ;
#154 = ORIENTED_EDGE ( 'NONE', *, *, #90, .T. ) ;
#155 = CLOSED_SHELL ( 'NONE', ( #308, #301, #141, #248, #317 ) ) ;
#156 = ORGANIZATION ( 'UNSPECIFIED', 'UNSPECIFIED', '' ) ;
#157 = ORIENTED_EDGE ( 'NONE', *, *, #8, .F. ) ;
#158 = CC_DESIGN_PERSON_AND_ORGANIZATION_ASSIGNMENT ( #15, #299, ( #232 ) ) ;
#159 = DIRECTION ( 'NONE',  ( -3.491481338843133355E-15, 1.224646799147353207E-16, -1.000000000000000000 ) ) ;
#160 = APPLICATION_CONTEXT ( 'configuration controlled 3d designs of mechanical parts and assemblies' ) ;
#161 = CARTESIAN_POINT ( 'NONE',  ( 4.038445254267415687E-15, -1.416495915114673493E-16, 1.156656691628062061 ) ) ;
#162 = AXIS2_PLACEMENT_3D ( 'NONE', #161, #159, #263 ) ;
#163 = APPROVAL_PERSON_ORGANIZATION ( #54, #22, #26 ) ;
#164 = CARTESIAN_POINT ( 'NONE',  ( 1.906348811008350938E-13, 1.924999999999993383, 54.60000000000000142 ) ) ;
#165 = CC_DESIGN_PERSON_AND_ORGANIZATION_ASSIGNMENT ( #42, #122, ( #115 ) ) ;
#166 = DIRECTION ( 'NONE',  ( 4.275831445896958607E-31, 1.000000000000000000, 1.224646799147353207E-16 ) ) ;
#167 = VECTOR ( 'NONE', #231, 1000.000000000000114 ) ;
#168 = APPROVAL_PERSON_ORGANIZATION ( #56, #51, #137 ) ;
#169 = APPLICATION_CONTEXT ( 'configuration controlled 3d designs of mechanical parts and assemblies' ) ;
#170 = ORIENTED_EDGE ( 'NONE', *, *, #136, .F. ) ;
#171 = EDGE_CURVE ( 'NONE', #181, #260, #212, .T. ) ;
#172 = DATE_AND_TIME ( #17, #150 ) ;
#173 = DIRECTION ( 'NONE',  ( 1.903218546456021928E-15, 0.8571673007021098911, 0.5150380749100583744 ) ) ;
#174 = DIRECTION ( 'NONE',  ( -4.001932351973490746E-31, -1.000000000000000000, -1.126443815569359098E-16 ) ) ;
#175 = EDGE_LOOP ( 'NONE', ( #244, #151, #200 ) ) ;
#176 = DIRECTION ( 'NONE',  ( -4.275831445896958607E-31, -1.000000000000000000, -1.224646799147353207E-16 ) ) ;
#177 = ORIENTED_EDGE ( 'NONE', *, *, #81, .T. ) ;
#178 = CIRCLE ( 'NONE', #9, 1.924999999999995604 ) ;
#179 = CARTESIAN_POINT ( 'NONE',  ( 0.0000000000000000000, 0.0000000000000000000, 0.0000000000000000000 ) ) ;
#180 = PLANE ( 'NONE',  #75 ) ;
#181 = VERTEX_POINT ( 'NONE', #44 ) ;
#182 = LINE ( 'NONE', #104, #221 ) ;
#183 = ADVANCED_BREP_SHAPE_REPRESENTATION ( '54563', ( #284, #286, #309 ), #108 ) ;
#184 = PRODUCT_DEFINITION_SHAPE ( 'NONE', 'NONE',  #115 ) ;
#185 = LOCAL_TIME ( 9, 50, 34.00000000000000000, #245 ) ;
#186 = EDGE_CURVE ( 'NONE', #91, #30, #239, .T. ) ;
#187 = ORIENTED_EDGE ( 'NONE', *, *, #186, .F. ) ;
#188 = EDGE_LOOP ( 'NONE', ( #216, #107, #276 ) ) ;
#189 = DIRECTION ( 'NONE',  ( -3.491481338843133355E-15, 1.224646799147353207E-16, -1.000000000000000000 ) ) ;
#190 = ORIENTED_EDGE ( 'NONE', *, *, #36, .T. ) ;
#191 = DIRECTION ( 'NONE',  ( -3.491481338843133355E-15, 1.224646799147353207E-16, -1.000000000000000000 ) ) ;
#192 = EDGE_CURVE ( 'NONE', #6, #95, #278, .T. ) ;
#193 = CYLINDRICAL_SURFACE ( 'NONE', #29, 1.924999999999994493 ) ;
#194 = LINE ( 'NONE', #287, #62 ) ;
#195 = EDGE_LOOP ( 'NONE', ( #312, #133, #300, #203 ) ) ;
#196 = CYLINDRICAL_SURFACE ( 'NONE', #328, 1.924999999999997824 ) ;
#197 = FACE_OUTER_BOUND ( 'NONE', #233, .T. ) ;
#198 = SECURITY_CLASSIFICATION_LEVEL ( 'unclassified' ) ;
#199 = CARTESIAN_POINT ( 'NONE',  ( 2.357445088358639966E-16, -1.924999999999994493, -2.357445088358656237E-16 ) ) ;
#200 = ORIENTED_EDGE ( 'NONE', *, *, #132, .T. ) ;
#201 = AXIS2_PLACEMENT_3D ( 'NONE', #71, #241, #85 ) ;
#202 = DIRECTION ( 'NONE',  ( 0.0000000000000000000, 1.000000000000000000, 0.0000000000000000000 ) ) ;
#203 = ORIENTED_EDGE ( 'NONE', *, *, #90, .F. ) ;
#204 = DIRECTION ( 'NONE',  ( 0.0000000000000000000, 1.000000000000000000, 0.0000000000000000000 ) ) ;
#205 = CARTESIAN_POINT ( 'NONE',  ( 4.038445254267415687E-15, -1.416495915114673493E-16, 1.156656691628062061 ) ) ;
#206 = FACE_OUTER_BOUND ( 'NONE', #113, .T. ) ;
#207 = CARTESIAN_POINT ( 'NONE',  ( 1.252307764394198834E-13, -1.925000000000006928, 54.60000000000000142 ) ) ;
#208 = DIRECTION ( 'NONE',  ( 0.0000000000000000000, 1.000000000000000000, 0.0000000000000000000 ) ) ;
#209 = EDGE_LOOP ( 'NONE', ( #236, #157 ) ) ;
#210 = EDGE_CURVE ( 'NONE', #260, #181, #10, .T. ) ;
#211 = CARTESIAN_POINT ( 'NONE',  ( 0.0000000000000000000, 0.0000000000000000000, 0.0000000000000000000 ) ) ;
#212 = CIRCLE ( 'NONE', #49, 1.924999999999995604 ) ;
#213 = ORIENTED_EDGE ( 'NONE', *, *, #210, .F. ) ;
#214 = DIRECTION ( 'NONE',  ( 4.275831445896958607E-31, 1.000000000000000000, 1.224646799147353207E-16 ) ) ;
#215 = ORIENTED_EDGE ( 'NONE', *, *, #230, .F. ) ;
#216 = ORIENTED_EDGE ( 'NONE', *, *, #147, .F. ) ;
#217 = CARTESIAN_POINT ( 'NONE',  ( 1.915444289414566393E-13, -1.525000000000006795, 55.00000000000000000 ) ) ;
#218 = PERSON_AND_ORGANIZATION ( #234, #156 ) ;
#219 = CARTESIAN_POINT ( 'NONE',  ( 8.230975533351621977E-31, 1.924999999999994493, 2.357445088358647855E-16 ) ) ;
#220 = EDGE_CURVE ( 'NONE', #293, #91, #39, .T. ) ;
#221 = VECTOR ( 'NONE', #335, 1000.000000000000114 ) ;
#222 = MECHANICAL_CONTEXT ( 'NONE', #160, 'mechanical' ) ;
#223 = CARTESIAN_POINT ( 'NONE',  ( 4.038445254267415687E-15, -1.416495915114673493E-16, 1.156656691628062061 ) ) ;
#224 = DATE_TIME_ROLE ( 'creation_date' ) ;
#225 = VECTOR ( 'NONE', #140, 1000.000000000000000 ) ;
#226 = DIRECTION ( 'NONE',  ( 0.0000000000000000000, 1.000000000000000000, 0.0000000000000000000 ) ) ;
#227 = DIRECTION ( 'NONE',  ( -3.491481338843133355E-15, 1.224646799147353207E-16, -1.000000000000000000 ) ) ;
#228 = LINE ( 'NONE', #199, #283 ) ;
#229 = CARTESIAN_POINT ( 'NONE',  ( 5.935518276033326704E-14, 1.924999999999993383, 17.00000000000000000 ) ) ;
#230 = EDGE_CURVE ( 'NONE', #121, #6, #194, .T. ) ;
#231 = DIRECTION ( 'NONE',  ( -2.382254525458708792E-15, -0.7071067811865495711, -0.7071067811865455743 ) ) ;
#232 = PRODUCT_DEFINITION_FORMATION_WITH_SPECIFIED_SOURCE ( 'ANY', '', #7, .NOT_KNOWN. ) ;
#233 = EDGE_LOOP ( 'NONE', ( #60, #105, #38, #264 ) ) ;
#234 = PERSON ( 'UNSPECIFIED', 'UNSPECIFIED', 'UNSPECIFIED', ('UNSPECIFIED'), ('UNSPECIFIED'), ('UNSPECIFIED') ) ;
#235 = AXIS2_PLACEMENT_3D ( 'NONE', #295, #316, #249 ) ;
#236 = ORIENTED_EDGE ( 'NONE', *, *, #281, .F. ) ;
#237 = FACE_OUTER_BOUND ( 'NONE', #188, .T. ) ;
#238 = CARTESIAN_POINT ( 'NONE',  ( 4.274189763103281163E-15, 1.924999999999993383, 1.156656691628062283 ) ) ;
#239 = CIRCLE ( 'NONE', #93, 1.924999999999993605 ) ;
#240 = LOCAL_TIME ( 9, 50, 34.00000000000000000, #16 ) ;
#241 = DIRECTION ( 'NONE',  ( -3.491481338843133355E-15, 1.224646799147353207E-16, -1.000000000000000000 ) ) ;
#242 = VERTEX_POINT ( 'NONE', #12 ) ;
#243 = CARTESIAN_POINT ( 'NONE',  ( 4.038445254267414899E-15, -1.924999999999993827, 1.156656691628061839 ) ) ;
#244 = ORIENTED_EDGE ( 'NONE', *, *, #220, .F. ) ;
#245 = COORDINATED_UNIVERSAL_TIME_OFFSET ( 1, 0, .AHEAD. ) ;
#246 = DIRECTION ( 'NONE',  ( -3.491481338843133355E-15, 1.224646799147353207E-16, -1.000000000000000000 ) ) ;
#247 = CARTESIAN_POINT ( 'NONE',  ( 1.252307764394200349E-13, -1.924999999999997602, 17.00000000000000000 ) ) ;
#248 = ADVANCED_FACE ( 'NONE', ( #322 ), #193, .T. ) ;
#249 = DIRECTION ( 'NONE',  ( 0.0000000000000000000, 1.000000000000000000, 0.0000000000000000000 ) ) ;
#250 = VERTEX_POINT ( 'NONE', #164 ) ;
#251 = ORIENTED_EDGE ( 'NONE', *, *, #210, .T. ) ;
#252 = CARTESIAN_POINT ( 'NONE',  ( 1.920314736363723472E-13, 1.143566834279656573E-32, 55.00000000000000000 ) ) ;
#253 = AXIS2_PLACEMENT_3D ( 'NONE', #82, #289, #58 ) ;
#254 = CC_DESIGN_APPROVAL ( #51, ( #115 ) ) ;
#255 = EDGE_CURVE ( 'NONE', #181, #30, #55, .T. ) ;
#256 = DIRECTION ( 'NONE',  ( 0.0000000000000000000, 1.000000000000000000, 0.0000000000000000000 ) ) ;
#257 = AXIS2_PLACEMENT_3D ( 'NONE', #252, #191, #214 ) ;
#258 = CARTESIAN_POINT ( 'NONE',  ( 8.230975533351635990E-31, 1.924999999999997824, 2.357445088358652292E-16 ) ) ;
#259 = CC_DESIGN_DATE_AND_TIME_ASSIGNMENT ( #73, #272, ( #329 ) ) ;
#260 = VERTEX_POINT ( 'NONE', #37 ) ;
#261 = CARTESIAN_POINT ( 'NONE',  ( 0.0000000000000000000, 0.0000000000000000000, 0.0000000000000000000 ) ) ;
#262 = APPLICATION_PROTOCOL_DEFINITION ( 'international standard', 'config_control_design', 1994, #160 ) ;
#263 = DIRECTION ( 'NONE',  ( 4.001932351973490746E-31, 1.000000000000000000, 1.126443815569359098E-16 ) ) ;
#264 = ORIENTED_EDGE ( 'NONE', *, *, #98, .F. ) ;
#265 = DIRECTION ( 'NONE',  ( 4.275831445896958607E-31, 1.000000000000000000, 1.224646799147353207E-16 ) ) ;
#266 = APPROVAL_DATE_TIME ( #172, #51 ) ;
#267 = LOCAL_TIME ( 9, 50, 34.00000000000000000, #324 ) ;
#268 = APPROVAL_ROLE ( '' ) ;
#269 = DIRECTION ( 'NONE',  ( -3.491481338843133355E-15, 1.224646799147353207E-16, -1.000000000000000000 ) ) ;
#270 = FACE_OUTER_BOUND ( 'NONE', #195, .T. ) ;
#271 = DATE_AND_TIME ( #280, #114 ) ;
#272 = DATE_TIME_ROLE ( 'classification_date' ) ;
#273 =( NAMED_UNIT ( * ) PLANE_ANGLE_UNIT ( ) SI_UNIT ( $, .RADIAN. ) );
#274 = PLANE ( 'NONE',  #257 ) ;
#275 = CARTESIAN_POINT ( 'NONE',  ( 5.935518276033326704E-14, 1.443518790812031242E-32, 17.00000000000000000 ) ) ;
#276 = ORIENTED_EDGE ( 'NONE', *, *, #186, .T. ) ;
#277 = ADVANCED_FACE ( 'NONE', ( #197 ), #87, .T. ) ;
#278 = CIRCLE ( 'NONE', #5, 1.924999999999995604 ) ;
#279 = AXIS2_PLACEMENT_3D ( 'NONE', #292, #74, #226 ) ;
#280 = CALENDAR_DATE ( 2021, 3, 9 ) ;
#281 = EDGE_CURVE ( 'NONE', #242, #46, #78, .T. ) ;
#282 = EDGE_LOOP ( 'NONE', ( #59, #67, #64, #80 ) ) ;
#283 = VECTOR ( 'NONE', #246, 1000.000000000000000 ) ;
#284 = MANIFOLD_SOLID_BREP ( 'Corps-Déplacer/Copier1[1]', #33 ) ;
#285 = DIRECTION ( 'NONE',  ( -3.491481338843133355E-15, 1.224646799147353207E-16, -1.000000000000000000 ) ) ;
#286 = MANIFOLD_SOLID_BREP ( 'Corps-Déplacer/Copier1[2]', #155 ) ;
#287 = CARTESIAN_POINT ( 'NONE',  ( 2.357445088358644404E-16, -1.924999999999997824, -2.357445088358660674E-16 ) ) ;
#288 = APPLICATION_PROTOCOL_DEFINITION ( 'international standard', 'config_control_design', 1994, #169 ) ;
#289 = DIRECTION ( 'NONE',  ( 3.491481338843133355E-15, -1.224646799147353207E-16, 1.000000000000000000 ) ) ;
#290 = DIRECTION ( 'NONE',  ( -3.491481338843133355E-15, 1.224646799147353207E-16, -1.000000000000000000 ) ) ;
#291 = PRODUCT_RELATED_PRODUCT_CATEGORY ( 'detail', '', ( #7 ) ) ;
#292 = CARTESIAN_POINT ( 'NONE',  ( 1.920314736363723472E-13, -6.735557395310442615E-15, 55.00000000000000000 ) ) ;
#293 = VERTEX_POINT ( 'NONE', #179 ) ;
#294 = APPROVAL_STATUS ( 'not_yet_approved' ) ;
#295 = CARTESIAN_POINT ( 'NONE',  ( 1.906348811008350938E-13, -6.686571523344548398E-15, 54.60000000000000142 ) ) ;
#296 =( LENGTH_UNIT ( ) NAMED_UNIT ( * ) SI_UNIT ( .MILLI., .METRE. ) );
#297 = VECTOR ( 'NONE', #318, 1000.000000000000000 ) ;
#298 = LINE ( 'NONE', #20, #19 ) ;
#299 = PERSON_AND_ORGANIZATION_ROLE ( 'design_supplier' ) ;
#300 = ORIENTED_EDGE ( 'NONE', *, *, #98, .T. ) ;
#301 = ADVANCED_FACE ( 'NONE', ( #334 ), #50, .T. ) ;
#302 = DIRECTION ( 'NONE',  ( -3.491481338843133355E-15, 1.224646799147353207E-16, -1.000000000000000000 ) ) ;
#303 = EDGE_LOOP ( 'NONE', ( #190, #144 ) ) ;
#304 = DIRECTION ( 'NONE',  ( 4.001932351973490746E-31, 1.000000000000000000, 1.126443815569359098E-16 ) ) ;
#305 = DIRECTION ( 'NONE',  ( -3.491481338843133355E-15, 1.224646799147353207E-16, -1.000000000000000000 ) ) ;
#306 = CIRCLE ( 'NONE', #162, 1.924999999999993605 ) ;
#307 = APPROVAL_PERSON_ORGANIZATION ( #145, #57, #268 ) ;
#308 = ADVANCED_FACE ( 'NONE', ( #331 ), #327, .T. ) ;
#309 = AXIS2_PLACEMENT_3D ( 'NONE', #261, #139, #116 ) ;
#310 = ORIENTED_EDGE ( 'NONE', *, *, #321, .F. ) ;
#311 = FACE_OUTER_BOUND ( 'NONE', #313, .T. ) ;
#312 = ORIENTED_EDGE ( 'NONE', *, *, #72, .F. ) ;
#313 = EDGE_LOOP ( 'NONE', ( #177, #323, #79, #170 ) ) ;
#314 = FACE_OUTER_BOUND ( 'NONE', #41, .T. ) ;
#315 = CIRCLE ( 'NONE', #118, 1.525000000000000133 ) ;
#316 = DIRECTION ( 'NONE',  ( -3.491481338843133355E-15, 1.224646799147353207E-16, -1.000000000000000000 ) ) ;
#317 = ADVANCED_FACE ( 'NONE', ( #206 ), #97, .T. ) ;
#318 = DIRECTION ( 'NONE',  ( 1.798245827342159528E-15, -0.8571673007021100021, 0.5150380749100580413 ) ) ;
#319 = PERSON_AND_ORGANIZATION_ROLE ( 'creator' ) ;
#320 = AXIS2_PLACEMENT_3D ( 'NONE', #100, #69, #176 ) ;
#321 = EDGE_CURVE ( 'NONE', #260, #91, #228, .T. ) ;
#322 = FACE_OUTER_BOUND ( 'NONE', #52, .T. ) ;
#323 = ORIENTED_EDGE ( 'NONE', *, *, #230, .T. ) ;
#324 = COORDINATED_UNIVERSAL_TIME_OFFSET ( 1, 0, .AHEAD. ) ;
#325 = DATE_AND_TIME ( #120, #240 ) ;
#326 = CALENDAR_DATE ( 2021, 3, 9 ) ;
#327 = CYLINDRICAL_SURFACE ( 'NONE', #24, 1.924999999999994493 ) ;
#328 = AXIS2_PLACEMENT_3D ( 'NONE', #88, #290, #265 ) ;
#329 = SECURITY_CLASSIFICATION ( '', '', #198 ) ;
#330 = CARTESIAN_POINT ( 'NONE',  ( 1.920314736363723472E-13, -6.735557395310442615E-15, 55.00000000000000000 ) ) ;
#331 = FACE_OUTER_BOUND ( 'NONE', #282, .T. ) ;
#332 = DIRECTION ( 'NONE',  ( -3.491481338843133355E-15, 1.224646799147353207E-16, -1.000000000000000000 ) ) ;
#333 = CARTESIAN_POINT ( 'NONE',  ( 1.922182322732423113E-13, -1.525000000000006795, 55.00000000000000000 ) ) ;
#334 = FACE_OUTER_BOUND ( 'NONE', #175, .T. ) ;
#335 = DIRECTION ( 'NONE',  ( -2.468850131082257455E-15, 0.7071067811865497932, -0.7071067811865453523 ) ) ;
#336 = AXIS2_PLACEMENT_3D ( 'NONE', #330, #227, #204 ) ;
#337 = FACE_OUTER_BOUND ( 'NONE', #209, .T. ) ;
ENDSEC;
END-ISO-10303-21;
