ISO-10303-21;
HEADER;
FILE_DESCRIPTION (( 'STEP AP203' ),
    '1' );
FILE_NAME ('54562.step',
    '2021-09-03T07:50:31',
    ( '' ),
    ( '' ),
    'SwSTEP 2.0',
    'SolidWorks 2019',
    '' );
FILE_SCHEMA (( 'CONFIG_CONTROL_DESIGN' ));
ENDSEC;

DATA;
#1 = CARTESIAN_POINT ( 'NONE',  ( 1.906348811008350938E-13, -6.686571523344548398E-15, 54.60000000000000142 ) ) ;
#2 = LINE ( 'NONE', #99, #306 ) ;
#3 = AXIS2_PLACEMENT_3D ( 'NONE', #130, #154, #316 ) ;
#4 = VECTOR ( 'NONE', #194, 1000.000000000000000 ) ;
#5 = EDGE_CURVE ( 'NONE', #174, #39, #144, .T. ) ;
#6 = CARTESIAN_POINT ( 'NONE',  ( 5.935518276033326704E-14, -2.081899558550500280E-15, 17.00000000000000000 ) ) ;
#7 = CARTESIAN_POINT ( 'NONE',  ( 3.985997913302904666E-15, -1.899999999999994138, 1.141635176152373310 ) ) ;
#8 = EDGE_LOOP ( 'NONE', ( #94, #51 ) ) ;
#9 = CARTESIAN_POINT ( 'NONE',  ( 0.0000000000000000000, 0.0000000000000000000, 0.0000000000000000000 ) ) ;
#10 = CLOSED_SHELL ( 'NONE', ( #86, #27, #336, #40, #262, #201 ) ) ;
#11 = PERSON_AND_ORGANIZATION ( #319, #272 ) ;
#12 = LOCAL_TIME ( 9, 50, 31.00000000000000000, #148 ) ;
#13 = DATE_TIME_ROLE ( 'classification_date' ) ;
#14 = EDGE_LOOP ( 'NONE', ( #75, #137, #297, #138 ) ) ;
#15 = CALENDAR_DATE ( 2021, 3, 9 ) ;
#16 = ADVANCED_FACE ( 'NONE', ( #45 ), #323, .T. ) ;
#17 = PRODUCT ( '54562', '54562', '', ( #188 ) ) ;
#18 = ORIENTED_EDGE ( 'NONE', *, *, #151, .F. ) ;
#19 = ORIENTED_EDGE ( 'NONE', *, *, #241, .T. ) ;
#20 = DIRECTION ( 'NONE',  ( 0.0000000000000000000, 1.000000000000000000, 0.0000000000000000000 ) ) ;
#21 = CYLINDRICAL_SURFACE ( 'NONE', #263, 1.899999999999998135 ) ;
#22 = EDGE_LOOP ( 'NONE', ( #271, #208, #106, #18 ) ) ;
#23 = DIRECTION ( 'NONE',  ( 1.798245827342160317E-15, -0.8571673007021098911, 0.5150380749100582634 ) ) ;
#24 =( NAMED_UNIT ( * ) SI_UNIT ( $, .STERADIAN. ) SOLID_ANGLE_UNIT ( ) );
#25 = DATE_AND_TIME ( #298, #162 ) ;
#26 = DIRECTION ( 'NONE',  ( 0.0000000000000000000, 1.000000000000000000, 0.0000000000000000000 ) ) ;
#27 = ADVANCED_FACE ( 'NONE', ( #109 ), #21, .T. ) ;
#28 = AXIS2_PLACEMENT_3D ( 'NONE', #132, #163, #270 ) ;
#29 = CARTESIAN_POINT ( 'NONE',  ( 3.985997913302905455E-15, -1.398099864269028966E-16, 1.141635176152373532 ) ) ;
#30 = LINE ( 'NONE', #209, #32 ) ;
#31 = ORIENTED_EDGE ( 'NONE', *, *, #146, .T. ) ;
#32 = VECTOR ( 'NONE', #46, 999.9999999999998863 ) ;
#33 = AXIS2_PLACEMENT_3D ( 'NONE', #9, #192, #290 ) ;
#34 = EDGE_CURVE ( 'NONE', #243, #158, #326, .T. ) ;
#35 = CARTESIAN_POINT ( 'NONE',  ( 0.0000000000000000000, 0.0000000000000000000, 0.0000000000000000000 ) ) ;
#36 = DIRECTION ( 'NONE',  ( -3.491481338843133355E-15, 1.224646799147353207E-16, -1.000000000000000000 ) ) ;
#37 = PLANE ( 'NONE',  #3 ) ;
#38 = SECURITY_CLASSIFICATION ( '', '', #193 ) ;
#39 = VERTEX_POINT ( 'NONE', #87 ) ;
#40 = ADVANCED_FACE ( 'NONE', ( #114 ), #200, .T. ) ;
#41 = APPROVAL ( #90, 'UNSPECIFIED' ) ;
#42 = AXIS2_PLACEMENT_3D ( 'NONE', #183, #126, #26 ) ;
#43 = DIRECTION ( 'NONE',  ( -3.491481338843133355E-15, 1.224646799147353207E-16, -1.000000000000000000 ) ) ;
#44 = PERSON_AND_ORGANIZATION ( #319, #272 ) ;
#45 = FACE_OUTER_BOUND ( 'NONE', #85, .T. ) ;
#46 = DIRECTION ( 'NONE',  ( 1.903218546456022717E-15, 0.8571673007021097801, 0.5150380749100585964 ) ) ;
#47 = LINE ( 'NONE', #96, #333 ) ;
#48 = PERSON_AND_ORGANIZATION_ROLE ( 'creator' ) ;
#49 = LOCAL_TIME ( 9, 50, 31.00000000000000000, #320 ) ;
#50 = DIRECTION ( 'NONE',  ( -4.054589356604719827E-31, -1.000000000000000000, -1.141265444721587209E-16 ) ) ;
#51 = ORIENTED_EDGE ( 'NONE', *, *, #264, .T. ) ;
#52 = CARTESIAN_POINT ( 'NONE',  ( 1.920314736363723472E-13, -6.735557395310442615E-15, 55.00000000000000000 ) ) ;
#53 = CARTESIAN_POINT ( 'NONE',  ( 8.124079747204198406E-31, 1.899999999999995026, 2.326828918379964955E-16 ) ) ;
#54 = DIRECTION ( 'NONE',  ( 0.0000000000000000000, 1.000000000000000000, 0.0000000000000000000 ) ) ;
#55 = AXIS2_PLACEMENT_3D ( 'NONE', #250, #62, #20 ) ;
#56 = CARTESIAN_POINT ( 'NONE',  ( 1.920314736363723472E-13, 1.499999999999993783, 55.00000000000000000 ) ) ;
#57 = APPROVAL_STATUS ( 'not_yet_approved' ) ;
#58 = EDGE_LOOP ( 'NONE', ( #300, #107, #133, #223 ) ) ;
#59 = MANIFOLD_SOLID_BREP ( 'Corps-Déplacer/Copier1[2]', #294 ) ;
#60 = EDGE_CURVE ( 'NONE', #79, #322, #30, .T. ) ;
#61 = PRODUCT_RELATED_PRODUCT_CATEGORY ( 'detail', '', ( #17 ) ) ;
#62 = DIRECTION ( 'NONE',  ( -3.491481338843133355E-15, 1.224646799147353207E-16, -1.000000000000000000 ) ) ;
#63 = UNCERTAINTY_MEASURE_WITH_UNIT (LENGTH_MEASURE( 1.000000000000000082E-05 ), #65, 'distance_accuracy_value', 'NONE');
#64 = CARTESIAN_POINT ( 'NONE',  ( 0.0000000000000000000, 0.0000000000000000000, 0.0000000000000000000 ) ) ;
#65 =( LENGTH_UNIT ( ) NAMED_UNIT ( * ) SI_UNIT ( .MILLI., .METRE. ) );
#66 = LOCAL_TIME ( 9, 50, 31.00000000000000000, #191 ) ;
#67 = EDGE_CURVE ( 'NONE', #174, #125, #2, .T. ) ;
#68 = CARTESIAN_POINT ( 'NONE',  ( 1.922151706562444373E-13, -1.500000000000007105, 55.00000000000000000 ) ) ;
#69 = AXIS2_PLACEMENT_3D ( 'NONE', #280, #287, #50 ) ;
#70 = CARTESIAN_POINT ( 'NONE',  ( 5.935518276033326704E-14, 1.899999999999993694, 17.00000000000000000 ) ) ;
#71 = CARTESIAN_POINT ( 'NONE',  ( 5.935518276033326704E-14, -2.081899558550500280E-15, 17.00000000000000000 ) ) ;
#72 = DIRECTION ( 'NONE',  ( 0.0000000000000000000, 1.000000000000000000, 0.0000000000000000000 ) ) ;
#73 = FACE_OUTER_BOUND ( 'NONE', #128, .T. ) ;
#74 = PERSON_AND_ORGANIZATION ( #319, #272 ) ;
#75 = ORIENTED_EDGE ( 'NONE', *, *, #97, .T. ) ;
#76 = PERSON_AND_ORGANIZATION ( #319, #272 ) ;
#77 = ORIENTED_EDGE ( 'NONE', *, *, #241, .F. ) ;
#78 = APPROVAL_PERSON_ORGANIZATION ( #318, #41, #119 ) ;
#79 = VERTEX_POINT ( 'NONE', #304 ) ;
#80 = ADVANCED_FACE ( 'NONE', ( #147 ), #182, .T. ) ;
#81 = ORIENTED_EDGE ( 'NONE', *, *, #151, .T. ) ;
#82 = ORIENTED_EDGE ( 'NONE', *, *, #274, .T. ) ;
#83 = EDGE_CURVE ( 'NONE', #329, #158, #196, .T. ) ;
#84 = CIRCLE ( 'NONE', #205, 1.899999999999993916 ) ;
#85 = EDGE_LOOP ( 'NONE', ( #303, #77 ) ) ;
#86 = ADVANCED_FACE ( 'NONE', ( #152 ), #277, .T. ) ;
#87 = CARTESIAN_POINT ( 'NONE',  ( 1.915413673244587904E-13, -1.500000000000007105, 55.00000000000000000 ) ) ;
#88 = DIRECTION ( 'NONE',  ( 3.491481338843133355E-15, -1.224646799147353207E-16, 1.000000000000000000 ) ) ;
#89 = CARTESIAN_POINT ( 'NONE',  ( 2.326828918379957067E-16, -1.899999999999995026, -2.326828918379972844E-16 ) ) ;
#90 = APPROVAL_STATUS ( 'not_yet_approved' ) ;
#91 = CARTESIAN_POINT ( 'NONE',  ( 3.985997913302905455E-15, -1.398099864269028966E-16, 1.141635176152373532 ) ) ;
#92 = ORIENTED_EDGE ( 'NONE', *, *, #161, .T. ) ;
#93 = DIRECTION ( 'NONE',  ( -3.491481338843133355E-15, 1.224646799147353207E-16, -1.000000000000000000 ) ) ;
#94 = ORIENTED_EDGE ( 'NONE', *, *, #83, .T. ) ;
#95 = CARTESIAN_POINT ( 'NONE',  ( 3.190327322865605952E-14, -1.899999999999998135, 17.00000000000000000 ) ) ;
#96 = CARTESIAN_POINT ( 'NONE',  ( 3.985997913302904666E-15, -1.899999999999994138, 1.141635176152373310 ) ) ;
#97 = EDGE_CURVE ( 'NONE', #125, #243, #175, .T. ) ;
#98 = CC_DESIGN_APPROVAL ( #41, ( #305 ) ) ;
#99 = CARTESIAN_POINT ( 'NONE',  ( 1.920314736363723472E-13, 1.499999999999993783, 55.00000000000000000 ) ) ;
#100 = CYLINDRICAL_SURFACE ( 'NONE', #33, 1.899999999999995026 ) ;
#101 = ORIENTED_EDGE ( 'NONE', *, *, #264, .F. ) ;
#102 = AXIS2_PLACEMENT_3D ( 'NONE', #6, #239, #72 ) ;
#103 = PERSON_AND_ORGANIZATION_ROLE ( 'creator' ) ;
#104 = CC_DESIGN_DATE_AND_TIME_ASSIGNMENT ( #123, #216, ( #305 ) ) ;
#105 = CALENDAR_DATE ( 2021, 3, 9 ) ;
#106 = ORIENTED_EDGE ( 'NONE', *, *, #67, .T. ) ;
#107 = ORIENTED_EDGE ( 'NONE', *, *, #155, .T. ) ;
#108 = EDGE_CURVE ( 'NONE', #266, #177, #230, .T. ) ;
#109 = FACE_OUTER_BOUND ( 'NONE', #14, .T. ) ;
#110 = ORIENTED_EDGE ( 'NONE', *, *, #313, .T. ) ;
#111 = PRODUCT_DEFINITION_FORMATION_WITH_SPECIFIED_SOURCE ( 'ANY', '', #17, .NOT_KNOWN. ) ;
#112 = DIRECTION ( 'NONE',  ( -3.491481338843133355E-15, 1.224646799147353207E-16, -1.000000000000000000 ) ) ;
#113 = COORDINATED_UNIVERSAL_TIME_OFFSET ( 1, 0, .AHEAD. ) ;
#114 = FACE_OUTER_BOUND ( 'NONE', #310, .T. ) ;
#115 = ORIENTED_EDGE ( 'NONE', *, *, #180, .T. ) ;
#116 = DIRECTION ( 'NONE',  ( -2.382254525458708792E-15, -0.7071067811865495711, -0.7071067811865455743 ) ) ;
#117 =( NAMED_UNIT ( * ) PLANE_ANGLE_UNIT ( ) SI_UNIT ( $, .RADIAN. ) );
#118 = DIRECTION ( 'NONE',  ( -3.491481338843133355E-15, 1.224646799147353207E-16, -1.000000000000000000 ) ) ;
#119 = APPROVAL_ROLE ( '' ) ;
#120 = AXIS2_PLACEMENT_3D ( 'NONE', #64, #225, #235 ) ;
#121 = DIRECTION ( 'NONE',  ( 3.491481338843133355E-15, -1.224646799147353207E-16, 1.000000000000000000 ) ) ;
#122 = CC_DESIGN_PERSON_AND_ORGANIZATION_ASSIGNMENT ( #74, #245, ( #111 ) ) ;
#123 = DATE_AND_TIME ( #260, #12 ) ;
#124 = ADVANCED_BREP_SHAPE_REPRESENTATION ( '54562', ( #166, #59, #150 ), #253 ) ;
#125 = VERTEX_POINT ( 'NONE', #309 ) ;
#126 = DIRECTION ( 'NONE',  ( -3.491481338843133355E-15, 1.224646799147353207E-16, -1.000000000000000000 ) ) ;
#127 = AXIS2_PLACEMENT_3D ( 'NONE', #52, #118, #207 ) ;
#128 = EDGE_LOOP ( 'NONE', ( #110, #276, #258, #222 ) ) ;
#129 = APPROVAL_PERSON_ORGANIZATION ( #252, #256, #224 ) ;
#130 = CARTESIAN_POINT ( 'NONE',  ( 1.920314736363723472E-13, 1.124819836996383627E-32, 55.00000000000000000 ) ) ;
#131 = CC_DESIGN_PERSON_AND_ORGANIZATION_ASSIGNMENT ( #11, #103, ( #111 ) ) ;
#132 = CARTESIAN_POINT ( 'NONE',  ( 0.0000000000000000000, 0.0000000000000000000, 0.0000000000000000000 ) ) ;
#133 = ORIENTED_EDGE ( 'NONE', *, *, #97, .F. ) ;
#134 = AXIS2_PLACEMENT_3D ( 'NONE', #173, #275, #248 ) ;
#135 = DATE_AND_TIME ( #170, #321 ) ;
#136 = DATE_AND_TIME ( #105, #66 ) ;
#137 = ORIENTED_EDGE ( 'NONE', *, *, #34, .T. ) ;
#138 = ORIENTED_EDGE ( 'NONE', *, *, #288, .F. ) ;
#139 = CIRCLE ( 'NONE', #102, 1.899999999999995914 ) ;
#140 = PRODUCT_DEFINITION_SHAPE ( 'NONE', 'NONE',  #305 ) ;
#141 = VERTEX_POINT ( 'NONE', #70 ) ;
#142 = EDGE_LOOP ( 'NONE', ( #226, #273, #92 ) ) ;
#143 = CARTESIAN_POINT ( 'NONE',  ( 2.326828918379960518E-16, -1.899999999999998135, -2.326828918379976295E-16 ) ) ;
#144 = CIRCLE ( 'NONE', #55, 1.500000000000000444 ) ;
#145 = DIRECTION ( 'NONE',  ( -3.491481338843133355E-15, 1.224646799147353207E-16, -1.000000000000000000 ) ) ;
#146 = EDGE_CURVE ( 'NONE', #79, #177, #47, .T. ) ;
#147 = FACE_OUTER_BOUND ( 'NONE', #292, .T. ) ;
#148 = COORDINATED_UNIVERSAL_TIME_OFFSET ( 1, 0, .AHEAD. ) ;
#149 = CARTESIAN_POINT ( 'NONE',  ( 5.935518276033326704E-14, -2.081899558550500280E-15, 17.00000000000000000 ) ) ;
#150 = AXIS2_PLACEMENT_3D ( 'NONE', #35, #242, #215 ) ;
#151 = EDGE_CURVE ( 'NONE', #243, #125, #189, .T. ) ;
#152 = FACE_OUTER_BOUND ( 'NONE', #58, .T. ) ;
#153 = DIRECTION ( 'NONE',  ( -3.491481338843133355E-15, 1.224646799147353207E-16, -1.000000000000000000 ) ) ;
#154 = DIRECTION ( 'NONE',  ( -3.491481338843133355E-15, 1.224646799147353207E-16, -1.000000000000000000 ) ) ;
#155 = EDGE_CURVE ( 'NONE', #39, #243, #311, .T. ) ;
#156 = CC_DESIGN_APPROVAL ( #256, ( #111 ) ) ;
#157 = FACE_OUTER_BOUND ( 'NONE', #246, .T. ) ;
#158 = VERTEX_POINT ( 'NONE', #227 ) ;
#159 = DIRECTION ( 'NONE',  ( -3.491481338843133355E-15, 1.224646799147353207E-16, -1.000000000000000000 ) ) ;
#160 = APPROVAL_DATE_TIME ( #136, #186 ) ;
#161 = EDGE_CURVE ( 'NONE', #322, #177, #84, .T. ) ;
#162 = LOCAL_TIME ( 9, 50, 31.00000000000000000, #232 ) ;
#163 = DIRECTION ( 'NONE',  ( -3.491481338843133355E-15, 1.224646799147353207E-16, -1.000000000000000000 ) ) ;
#164 = ORIENTED_EDGE ( 'NONE', *, *, #60, .F. ) ;
#165 = ADVANCED_FACE ( 'NONE', ( #285 ), #315, .T. ) ;
#166 = MANIFOLD_SOLID_BREP ( 'Corps-Déplacer/Copier1[1]', #10 ) ;
#167 = AXIS2_PLACEMENT_3D ( 'NONE', #71, #187, #54 ) ;
#168 = CARTESIAN_POINT ( 'NONE',  ( 0.0000000000000000000, 0.0000000000000000000, 0.0000000000000000000 ) ) ;
#169 = APPLICATION_PROTOCOL_DEFINITION ( 'international standard', 'config_control_design', 1994, #238 ) ;
#170 = CALENDAR_DATE ( 2021, 3, 9 ) ;
#171 = DIRECTION ( 'NONE',  ( 4.275831445896957731E-31, 1.000000000000000000, 1.224646799147353207E-16 ) ) ;
#172 = FACE_OUTER_BOUND ( 'NONE', #8, .T. ) ;
#173 = CARTESIAN_POINT ( 'NONE',  ( 5.935518276033326704E-14, 1.424771793528758433E-32, 17.00000000000000000 ) ) ;
#174 = VERTEX_POINT ( 'NONE', #56 ) ;
#175 = CIRCLE ( 'NONE', #247, 1.900000000000000355 ) ;
#176 = CIRCLE ( 'NONE', #220, 1.899999999999993916 ) ;
#177 = VERTEX_POINT ( 'NONE', #7 ) ;
#178 = DIRECTION ( 'NONE',  ( -3.491481338843133355E-15, 1.224646799147353207E-16, -1.000000000000000000 ) ) ;
#179 = APPROVAL_DATE_TIME ( #25, #41 ) ;
#180 = EDGE_CURVE ( 'NONE', #141, #322, #214, .T. ) ;
#181 = DIRECTION ( 'NONE',  ( 0.0000000000000000000, 1.000000000000000000, 0.0000000000000000000 ) ) ;
#182 = CONICAL_SURFACE ( 'NONE', #69, 1.899999999999993916, 1.029744258676649649 ) ;
#183 = CARTESIAN_POINT ( 'NONE',  ( 1.920314736363723472E-13, -6.735557395310442615E-15, 55.00000000000000000 ) ) ;
#184 = CC_DESIGN_APPROVAL ( #186, ( #38 ) ) ;
#185 = DIRECTION ( 'NONE',  ( 0.0000000000000000000, 1.000000000000000000, 0.0000000000000000000 ) ) ;
#186 = APPROVAL ( #57, 'UNSPECIFIED' ) ;
#187 = DIRECTION ( 'NONE',  ( -3.491481338843133355E-15, 1.224646799147353207E-16, -1.000000000000000000 ) ) ;
#188 = MECHANICAL_CONTEXT ( 'NONE', #238, 'mechanical' ) ;
#189 = CIRCLE ( 'NONE', #231, 1.900000000000000355 ) ;
#190 = ORIENTED_EDGE ( 'NONE', *, *, #274, .F. ) ;
#191 = COORDINATED_UNIVERSAL_TIME_OFFSET ( 1, 0, .AHEAD. ) ;
#192 = DIRECTION ( 'NONE',  ( -3.491481338843133355E-15, 1.224646799147353207E-16, -1.000000000000000000 ) ) ;
#193 = SECURITY_CLASSIFICATION_LEVEL ( 'unclassified' ) ;
#194 = DIRECTION ( 'NONE',  ( -3.491481338843133355E-15, 1.224646799147353207E-16, -1.000000000000000000 ) ) ;
#195 = ORIENTED_EDGE ( 'NONE', *, *, #5, .F. ) ;
#196 = CIRCLE ( 'NONE', #236, 1.899999999999995914 ) ;
#197 = VECTOR ( 'NONE', #159, 1000.000000000000000 ) ;
#198 = CC_DESIGN_PERSON_AND_ORGANIZATION_ASSIGNMENT ( #283, #48, ( #305 ) ) ;
#199 = AXIS2_PLACEMENT_3D ( 'NONE', #29, #121, #335 ) ;
#200 = CYLINDRICAL_SURFACE ( 'NONE', #120, 1.899999999999998135 ) ;
#201 = ADVANCED_FACE ( 'NONE', ( #267 ), #37, .F. ) ;
#202 = DIRECTION ( 'NONE',  ( -4.275831445896958607E-31, -1.000000000000000000, -1.224646799147353207E-16 ) ) ;
#203 = CARTESIAN_POINT ( 'NONE',  ( 3.985997913302905455E-15, -1.398099864269028966E-16, 1.141635176152373532 ) ) ;
#204 = CARTESIAN_POINT ( 'NONE',  ( 5.935518276033326704E-14, 1.899999999999993694, 17.00000000000000000 ) ) ;
#205 = AXIS2_PLACEMENT_3D ( 'NONE', #203, #178, #282 ) ;
#206 = DIRECTION ( 'NONE',  ( -3.491481338843133355E-15, 1.224646799147353207E-16, -1.000000000000000000 ) ) ;
#207 = DIRECTION ( 'NONE',  ( 0.0000000000000000000, 1.000000000000000000, 0.0000000000000000000 ) ) ;
#208 = ORIENTED_EDGE ( 'NONE', *, *, #229, .T. ) ;
#209 = CARTESIAN_POINT ( 'NONE',  ( 4.218680805140903183E-15, 1.899999999999993694, 1.141635176152373754 ) ) ;
#210 = CARTESIAN_POINT ( 'NONE',  ( 1.906348811008350938E-13, -6.686571523344548398E-15, 54.60000000000000142 ) ) ;
#211 = ADVANCED_FACE ( 'NONE', ( #73 ), #100, .T. ) ;
#212 = CARTESIAN_POINT ( 'NONE',  ( 8.124079747204212419E-31, 1.899999999999998135, 2.326828918379968900E-16 ) ) ;
#213 = VECTOR ( 'NONE', #116, 1000.000000000000114 ) ;
#214 = LINE ( 'NONE', #53, #197 ) ;
#215 = DIRECTION ( 'NONE',  ( 1.000000000000000000, 0.0000000000000000000, 0.0000000000000000000 ) ) ;
#216 = DATE_TIME_ROLE ( 'creation_date' ) ;
#217 = SHAPE_DEFINITION_REPRESENTATION ( #140, #124 ) ;
#218 = APPROVAL_DATE_TIME ( #135, #256 ) ;
#219 = VECTOR ( 'NONE', #334, 1000.000000000000000 ) ;
#220 = AXIS2_PLACEMENT_3D ( 'NONE', #91, #206, #281 ) ;
#221 = CC_DESIGN_PERSON_AND_ORGANIZATION_ASSIGNMENT ( #76, #289, ( #38 ) ) ;
#222 = ORIENTED_EDGE ( 'NONE', *, *, #180, .F. ) ;
#223 = ORIENTED_EDGE ( 'NONE', *, *, #67, .F. ) ;
#224 = APPROVAL_ROLE ( '' ) ;
#225 = DIRECTION ( 'NONE',  ( -3.491481338843133355E-15, 1.224646799147353207E-16, -1.000000000000000000 ) ) ;
#226 = ORIENTED_EDGE ( 'NONE', *, *, #146, .F. ) ;
#227 = CARTESIAN_POINT ( 'NONE',  ( 1.252277148224221103E-13, -1.899999999999998135, 17.00000000000000000 ) ) ;
#228 = DIRECTION ( 'NONE',  ( 0.0000000000000000000, 1.000000000000000000, 0.0000000000000000000 ) ) ;
#229 = EDGE_CURVE ( 'NONE', #39, #174, #244, .T. ) ;
#230 = LINE ( 'NONE', #89, #219 ) ;
#231 = AXIS2_PLACEMENT_3D ( 'NONE', #210, #93, #181 ) ;
#232 = COORDINATED_UNIVERSAL_TIME_OFFSET ( 1, 0, .AHEAD. ) ;
#233 = PERSON_AND_ORGANIZATION_ROLE ( 'design_owner' ) ;
#234 = DIRECTION ( 'NONE',  ( -2.468850131082257455E-15, 0.7071067811865497932, -0.7071067811865453523 ) ) ;
#235 = DIRECTION ( 'NONE',  ( 4.275831445896957731E-31, 1.000000000000000000, 1.224646799147353207E-16 ) ) ;
#236 = AXIS2_PLACEMENT_3D ( 'NONE', #279, #145, #185 ) ;
#237 = CIRCLE ( 'NONE', #278, 1.899999999999995914 ) ;
#238 = APPLICATION_CONTEXT ( 'configuration controlled 3d designs of mechanical parts and assemblies' ) ;
#239 = DIRECTION ( 'NONE',  ( -3.491481338843133355E-15, 1.224646799147353207E-16, -1.000000000000000000 ) ) ;
#240 = EDGE_LOOP ( 'NONE', ( #195, #254 ) ) ;
#241 = EDGE_CURVE ( 'NONE', #266, #141, #286, .T. ) ;
#242 = DIRECTION ( 'NONE',  ( 0.0000000000000000000, 0.0000000000000000000, 1.000000000000000000 ) ) ;
#243 = VERTEX_POINT ( 'NONE', #331 ) ;
#244 = CIRCLE ( 'NONE', #259, 1.500000000000000444 ) ;
#245 = PERSON_AND_ORGANIZATION_ROLE ( 'design_supplier' ) ;
#246 = EDGE_LOOP ( 'NONE', ( #312, #19, #115, #190 ) ) ;
#247 = AXIS2_PLACEMENT_3D ( 'NONE', #1, #153, #255 ) ;
#248 = DIRECTION ( 'NONE',  ( -4.275831445896958607E-31, -1.000000000000000000, -1.224646799147353207E-16 ) ) ;
#249 = DESIGN_CONTEXT ( 'detailed design', #284, 'design' ) ;
#250 = CARTESIAN_POINT ( 'NONE',  ( 1.920314736363723472E-13, -6.735557395310442615E-15, 55.00000000000000000 ) ) ;
#251 = CC_DESIGN_PERSON_AND_ORGANIZATION_ASSIGNMENT ( #330, #233, ( #17 ) ) ;
#252 = PERSON_AND_ORGANIZATION ( #319, #272 ) ;
#253 =( GEOMETRIC_REPRESENTATION_CONTEXT ( 3 ) GLOBAL_UNCERTAINTY_ASSIGNED_CONTEXT ( ( #63 ) ) GLOBAL_UNIT_ASSIGNED_CONTEXT ( ( #65, #117, #24 ) ) REPRESENTATION_CONTEXT ( 'NONE', 'WORKASPACE' ) );
#254 = ORIENTED_EDGE ( 'NONE', *, *, #229, .F. ) ;
#255 = DIRECTION ( 'NONE',  ( 0.0000000000000000000, 1.000000000000000000, 0.0000000000000000000 ) ) ;
#256 = APPROVAL ( #317, 'UNSPECIFIED' ) ;
#257 = FACE_OUTER_BOUND ( 'NONE', #22, .T. ) ;
#258 = ORIENTED_EDGE ( 'NONE', *, *, #161, .F. ) ;
#259 = AXIS2_PLACEMENT_3D ( 'NONE', #268, #36, #314 ) ;
#260 = CALENDAR_DATE ( 2021, 3, 9 ) ;
#261 = LINE ( 'NONE', #212, #4 ) ;
#262 = ADVANCED_FACE ( 'NONE', ( #257 ), #269, .T. ) ;
#263 = AXIS2_PLACEMENT_3D ( 'NONE', #168, #43, #171 ) ;
#264 = EDGE_CURVE ( 'NONE', #158, #329, #237, .T. ) ;
#265 = CYLINDRICAL_SURFACE ( 'NONE', #28, 1.899999999999995026 ) ;
#266 = VERTEX_POINT ( 'NONE', #95 ) ;
#267 = FACE_OUTER_BOUND ( 'NONE', #240, .T. ) ;
#268 = CARTESIAN_POINT ( 'NONE',  ( 1.920314736363723472E-13, -6.735557395310442615E-15, 55.00000000000000000 ) ) ;
#269 = CONICAL_SURFACE ( 'NONE', #42, 1.500000000000000444, 0.7853981633974512766 ) ;
#270 = DIRECTION ( 'NONE',  ( 4.275831445896957731E-31, 1.000000000000000000, 1.224646799147353207E-16 ) ) ;
#271 = ORIENTED_EDGE ( 'NONE', *, *, #155, .F. ) ;
#272 = ORGANIZATION ( 'UNSPECIFIED', 'UNSPECIFIED', '' ) ;
#273 = ORIENTED_EDGE ( 'NONE', *, *, #60, .T. ) ;
#274 = EDGE_CURVE ( 'NONE', #177, #322, #176, .T. ) ;
#275 = DIRECTION ( 'NONE',  ( 3.491481338843133355E-15, -1.224646799147353207E-16, 1.000000000000000000 ) ) ;
#276 = ORIENTED_EDGE ( 'NONE', *, *, #108, .T. ) ;
#277 = CONICAL_SURFACE ( 'NONE', #127, 1.500000000000000444, 0.7853981633974512766 ) ;
#278 = AXIS2_PLACEMENT_3D ( 'NONE', #149, #337, #228 ) ;
#279 = CARTESIAN_POINT ( 'NONE',  ( 5.935518276033326704E-14, -2.081899558550500280E-15, 17.00000000000000000 ) ) ;
#280 = CARTESIAN_POINT ( 'NONE',  ( 3.985997913302905455E-15, -1.398099864269028966E-16, 1.141635176152373532 ) ) ;
#281 = DIRECTION ( 'NONE',  ( 4.054589356604719827E-31, 1.000000000000000000, 1.141265444721587209E-16 ) ) ;
#282 = DIRECTION ( 'NONE',  ( 4.054589356604719827E-31, 1.000000000000000000, 1.141265444721587209E-16 ) ) ;
#283 = PERSON_AND_ORGANIZATION ( #319, #272 ) ;
#284 = APPLICATION_CONTEXT ( 'configuration controlled 3d designs of mechanical parts and assemblies' ) ;
#285 = FACE_OUTER_BOUND ( 'NONE', #142, .T. ) ;
#286 = CIRCLE ( 'NONE', #167, 1.899999999999995914 ) ;
#287 = DIRECTION ( 'NONE',  ( 3.491481338843133355E-15, -1.224646799147353207E-16, 1.000000000000000000 ) ) ;
#288 = EDGE_CURVE ( 'NONE', #125, #329, #261, .T. ) ;
#289 = PERSON_AND_ORGANIZATION_ROLE ( 'classification_officer' ) ;
#290 = DIRECTION ( 'NONE',  ( 4.275831445896957731E-31, 1.000000000000000000, 1.224646799147353207E-16 ) ) ;
#291 = DATE_AND_TIME ( #15, #49 ) ;
#292 = EDGE_LOOP ( 'NONE', ( #164, #31, #82 ) ) ;
#293 = CC_DESIGN_DATE_AND_TIME_ASSIGNMENT ( #291, #13, ( #38 ) ) ;
#294 = CLOSED_SHELL ( 'NONE', ( #211, #165, #80, #296, #16 ) ) ;
#295 = PLANE ( 'NONE',  #299 ) ;
#296 = ADVANCED_FACE ( 'NONE', ( #157 ), #265, .T. ) ;
#297 = ORIENTED_EDGE ( 'NONE', *, *, #83, .F. ) ;
#298 = CALENDAR_DATE ( 2021, 3, 9 ) ;
#299 = AXIS2_PLACEMENT_3D ( 'NONE', #328, #88, #202 ) ;
#300 = ORIENTED_EDGE ( 'NONE', *, *, #5, .T. ) ;
#301 = APPLICATION_PROTOCOL_DEFINITION ( 'international standard', 'config_control_design', 1994, #284 ) ;
#302 = CARTESIAN_POINT ( 'NONE',  ( 4.218680805140903183E-15, 1.899999999999993694, 1.141635176152373754 ) ) ;
#303 = ORIENTED_EDGE ( 'NONE', *, *, #313, .F. ) ;
#304 = CARTESIAN_POINT ( 'NONE',  ( 0.0000000000000000000, 0.0000000000000000000, 0.0000000000000000000 ) ) ;
#305 = PRODUCT_DEFINITION ( 'UNKNOWN', '', #111, #249 ) ;
#306 = VECTOR ( 'NONE', #234, 1000.000000000000114 ) ;
#307 = CC_DESIGN_SECURITY_CLASSIFICATION ( #38, ( #111 ) ) ;
#308 = ORIENTED_EDGE ( 'NONE', *, *, #288, .T. ) ;
#309 = CARTESIAN_POINT ( 'NONE',  ( 1.906348811008350938E-13, 1.899999999999993694, 54.60000000000000142 ) ) ;
#310 = EDGE_LOOP ( 'NONE', ( #332, #81, #308, #101 ) ) ;
#311 = LINE ( 'NONE', #68, #213 ) ;
#312 = ORIENTED_EDGE ( 'NONE', *, *, #108, .F. ) ;
#313 = EDGE_CURVE ( 'NONE', #141, #266, #139, .T. ) ;
#314 = DIRECTION ( 'NONE',  ( 0.0000000000000000000, 1.000000000000000000, 0.0000000000000000000 ) ) ;
#315 = CONICAL_SURFACE ( 'NONE', #199, 1.899999999999993916, 1.029744258676649649 ) ;
#316 = DIRECTION ( 'NONE',  ( 4.275831445896958607E-31, 1.000000000000000000, 1.224646799147353207E-16 ) ) ;
#317 = APPROVAL_STATUS ( 'not_yet_approved' ) ;
#318 = PERSON_AND_ORGANIZATION ( #319, #272 ) ;
#319 = PERSON ( 'UNSPECIFIED', 'UNSPECIFIED', 'UNSPECIFIED', ('UNSPECIFIED'), ('UNSPECIFIED'), ('UNSPECIFIED') ) ;
#320 = COORDINATED_UNIVERSAL_TIME_OFFSET ( 1, 0, .AHEAD. ) ;
#321 = LOCAL_TIME ( 9, 50, 31.00000000000000000, #113 ) ;
#322 = VERTEX_POINT ( 'NONE', #302 ) ;
#323 = PLANE ( 'NONE',  #134 ) ;
#324 = VECTOR ( 'NONE', #112, 1000.000000000000000 ) ;
#325 = APPROVAL_PERSON_ORGANIZATION ( #44, #186, #327 ) ;
#326 = LINE ( 'NONE', #143, #324 ) ;
#327 = APPROVAL_ROLE ( '' ) ;
#328 = CARTESIAN_POINT ( 'NONE',  ( 5.935518276033326704E-14, 1.424771793528758433E-32, 17.00000000000000000 ) ) ;
#329 = VERTEX_POINT ( 'NONE', #204 ) ;
#330 = PERSON_AND_ORGANIZATION ( #319, #272 ) ;
#331 = CARTESIAN_POINT ( 'NONE',  ( 1.252277148224220093E-13, -1.900000000000007017, 54.60000000000000142 ) ) ;
#332 = ORIENTED_EDGE ( 'NONE', *, *, #34, .F. ) ;
#333 = VECTOR ( 'NONE', #23, 1000.000000000000000 ) ;
#334 = DIRECTION ( 'NONE',  ( -3.491481338843133355E-15, 1.224646799147353207E-16, -1.000000000000000000 ) ) ;
#335 = DIRECTION ( 'NONE',  ( -4.054589356604719827E-31, -1.000000000000000000, -1.141265444721587209E-16 ) ) ;
#336 = ADVANCED_FACE ( 'NONE', ( #172 ), #295, .F. ) ;
#337 = DIRECTION ( 'NONE',  ( -3.491481338843133355E-15, 1.224646799147353207E-16, -1.000000000000000000 ) ) ;
ENDSEC;
END-ISO-10303-21;
