ISO-10303-21;
HEADER;
FILE_DESCRIPTION (( 'STEP AP203' ),
    '1' );
FILE_NAME ('54560.step',
    '2021-09-03T07:50:28',
    ( '' ),
    ( '' ),
    'SwSTEP 2.0',
    'SolidWorks 2019',
    '' );
FILE_SCHEMA (( 'CONFIG_CONTROL_DESIGN' ));
ENDSEC;

DATA;
#1 = AXIS2_PLACEMENT_3D ( 'NONE', #270, #132, #8 ) ;
#2 = DIRECTION ( 'NONE',  ( -3.491481338843133355E-15, 1.224646799147353454E-16, -1.000000000000000000 ) ) ;
#3 = DIRECTION ( 'NONE',  ( 0.0000000000000000000, 1.000000000000000000, 0.0000000000000000000 ) ) ;
#4 = CARTESIAN_POINT ( 'NONE',  ( 4.163171847178522048E-15, 1.874999999999993561, 1.126613660676684336 ) ) ;
#5 = CARTESIAN_POINT ( 'NONE',  ( 4.163171847178522048E-15, 1.874999999999993561, 1.126613660676684336 ) ) ;
#6 = CIRCLE ( 'NONE', #196, 1.874999999999995337 ) ;
#7 = DIRECTION ( 'NONE',  ( -2.468850131082257455E-15, 0.7071067811865497932, -0.7071067811865453523 ) ) ;
#8 = DIRECTION ( 'NONE',  ( 0.0000000000000000000, 1.000000000000000000, 0.0000000000000000000 ) ) ;
#9 = CC_DESIGN_PERSON_AND_ORGANIZATION_ASSIGNMENT ( #221, #197, ( #98 ) ) ;
#10 = CALENDAR_DATE ( 2021, 3, 9 ) ;
#11 = APPLICATION_PROTOCOL_DEFINITION ( 'international standard', 'config_control_design', 1994, #335 ) ;
#12 = CONICAL_SURFACE ( 'NONE', #312, 1.874999999999993783, 1.029744258676649649 ) ;
#13 = CARTESIAN_POINT ( 'NONE',  ( 5.237222008264700033E-14, 1.874999999999993561, 15.00000000000000000 ) ) ;
#14 = ORIENTED_EDGE ( 'NONE', *, *, #47, .F. ) ;
#15 = SHAPE_DEFINITION_REPRESENTATION ( #148, #326 ) ;
#16 = AXIS2_PLACEMENT_3D ( 'NONE', #50, #314, #315 ) ;
#17 = EDGE_CURVE ( 'NONE', #145, #320, #24, .T. ) ;
#18 = ORIENTED_EDGE ( 'NONE', *, *, #332, .T. ) ;
#19 = ORIENTED_EDGE ( 'NONE', *, *, #179, .F. ) ;
#20 = ADVANCED_FACE ( 'NONE', ( #121 ), #231, .F. ) ;
#21 = AXIS2_PLACEMENT_3D ( 'NONE', #236, #214, #319 ) ;
#22 = ORIENTED_EDGE ( 'NONE', *, *, #174, .T. ) ;
#23 = CARTESIAN_POINT ( 'NONE',  ( 1.815570296198429345E-13, -6.368163355566237959E-15, 52.00000000000000000 ) ) ;
#24 = LINE ( 'NONE', #77, #285 ) ;
#25 = CIRCLE ( 'NONE', #146, 1.874999999999993783 ) ;
#26 = DIRECTION ( 'NONE',  ( 4.275831445896959482E-31, 1.000000000000000000, 1.224646799147353454E-16 ) ) ;
#27 = CARTESIAN_POINT ( 'NONE',  ( 3.933550572338392067E-15, -1.874999999999994005, 1.126613660676683892 ) ) ;
#28 = EDGE_CURVE ( 'NONE', #250, #145, #176, .T. ) ;
#29 = DIRECTION ( 'NONE',  ( -3.491481338843133355E-15, 1.224646799147353454E-16, -1.000000000000000000 ) ) ;
#30 = AXIS2_PLACEMENT_3D ( 'NONE', #180, #29, #129 ) ;
#31 = LOCAL_TIME ( 9, 50, 28.00000000000000000, #57 ) ;
#32 = PERSON_AND_ORGANIZATION ( #263, #281 ) ;
#33 = PRODUCT_DEFINITION ( 'UNKNOWN', '', #230, #225 ) ;
#34 = DIRECTION ( 'NONE',  ( 0.0000000000000000000, 0.0000000000000000000, 1.000000000000000000 ) ) ;
#35 = AXIS2_PLACEMENT_3D ( 'NONE', #23, #152, #182 ) ;
#36 = CARTESIAN_POINT ( 'NONE',  ( 0.0000000000000000000, 0.0000000000000000000, 0.0000000000000000000 ) ) ;
#37 = CALENDAR_DATE ( 2021, 3, 9 ) ;
#38 = EDGE_LOOP ( 'NONE', ( #325, #69 ) ) ;
#39 = CARTESIAN_POINT ( 'NONE',  ( 2.838250660233280172E-14, -1.874999999999997335, 15.00000000000000000 ) ) ;
#40 = CIRCLE ( 'NONE', #240, 1.474999999999999867 ) ;
#41 = EDGE_LOOP ( 'NONE', ( #143, #277, #299, #276 ) ) ;
#42 = ORIENTED_EDGE ( 'NONE', *, *, #253, .T. ) ;
#43 = ADVANCED_FACE ( 'NONE', ( #209 ), #107, .T. ) ;
#44 = CARTESIAN_POINT ( 'NONE',  ( 3.933550572338392856E-15, -1.379703813423383945E-16, 1.126613660676684114 ) ) ;
#45 = CLOSED_SHELL ( 'NONE', ( #72, #52, #130, #43, #293, #20 ) ) ;
#46 = CARTESIAN_POINT ( 'NONE',  ( 8.017183961056776587E-31, 1.874999999999994671, 2.296212748401281070E-16 ) ) ;
#47 = EDGE_CURVE ( 'NONE', #167, #64, #106, .T. ) ;
#48 = ORIENTED_EDGE ( 'NONE', *, *, #134, .F. ) ;
#49 = VECTOR ( 'NONE', #127, 1000.000000000000000 ) ;
#50 = CARTESIAN_POINT ( 'NONE',  ( 0.0000000000000000000, 0.0000000000000000000, 0.0000000000000000000 ) ) ;
#51 = APPROVAL_PERSON_ORGANIZATION ( #244, #274, #329 ) ;
#52 = ADVANCED_FACE ( 'NONE', ( #75 ), #262, .T. ) ;
#53 = DIRECTION ( 'NONE',  ( -3.491481338843133355E-15, 1.224646799147353454E-16, -1.000000000000000000 ) ) ;
#54 = ORIENTED_EDGE ( 'NONE', *, *, #47, .T. ) ;
#55 = PERSON_AND_ORGANIZATION ( #263, #281 ) ;
#56 = COORDINATED_UNIVERSAL_TIME_OFFSET ( 1, 0, .AHEAD. ) ;
#57 = COORDINATED_UNIVERSAL_TIME_OFFSET ( 1, 0, .AHEAD. ) ;
#58 = APPROVAL_DATE_TIME ( #157, #91 ) ;
#59 = DATE_TIME_ROLE ( 'creation_date' ) ;
#60 =( LENGTH_UNIT ( ) NAMED_UNIT ( * ) SI_UNIT ( .MILLI., .METRE. ) );
#61 = CARTESIAN_POINT ( 'NONE',  ( 0.0000000000000000000, 0.0000000000000000000, 0.0000000000000000000 ) ) ;
#62 = DIRECTION ( 'NONE',  ( -3.491481338843133355E-15, 1.224646799147353454E-16, -1.000000000000000000 ) ) ;
#63 = CARTESIAN_POINT ( 'NONE',  ( 3.933550572338392856E-15, -1.379703813423383945E-16, 1.126613660676684114 ) ) ;
#64 = VERTEX_POINT ( 'NONE', #5 ) ;
#65 = AXIS2_PLACEMENT_3D ( 'NONE', #63, #260, #169 ) ;
#66 = CC_DESIGN_SECURITY_CLASSIFICATION ( #98, ( #230 ) ) ;
#67 = DIRECTION ( 'NONE',  ( -3.491481338843133355E-15, 1.224646799147353454E-16, -1.000000000000000000 ) ) ;
#68 = DIRECTION ( 'NONE',  ( 0.0000000000000000000, 1.000000000000000000, 0.0000000000000000000 ) ) ;
#69 = ORIENTED_EDGE ( 'NONE', *, *, #282, .T. ) ;
#70 = CARTESIAN_POINT ( 'NONE',  ( 0.0000000000000000000, 0.0000000000000000000, 0.0000000000000000000 ) ) ;
#71 = LOCAL_TIME ( 9, 50, 28.00000000000000000, #195 ) ;
#72 = ADVANCED_FACE ( 'NONE', ( #269 ), #204, .T. ) ;
#73 = CARTESIAN_POINT ( 'NONE',  ( 3.933550572338392856E-15, -1.379703813423383945E-16, 1.126613660676684114 ) ) ;
#74 = AXIS2_PLACEMENT_3D ( 'NONE', #232, #183, #178 ) ;
#75 = FACE_OUTER_BOUND ( 'NONE', #41, .T. ) ;
#76 = VECTOR ( 'NONE', #7, 1000.000000000000114 ) ;
#77 = CARTESIAN_POINT ( 'NONE',  ( 2.296212748401277125E-16, -1.874999999999997780, -2.296212748401292903E-16 ) ) ;
#78 = CARTESIAN_POINT ( 'NONE',  ( 5.237222008264700033E-14, 1.406024796245485897E-32, 15.00000000000000000 ) ) ;
#79 = PERSON_AND_ORGANIZATION ( #263, #281 ) ;
#80 = ORIENTED_EDGE ( 'NONE', *, *, #174, .F. ) ;
#81 = MECHANICAL_CONTEXT ( 'NONE', #101, 'mechanical' ) ;
#82 = CIRCLE ( 'NONE', #116, 1.874999999999993783 ) ;
#83 = DIRECTION ( 'NONE',  ( 4.108650548026116582E-31, 1.000000000000000000, 1.156482317317875176E-16 ) ) ;
#84 = EDGE_LOOP ( 'NONE', ( #305, #259 ) ) ;
#85 = DIRECTION ( 'NONE',  ( 3.491481338843133355E-15, -1.224646799147353454E-16, 1.000000000000000000 ) ) ;
#86 = VERTEX_POINT ( 'NONE', #266 ) ;
#87 = CALENDAR_DATE ( 2021, 3, 9 ) ;
#88 = CARTESIAN_POINT ( 'NONE',  ( 1.164959498583164092E-13, -1.874999999999997113, 15.00000000000000000 ) ) ;
#89 = ORIENTED_EDGE ( 'NONE', *, *, #150, .T. ) ;
#90 = PERSON_AND_ORGANIZATION_ROLE ( 'design_owner' ) ;
#91 = APPROVAL ( #294, 'UNSPECIFIED' ) ;
#92 = CIRCLE ( 'NONE', #21, 1.874999999999995337 ) ;
#93 = CC_DESIGN_PERSON_AND_ORGANIZATION_ASSIGNMENT ( #32, #202, ( #230 ) ) ;
#94 = FACE_OUTER_BOUND ( 'NONE', #84, .T. ) ;
#95 = CARTESIAN_POINT ( 'NONE',  ( 5.237222008264700033E-14, 1.406024796245485897E-32, 15.00000000000000000 ) ) ;
#96 = ORIENTED_EDGE ( 'NONE', *, *, #28, .F. ) ;
#97 = AXIS2_PLACEMENT_3D ( 'NONE', #70, #67, #175 ) ;
#98 = SECURITY_CLASSIFICATION ( '', '', #254 ) ;
#99 = ORIENTED_EDGE ( 'NONE', *, *, #150, .F. ) ;
#100 = CYLINDRICAL_SURFACE ( 'NONE', #97, 1.874999999999994671 ) ;
#101 = APPLICATION_CONTEXT ( 'configuration controlled 3d designs of mechanical parts and assemblies' ) ;
#102 = VECTOR ( 'NONE', #131, 1000.000000000000000 ) ;
#103 = CC_DESIGN_APPROVAL ( #158, ( #98 ) ) ;
#104 = FACE_OUTER_BOUND ( 'NONE', #333, .T. ) ;
#105 = DIRECTION ( 'NONE',  ( -3.491481338843133355E-15, 1.224646799147353454E-16, -1.000000000000000000 ) ) ;
#106 = LINE ( 'NONE', #4, #156 ) ;
#107 = CYLINDRICAL_SURFACE ( 'NONE', #74, 1.874999999999997780 ) ;
#108 = DIRECTION ( 'NONE',  ( -2.382254525458708792E-15, -0.7071067811865495711, -0.7071067811865455743 ) ) ;
#109 = DIRECTION ( 'NONE',  ( 1.903218546456022717E-15, 0.8571673007021097801, 0.5150380749100585964 ) ) ;
#110 = APPROVAL_PERSON_ORGANIZATION ( #55, #158, #292 ) ;
#111 = DIRECTION ( 'NONE',  ( -4.275831445896959482E-31, -1.000000000000000000, -1.224646799147353454E-16 ) ) ;
#112 = ORIENTED_EDGE ( 'NONE', *, *, #298, .F. ) ;
#113 = APPROVAL_STATUS ( 'not_yet_approved' ) ;
#114 = DIRECTION ( 'NONE',  ( -3.491481338843133355E-15, 1.224646799147353454E-16, -1.000000000000000000 ) ) ;
#115 = DATE_AND_TIME ( #10, #31 ) ;
#116 = AXIS2_PLACEMENT_3D ( 'NONE', #73, #114, #83 ) ;
#117 = CARTESIAN_POINT ( 'NONE',  ( 3.933550572338392856E-15, -1.379703813423383945E-16, 1.126613660676684114 ) ) ;
#118 = PERSON_AND_ORGANIZATION_ROLE ( 'creator' ) ;
#119 = LINE ( 'NONE', #220, #171 ) ;
#120 = ORIENTED_EDGE ( 'NONE', *, *, #122, .F. ) ;
#121 = FACE_OUTER_BOUND ( 'NONE', #303, .T. ) ;
#122 = EDGE_CURVE ( 'NONE', #167, #86, #211, .T. ) ;
#123 = DIRECTION ( 'NONE',  ( -3.491481338843133355E-15, 1.224646799147353454E-16, -1.000000000000000000 ) ) ;
#124 = PLANE ( 'NONE',  #227 ) ;
#125 = ORIENTED_EDGE ( 'NONE', *, *, #122, .T. ) ;
#126 = CIRCLE ( 'NONE', #316, 1.874999999999995337 ) ;
#127 = DIRECTION ( 'NONE',  ( -3.491481338843133355E-15, 1.224646799147353454E-16, -1.000000000000000000 ) ) ;
#128 = CIRCLE ( 'NONE', #323, 1.474999999999999867 ) ;
#129 = DIRECTION ( 'NONE',  ( 0.0000000000000000000, 1.000000000000000000, 0.0000000000000000000 ) ) ;
#130 = ADVANCED_FACE ( 'NONE', ( #234 ), #318, .F. ) ;
#131 = DIRECTION ( 'NONE',  ( 1.798245827342160317E-15, -0.8571673007021098911, 0.5150380749100582634 ) ) ;
#132 = DIRECTION ( 'NONE',  ( -3.491481338843133355E-15, 1.224646799147353454E-16, -1.000000000000000000 ) ) ;
#133 = LOCAL_TIME ( 9, 50, 28.00000000000000000, #56 ) ;
#134 = EDGE_CURVE ( 'NONE', #145, #250, #141, .T. ) ;
#135 = APPROVAL_STATUS ( 'not_yet_approved' ) ;
#136 = CIRCLE ( 'NONE', #181, 1.874999999999995337 ) ;
#137 = EDGE_CURVE ( 'NONE', #245, #334, #92, .T. ) ;
#138 = CARTESIAN_POINT ( 'NONE',  ( 2.296212748401273181E-16, -1.874999999999994671, -2.296212748401288958E-16 ) ) ;
#139 = ORIENTED_EDGE ( 'NONE', *, *, #17, .F. ) ;
#140 = DIRECTION ( 'NONE',  ( 0.0000000000000000000, 1.000000000000000000, 0.0000000000000000000 ) ) ;
#141 = CIRCLE ( 'NONE', #1, 1.875000000000000000 ) ;
#142 = LOCAL_TIME ( 9, 50, 28.00000000000000000, #272 ) ;
#143 = ORIENTED_EDGE ( 'NONE', *, *, #28, .T. ) ;
#144 = DIRECTION ( 'NONE',  ( -3.491481338843133355E-15, 1.224646799147353454E-16, -1.000000000000000000 ) ) ;
#145 = VERTEX_POINT ( 'NONE', #283 ) ;
#146 = AXIS2_PLACEMENT_3D ( 'NONE', #44, #144, #307 ) ;
#147 = CC_DESIGN_DATE_AND_TIME_ASSIGNMENT ( #297, #59, ( #33 ) ) ;
#148 = PRODUCT_DEFINITION_SHAPE ( 'NONE', 'NONE',  #33 ) ;
#149 = LINE ( 'NONE', #46, #186 ) ;
#150 = EDGE_CURVE ( 'NONE', #334, #64, #149, .T. ) ;
#151 = DIRECTION ( 'NONE',  ( -3.491481338843133355E-15, 1.224646799147353454E-16, -1.000000000000000000 ) ) ;
#152 = DIRECTION ( 'NONE',  ( -3.491481338843133355E-15, 1.224646799147353454E-16, -1.000000000000000000 ) ) ;
#153 = ORIENTED_EDGE ( 'NONE', *, *, #267, .T. ) ;
#154 = ADVANCED_FACE ( 'NONE', ( #104 ), #206, .T. ) ;
#155 = CALENDAR_DATE ( 2021, 3, 9 ) ;
#156 = VECTOR ( 'NONE', #109, 999.9999999999998863 ) ;
#157 = DATE_AND_TIME ( #155, #133 ) ;
#158 = APPROVAL ( #113, 'UNSPECIFIED' ) ;
#159 =( NAMED_UNIT ( * ) SI_UNIT ( $, .STERADIAN. ) SOLID_ANGLE_UNIT ( ) );
#160 = CARTESIAN_POINT ( 'NONE',  ( 1.815570296198429345E-13, 1.474999999999993650, 52.00000000000000000 ) ) ;
#161 = VECTOR ( 'NONE', #108, 1000.000000000000114 ) ;
#162 = CC_DESIGN_APPROVAL ( #91, ( #230 ) ) ;
#163 = CC_DESIGN_DATE_AND_TIME_ASSIGNMENT ( #192, #243, ( #98 ) ) ;
#164 = ORIENTED_EDGE ( 'NONE', *, *, #282, .F. ) ;
#165 = COORDINATED_UNIVERSAL_TIME_OFFSET ( 1, 0, .AHEAD. ) ;
#166 = DIRECTION ( 'NONE',  ( 0.0000000000000000000, 1.000000000000000000, 0.0000000000000000000 ) ) ;
#167 = VERTEX_POINT ( 'NONE', #36 ) ;
#168 = EDGE_CURVE ( 'NONE', #245, #86, #246, .T. ) ;
#169 = DIRECTION ( 'NONE',  ( -4.108650548026116582E-31, -1.000000000000000000, -1.156482317317875176E-16 ) ) ;
#170 = ORIENTED_EDGE ( 'NONE', *, *, #226, .T. ) ;
#171 = VECTOR ( 'NONE', #194, 1000.000000000000000 ) ;
#172 = CARTESIAN_POINT ( 'NONE',  ( 5.237222008264700033E-14, -1.836970198721029983E-15, 15.00000000000000000 ) ) ;
#173 = DIRECTION ( 'NONE',  ( 3.491481338843133355E-15, -1.224646799147353454E-16, 1.000000000000000000 ) ) ;
#174 = EDGE_CURVE ( 'NONE', #306, #256, #40, .T. ) ;
#175 = DIRECTION ( 'NONE',  ( 4.275831445896959482E-31, 1.000000000000000000, 1.224646799147353454E-16 ) ) ;
#176 = CIRCLE ( 'NONE', #30, 1.875000000000000000 ) ;
#177 = LOCAL_TIME ( 9, 50, 28.00000000000000000, #165 ) ;
#178 = DIRECTION ( 'NONE',  ( 4.275831445896960358E-31, 1.000000000000000000, 1.224646799147353454E-16 ) ) ;
#179 = EDGE_CURVE ( 'NONE', #256, #306, #128, .T. ) ;
#180 = CARTESIAN_POINT ( 'NONE',  ( 1.801604370843056811E-13, -6.319177483600343742E-15, 51.60000000000000142 ) ) ;
#181 = AXIS2_PLACEMENT_3D ( 'NONE', #304, #62, #140 ) ;
#182 = DIRECTION ( 'NONE',  ( 0.0000000000000000000, 1.000000000000000000, 0.0000000000000000000 ) ) ;
#183 = DIRECTION ( 'NONE',  ( -3.491481338843133355E-15, 1.224646799147353454E-16, -1.000000000000000000 ) ) ;
#184 = PERSON_AND_ORGANIZATION ( #263, #281 ) ;
#185 = ORIENTED_EDGE ( 'NONE', *, *, #179, .T. ) ;
#186 = VECTOR ( 'NONE', #2, 1000.000000000000000 ) ;
#187 =( GEOMETRIC_REPRESENTATION_CONTEXT ( 3 ) GLOBAL_UNCERTAINTY_ASSIGNED_CONTEXT ( ( #251 ) ) GLOBAL_UNIT_ASSIGNED_CONTEXT ( ( #60, #213, #159 ) ) REPRESENTATION_CONTEXT ( 'NONE', 'WORKASPACE' ) );
#188 = AXIS2_PLACEMENT_3D ( 'NONE', #189, #34, #321 ) ;
#189 = CARTESIAN_POINT ( 'NONE',  ( 0.0000000000000000000, 0.0000000000000000000, 0.0000000000000000000 ) ) ;
#190 = ADVANCED_FACE ( 'NONE', ( #224 ), #217, .T. ) ;
#191 = DIRECTION ( 'NONE',  ( -4.108650548026116582E-31, -1.000000000000000000, -1.156482317317875176E-16 ) ) ;
#192 = DATE_AND_TIME ( #247, #177 ) ;
#193 = DIRECTION ( 'NONE',  ( 4.275831445896959482E-31, 1.000000000000000000, 1.224646799147353454E-16 ) ) ;
#194 = DIRECTION ( 'NONE',  ( -3.491481338843133355E-15, 1.224646799147353454E-16, -1.000000000000000000 ) ) ;
#195 = COORDINATED_UNIVERSAL_TIME_OFFSET ( 1, 0, .AHEAD. ) ;
#196 = AXIS2_PLACEMENT_3D ( 'NONE', #317, #53, #3 ) ;
#197 = PERSON_AND_ORGANIZATION_ROLE ( 'classification_officer' ) ;
#198 = CARTESIAN_POINT ( 'NONE',  ( 1.815570296198429345E-13, -6.368163355566237959E-15, 52.00000000000000000 ) ) ;
#199 = EDGE_LOOP ( 'NONE', ( #22, #153, #96, #289 ) ) ;
#200 = DIRECTION ( 'NONE',  ( -4.275831445896959482E-31, -1.000000000000000000, -1.224646799147353454E-16 ) ) ;
#201 = AXIS2_PLACEMENT_3D ( 'NONE', #61, #273, #193 ) ;
#202 = PERSON_AND_ORGANIZATION_ROLE ( 'design_supplier' ) ;
#203 = CARTESIAN_POINT ( 'NONE',  ( 1.815570296198429345E-13, -6.368163355566237959E-15, 52.00000000000000000 ) ) ;
#204 = CONICAL_SURFACE ( 'NONE', #35, 1.474999999999999867, 0.7853981633974512766 ) ;
#205 = CARTESIAN_POINT ( 'NONE',  ( 1.815570296198429345E-13, 1.106072839713111091E-32, 52.00000000000000000 ) ) ;
#206 = CYLINDRICAL_SURFACE ( 'NONE', #201, 1.874999999999994671 ) ;
#207 = ADVANCED_FACE ( 'NONE', ( #94 ), #124, .T. ) ;
#208 = DIRECTION ( 'NONE',  ( 0.0000000000000000000, 1.000000000000000000, 0.0000000000000000000 ) ) ;
#209 = FACE_OUTER_BOUND ( 'NONE', #218, .T. ) ;
#210 = AXIS2_PLACEMENT_3D ( 'NONE', #228, #105, #208 ) ;
#211 = LINE ( 'NONE', #27, #102 ) ;
#212 = CC_DESIGN_PERSON_AND_ORGANIZATION_ASSIGNMENT ( #184, #118, ( #33 ) ) ;
#213 =( NAMED_UNIT ( * ) PLANE_ANGLE_UNIT ( ) SI_UNIT ( $, .RADIAN. ) );
#214 = DIRECTION ( 'NONE',  ( -3.491481338843133355E-15, 1.224646799147353454E-16, -1.000000000000000000 ) ) ;
#215 = ORIENTED_EDGE ( 'NONE', *, *, #336, .T. ) ;
#216 = DATE_AND_TIME ( #87, #71 ) ;
#217 = CONICAL_SURFACE ( 'NONE', #65, 1.874999999999993783, 1.029744258676649649 ) ;
#218 = EDGE_LOOP ( 'NONE', ( #139, #223, #18, #164 ) ) ;
#219 = PERSON_AND_ORGANIZATION ( #263, #281 ) ;
#220 = CARTESIAN_POINT ( 'NONE',  ( 8.017183961056790600E-31, 1.874999999999997780, 2.296212748401285014E-16 ) ) ;
#221 = PERSON_AND_ORGANIZATION ( #263, #281 ) ;
#222 = CC_DESIGN_PERSON_AND_ORGANIZATION_ASSIGNMENT ( #237, #271, ( #230 ) ) ;
#223 = ORIENTED_EDGE ( 'NONE', *, *, #134, .T. ) ;
#224 = FACE_OUTER_BOUND ( 'NONE', #275, .T. ) ;
#225 = DESIGN_CONTEXT ( 'detailed design', #335, 'design' ) ;
#226 = EDGE_CURVE ( 'NONE', #64, #86, #25, .T. ) ;
#227 = AXIS2_PLACEMENT_3D ( 'NONE', #95, #173, #200 ) ;
#228 = CARTESIAN_POINT ( 'NONE',  ( 1.815570296198429345E-13, -6.368163355566237959E-15, 52.00000000000000000 ) ) ;
#229 = CC_DESIGN_PERSON_AND_ORGANIZATION_ASSIGNMENT ( #219, #90, ( #279 ) ) ;
#230 = PRODUCT_DEFINITION_FORMATION_WITH_SPECIFIED_SOURCE ( 'ANY', '', #279, .NOT_KNOWN. ) ;
#231 = PLANE ( 'NONE',  #301 ) ;
#232 = CARTESIAN_POINT ( 'NONE',  ( 0.0000000000000000000, 0.0000000000000000000, 0.0000000000000000000 ) ) ;
#233 = LINE ( 'NONE', #264, #161 ) ;
#234 = FACE_OUTER_BOUND ( 'NONE', #38, .T. ) ;
#235 = DIRECTION ( 'NONE',  ( -3.491481338843133355E-15, 1.224646799147353454E-16, -1.000000000000000000 ) ) ;
#236 = CARTESIAN_POINT ( 'NONE',  ( 5.237222008264700033E-14, -1.836970198721029983E-15, 15.00000000000000000 ) ) ;
#237 = PERSON_AND_ORGANIZATION ( #263, #281 ) ;
#238 = ADVANCED_FACE ( 'NONE', ( #257 ), #100, .T. ) ;
#239 = EDGE_LOOP ( 'NONE', ( #120, #54, #170 ) ) ;
#240 = AXIS2_PLACEMENT_3D ( 'NONE', #203, #255, #166 ) ;
#241 = APPLICATION_PROTOCOL_DEFINITION ( 'international standard', 'config_control_design', 1994, #101 ) ;
#242 = CONICAL_SURFACE ( 'NONE', #210, 1.474999999999999867, 0.7853981633974512766 ) ;
#243 = DATE_TIME_ROLE ( 'classification_date' ) ;
#244 = PERSON_AND_ORGANIZATION ( #263, #281 ) ;
#245 = VERTEX_POINT ( 'NONE', #39 ) ;
#246 = LINE ( 'NONE', #138, #49 ) ;
#247 = CALENDAR_DATE ( 2021, 3, 9 ) ;
#248 = CARTESIAN_POINT ( 'NONE',  ( 1.810638616909314784E-13, -1.475000000000006306, 52.00000000000000000 ) ) ;
#249 = CC_DESIGN_APPROVAL ( #274, ( #33 ) ) ;
#250 = VERTEX_POINT ( 'NONE', #280 ) ;
#251 = UNCERTAINTY_MEASURE_WITH_UNIT (LENGTH_MEASURE( 1.000000000000000082E-05 ), #60, 'distance_accuracy_value', 'NONE');
#252 = VERTEX_POINT ( 'NONE', #331 ) ;
#253 = EDGE_CURVE ( 'NONE', #334, #245, #136, .T. ) ;
#254 = SECURITY_CLASSIFICATION_LEVEL ( 'unclassified' ) ;
#255 = DIRECTION ( 'NONE',  ( -3.491481338843133355E-15, 1.224646799147353454E-16, -1.000000000000000000 ) ) ;
#256 = VERTEX_POINT ( 'NONE', #248 ) ;
#257 = FACE_OUTER_BOUND ( 'NONE', #310, .T. ) ;
#258 = AXIS2_PLACEMENT_3D ( 'NONE', #78, #288, #111 ) ;
#259 = ORIENTED_EDGE ( 'NONE', *, *, #137, .F. ) ;
#260 = DIRECTION ( 'NONE',  ( 3.491481338843133355E-15, -1.224646799147353454E-16, 1.000000000000000000 ) ) ;
#261 = EDGE_CURVE ( 'NONE', #252, #320, #126, .T. ) ;
#262 = CYLINDRICAL_SURFACE ( 'NONE', #16, 1.874999999999997780 ) ;
#263 = PERSON ( 'UNSPECIFIED', 'UNSPECIFIED', 'UNSPECIFIED', ('UNSPECIFIED'), ('UNSPECIFIED'), ('UNSPECIFIED') ) ;
#264 = CARTESIAN_POINT ( 'NONE',  ( 1.817376650227171758E-13, -1.475000000000006306, 52.00000000000000000 ) ) ;
#265 = PRODUCT_RELATED_PRODUCT_CATEGORY ( 'detail', '', ( #279 ) ) ;
#266 = CARTESIAN_POINT ( 'NONE',  ( 3.933550572338392067E-15, -1.874999999999994005, 1.126613660676683892 ) ) ;
#267 = EDGE_CURVE ( 'NONE', #256, #145, #233, .T. ) ;
#268 = DIRECTION ( 'NONE',  ( 0.0000000000000000000, 1.000000000000000000, 0.0000000000000000000 ) ) ;
#269 = FACE_OUTER_BOUND ( 'NONE', #199, .T. ) ;
#270 = CARTESIAN_POINT ( 'NONE',  ( 1.801604370843056811E-13, -6.319177483600343742E-15, 51.60000000000000142 ) ) ;
#271 = PERSON_AND_ORGANIZATION_ROLE ( 'creator' ) ;
#272 = COORDINATED_UNIVERSAL_TIME_OFFSET ( 1, 0, .AHEAD. ) ;
#273 = DIRECTION ( 'NONE',  ( -3.491481338843133355E-15, 1.224646799147353454E-16, -1.000000000000000000 ) ) ;
#274 = APPROVAL ( #135, 'UNSPECIFIED' ) ;
#275 = EDGE_LOOP ( 'NONE', ( #14, #125, #308 ) ) ;
#276 = ORIENTED_EDGE ( 'NONE', *, *, #332, .F. ) ;
#277 = ORIENTED_EDGE ( 'NONE', *, *, #17, .T. ) ;
#278 = ORIENTED_EDGE ( 'NONE', *, *, #168, .F. ) ;
#279 = PRODUCT ( '54560', '54560', '', ( #81 ) ) ;
#280 = CARTESIAN_POINT ( 'NONE',  ( 1.801604370843056811E-13, 1.874999999999993561, 51.60000000000000142 ) ) ;
#281 = ORGANIZATION ( 'UNSPECIFIED', 'UNSPECIFIED', '' ) ;
#282 = EDGE_CURVE ( 'NONE', #320, #252, #6, .T. ) ;
#283 = CARTESIAN_POINT ( 'NONE',  ( 1.164959498583163082E-13, -1.875000000000006217, 51.60000000000000142 ) ) ;
#284 = MANIFOLD_SOLID_BREP ( 'Corps-Déplacer/Copier1[1]', #45 ) ;
#285 = VECTOR ( 'NONE', #235, 1000.000000000000000 ) ;
#286 = APPROVAL_PERSON_ORGANIZATION ( #79, #91, #290 ) ;
#287 = MANIFOLD_SOLID_BREP ( 'Corps-Déplacer/Copier1[2]', #330 ) ;
#288 = DIRECTION ( 'NONE',  ( 3.491481338843133355E-15, -1.224646799147353454E-16, 1.000000000000000000 ) ) ;
#289 = ORIENTED_EDGE ( 'NONE', *, *, #336, .F. ) ;
#290 = APPROVAL_ROLE ( '' ) ;
#291 = ORIENTED_EDGE ( 'NONE', *, *, #267, .F. ) ;
#292 = APPROVAL_ROLE ( '' ) ;
#293 = ADVANCED_FACE ( 'NONE', ( #311 ), #242, .T. ) ;
#294 = APPROVAL_STATUS ( 'not_yet_approved' ) ;
#295 = CARTESIAN_POINT ( 'NONE',  ( 1.815570296198429345E-13, 1.474999999999993650, 52.00000000000000000 ) ) ;
#296 = ORIENTED_EDGE ( 'NONE', *, *, #168, .T. ) ;
#297 = DATE_AND_TIME ( #37, #142 ) ;
#298 = EDGE_CURVE ( 'NONE', #86, #64, #82, .T. ) ;
#299 = ORIENTED_EDGE ( 'NONE', *, *, #261, .F. ) ;
#300 = APPROVAL_DATE_TIME ( #115, #158 ) ;
#301 = AXIS2_PLACEMENT_3D ( 'NONE', #205, #151, #26 ) ;
#302 = APPROVAL_DATE_TIME ( #216, #274 ) ;
#303 = EDGE_LOOP ( 'NONE', ( #80, #19 ) ) ;
#304 = CARTESIAN_POINT ( 'NONE',  ( 5.237222008264700033E-14, -1.836970198721029983E-15, 15.00000000000000000 ) ) ;
#305 = ORIENTED_EDGE ( 'NONE', *, *, #253, .F. ) ;
#306 = VERTEX_POINT ( 'NONE', #295 ) ;
#307 = DIRECTION ( 'NONE',  ( 4.108650548026116582E-31, 1.000000000000000000, 1.156482317317875176E-16 ) ) ;
#308 = ORIENTED_EDGE ( 'NONE', *, *, #298, .T. ) ;
#309 = DIRECTION ( 'NONE',  ( -3.491481338843133355E-15, 1.224646799147353454E-16, -1.000000000000000000 ) ) ;
#310 = EDGE_LOOP ( 'NONE', ( #278, #337, #89, #112 ) ) ;
#311 = FACE_OUTER_BOUND ( 'NONE', #322, .T. ) ;
#312 = AXIS2_PLACEMENT_3D ( 'NONE', #117, #85, #191 ) ;
#313 = ADVANCED_FACE ( 'NONE', ( #324 ), #12, .T. ) ;
#314 = DIRECTION ( 'NONE',  ( -3.491481338843133355E-15, 1.224646799147353454E-16, -1.000000000000000000 ) ) ;
#315 = DIRECTION ( 'NONE',  ( 4.275831445896960358E-31, 1.000000000000000000, 1.224646799147353454E-16 ) ) ;
#316 = AXIS2_PLACEMENT_3D ( 'NONE', #172, #123, #268 ) ;
#317 = CARTESIAN_POINT ( 'NONE',  ( 5.237222008264700033E-14, -1.836970198721029983E-15, 15.00000000000000000 ) ) ;
#318 = PLANE ( 'NONE',  #258 ) ;
#319 = DIRECTION ( 'NONE',  ( 0.0000000000000000000, 1.000000000000000000, 0.0000000000000000000 ) ) ;
#320 = VERTEX_POINT ( 'NONE', #88 ) ;
#321 = DIRECTION ( 'NONE',  ( 1.000000000000000000, 0.0000000000000000000, 0.0000000000000000000 ) ) ;
#322 = EDGE_LOOP ( 'NONE', ( #291, #185, #215, #48 ) ) ;
#323 = AXIS2_PLACEMENT_3D ( 'NONE', #198, #309, #68 ) ;
#324 = FACE_OUTER_BOUND ( 'NONE', #239, .T. ) ;
#325 = ORIENTED_EDGE ( 'NONE', *, *, #261, .T. ) ;
#326 = ADVANCED_BREP_SHAPE_REPRESENTATION ( '54560', ( #284, #287, #188 ), #187 ) ;
#327 = LINE ( 'NONE', #160, #76 ) ;
#328 = ORIENTED_EDGE ( 'NONE', *, *, #226, .F. ) ;
#329 = APPROVAL_ROLE ( '' ) ;
#330 = CLOSED_SHELL ( 'NONE', ( #154, #313, #190, #238, #207 ) ) ;
#331 = CARTESIAN_POINT ( 'NONE',  ( 5.237222008264700033E-14, 1.874999999999993561, 15.00000000000000000 ) ) ;
#332 = EDGE_CURVE ( 'NONE', #250, #252, #119, .T. ) ;
#333 = EDGE_LOOP ( 'NONE', ( #42, #296, #328, #99 ) ) ;
#334 = VERTEX_POINT ( 'NONE', #13 ) ;
#335 = APPLICATION_CONTEXT ( 'configuration controlled 3d designs of mechanical parts and assemblies' ) ;
#336 = EDGE_CURVE ( 'NONE', #306, #250, #327, .T. ) ;
#337 = ORIENTED_EDGE ( 'NONE', *, *, #137, .T. ) ;
ENDSEC;
END-ISO-10303-21;
