ISO-10303-21;
HEADER;
FILE_DESCRIPTION (( 'STEP AP203' ),
    '1' );
FILE_NAME ('54558.step',
    '2021-09-03T07:50:25',
    ( '' ),
    ( '' ),
    'SwSTEP 2.0',
    'SolidWorks 2019',
    '' );
FILE_SCHEMA (( 'CONFIG_CONTROL_DESIGN' ));
ENDSEC;

DATA;
#1 = CC_DESIGN_APPROVAL ( #272, ( #296 ) ) ;
#2 = CYLINDRICAL_SURFACE ( 'NONE', #74, 1.849999999999997868 ) ;
#3 = LOCAL_TIME ( 9, 50, 25.00000000000000000, #302 ) ;
#4 = APPLICATION_PROTOCOL_DEFINITION ( 'international standard', 'config_control_design', 1994, #140 ) ;
#5 = CARTESIAN_POINT ( 'NONE',  ( 5.237222008264700033E-14, 1.849999999999993872, 15.00000000000000000 ) ) ;
#6 = VECTOR ( 'NONE', #58, 1000.000000000000000 ) ;
#7 = ADVANCED_FACE ( 'NONE', ( #94 ), #167, .T. ) ;
#8 = LINE ( 'NONE', #213, #330 ) ;
#9 = DATE_AND_TIME ( #146, #174 ) ;
#10 = PERSON_AND_ORGANIZATION ( #12, #39 ) ;
#11 = EDGE_LOOP ( 'NONE', ( #221, #305 ) ) ;
#12 = PERSON ( 'UNSPECIFIED', 'UNSPECIFIED', 'UNSPECIFIED', ('UNSPECIFIED'), ('UNSPECIFIED'), ('UNSPECIFIED') ) ;
#13 = ORIENTED_EDGE ( 'NONE', *, *, #260, .T. ) ;
#14 = DATE_AND_TIME ( #304, #51 ) ;
#15 = ORIENTED_EDGE ( 'NONE', *, *, #175, .T. ) ;
#16 = PERSON_AND_ORGANIZATION ( #12, #39 ) ;
#17 = VERTEX_POINT ( 'NONE', #128 ) ;
#18 = ORIENTED_EDGE ( 'NONE', *, *, #288, .T. ) ;
#19 = AXIS2_PLACEMENT_3D ( 'NONE', #195, #197, #142 ) ;
#20 = PRODUCT_DEFINITION_SHAPE ( 'NONE', 'NONE',  #296 ) ;
#21 = DIRECTION ( 'NONE',  ( -3.491481338843133355E-15, 1.224646799147353454E-16, -1.000000000000000000 ) ) ;
#22 = CARTESIAN_POINT ( 'NONE',  ( 4.107662889216140912E-15, 1.849999999999993872, 1.111592145200995363 ) ) ;
#23 =( GEOMETRIC_REPRESENTATION_CONTEXT ( 3 ) GLOBAL_UNCERTAINTY_ASSIGNED_CONTEXT ( ( #215 ) ) GLOBAL_UNIT_ASSIGNED_CONTEXT ( ( #114, #189, #163 ) ) REPRESENTATION_CONTEXT ( 'NONE', 'WORKASPACE' ) );
#24 = APPROVAL_PERSON_ORGANIZATION ( #10, #161, #253 ) ;
#25 = DIRECTION ( 'NONE',  ( 0.0000000000000000000, 1.000000000000000000, 0.0000000000000000000 ) ) ;
#26 = CARTESIAN_POINT ( 'NONE',  ( 1.801604370843056811E-13, 1.849999999999993872, 51.60000000000000142 ) ) ;
#27 = EDGE_CURVE ( 'NONE', #17, #124, #81, .T. ) ;
#28 = SECURITY_CLASSIFICATION ( '', '', #246 ) ;
#29 = DIRECTION ( 'NONE',  ( 4.275831445896959482E-31, 1.000000000000000000, 1.224646799147353700E-16 ) ) ;
#30 = CARTESIAN_POINT ( 'NONE',  ( 1.801604370843056811E-13, -6.319177483600343742E-15, 51.60000000000000142 ) ) ;
#31 = LINE ( 'NONE', #241, #265 ) ;
#32 = CIRCLE ( 'NONE', #60, 1.849999999999995426 ) ;
#33 = CIRCLE ( 'NONE', #244, 1.450000000000000178 ) ;
#34 = PERSON_AND_ORGANIZATION_ROLE ( 'design_supplier' ) ;
#35 = COORDINATED_UNIVERSAL_TIME_OFFSET ( 1, 0, .AHEAD. ) ;
#36 = ORIENTED_EDGE ( 'NONE', *, *, #329, .F. ) ;
#37 = MECHANICAL_CONTEXT ( 'NONE', #140, 'mechanical' ) ;
#38 = VERTEX_POINT ( 'NONE', #26 ) ;
#39 = ORGANIZATION ( 'UNSPECIFIED', 'UNSPECIFIED', '' ) ;
#40 = APPROVAL_STATUS ( 'not_yet_approved' ) ;
#41 = MANIFOLD_SOLID_BREP ( 'Corps-Déplacer/Copier1[2]', #268 ) ;
#42 = ORIENTED_EDGE ( 'NONE', *, *, #79, .F. ) ;
#43 = DATE_AND_TIME ( #173, #267 ) ;
#44 = ORIENTED_EDGE ( 'NONE', *, *, #234, .T. ) ;
#45 = EDGE_LOOP ( 'NONE', ( #276, #169, #251 ) ) ;
#46 = DIRECTION ( 'NONE',  ( -3.491481338843133355E-15, 1.224646799147353454E-16, -1.000000000000000000 ) ) ;
#47 = CIRCLE ( 'NONE', #145, 1.450000000000000178 ) ;
#48 = DIRECTION ( 'NONE',  ( 0.0000000000000000000, 1.000000000000000000, 0.0000000000000000000 ) ) ;
#49 = CARTESIAN_POINT ( 'NONE',  ( 5.237222008264700033E-14, 1.849999999999993872, 15.00000000000000000 ) ) ;
#50 = ADVANCED_FACE ( 'NONE', ( #290 ), #61, .T. ) ;
#51 = LOCAL_TIME ( 9, 50, 25.00000000000000000, #141 ) ;
#52 = DIRECTION ( 'NONE',  ( -4.275831445896959482E-31, -1.000000000000000000, -1.224646799147353454E-16 ) ) ;
#53 = CC_DESIGN_SECURITY_CLASSIFICATION ( #28, ( #109 ) ) ;
#54 = DIRECTION ( 'NONE',  ( 0.0000000000000000000, 1.000000000000000000, 0.0000000000000000000 ) ) ;
#55 = EDGE_CURVE ( 'NONE', #147, #69, #33, .T. ) ;
#56 = CARTESIAN_POINT ( 'NONE',  ( 3.881103231373881046E-15, -1.361307762577738924E-16, 1.111592145200995141 ) ) ;
#57 = DIRECTION ( 'NONE',  ( -3.491481338843133355E-15, 1.224646799147353454E-16, -1.000000000000000000 ) ) ;
#58 = DIRECTION ( 'NONE',  ( -3.491481338843133355E-15, 1.224646799147353454E-16, -1.000000000000000000 ) ) ;
#59 = CARTESIAN_POINT ( 'NONE',  ( 1.164928882413185351E-13, -1.849999999999997202, 15.00000000000000000 ) ) ;
#60 = AXIS2_PLACEMENT_3D ( 'NONE', #187, #269, #116 ) ;
#61 = CONICAL_SURFACE ( 'NONE', #84, 1.450000000000000178, 0.7853981633974512766 ) ;
#62 = PERSON_AND_ORGANIZATION ( #12, #39 ) ;
#63 = ORIENTED_EDGE ( 'NONE', *, *, #175, .F. ) ;
#64 = PERSON_AND_ORGANIZATION_ROLE ( 'design_owner' ) ;
#65 = ORIENTED_EDGE ( 'NONE', *, *, #66, .F. ) ;
#66 = EDGE_CURVE ( 'NONE', #38, #301, #282, .T. ) ;
#67 = EDGE_CURVE ( 'NONE', #69, #147, #47, .T. ) ;
#68 = APPROVAL_DATE_TIME ( #196, #272 ) ;
#69 = VERTEX_POINT ( 'NONE', #210 ) ;
#70 = AXIS2_PLACEMENT_3D ( 'NONE', #56, #271, #87 ) ;
#71 = AXIS2_PLACEMENT_3D ( 'NONE', #236, #207, #314 ) ;
#72 = ORIENTED_EDGE ( 'NONE', *, *, #224, .F. ) ;
#73 = ORIENTED_EDGE ( 'NONE', *, *, #79, .T. ) ;
#74 = AXIS2_PLACEMENT_3D ( 'NONE', #294, #317, #29 ) ;
#75 = PRODUCT ( '54558', '54558', '', ( #37 ) ) ;
#76 = CYLINDRICAL_SURFACE ( 'NONE', #139, 1.849999999999994982 ) ;
#77 = DIRECTION ( 'NONE',  ( -3.491481338843133355E-15, 1.224646799147353454E-16, -1.000000000000000000 ) ) ;
#78 = CARTESIAN_POINT ( 'NONE',  ( 1.815570296198429345E-13, 1.449999999999993738, 52.00000000000000000 ) ) ;
#79 = EDGE_CURVE ( 'NONE', #38, #228, #102, .T. ) ;
#80 = EDGE_CURVE ( 'NONE', #228, #332, #232, .T. ) ;
#81 = LINE ( 'NONE', #83, #193 ) ;
#82 = AXIS2_PLACEMENT_3D ( 'NONE', #264, #333, #204 ) ;
#83 = CARTESIAN_POINT ( 'NONE',  ( 4.107662889216140912E-15, 1.849999999999993872, 1.111592145200995363 ) ) ;
#84 = AXIS2_PLACEMENT_3D ( 'NONE', #184, #258, #25 ) ;
#85 = AXIS2_PLACEMENT_3D ( 'NONE', #30, #293, #266 ) ;
#86 = CARTESIAN_POINT ( 'NONE',  ( 3.881103231373881046E-15, -1.361307762577738924E-16, 1.111592145200995141 ) ) ;
#87 = DIRECTION ( 'NONE',  ( 4.164172852729171573E-31, 1.000000000000000000, 1.172110456741089526E-16 ) ) ;
#88 = VECTOR ( 'NONE', #233, 1000.000000000000000 ) ;
#89 = CC_DESIGN_DATE_AND_TIME_ASSIGNMENT ( #43, #202, ( #28 ) ) ;
#90 = FACE_OUTER_BOUND ( 'NONE', #45, .T. ) ;
#91 = APPLICATION_PROTOCOL_DEFINITION ( 'international standard', 'config_control_design', 1994, #131 ) ;
#92 = EDGE_LOOP ( 'NONE', ( #307, #285, #97, #72 ) ) ;
#93 = PERSON_AND_ORGANIZATION_ROLE ( 'creator' ) ;
#94 = FACE_OUTER_BOUND ( 'NONE', #92, .T. ) ;
#95 = ADVANCED_BREP_SHAPE_REPRESENTATION ( '54558', ( #270, #41, #182 ), #23 ) ;
#96 = PERSON_AND_ORGANIZATION ( #12, #39 ) ;
#97 = ORIENTED_EDGE ( 'NONE', *, *, #262, .T. ) ;
#98 = ORIENTED_EDGE ( 'NONE', *, *, #288, .F. ) ;
#99 = CC_DESIGN_APPROVAL ( #161, ( #109 ) ) ;
#100 = AXIS2_PLACEMENT_3D ( 'NONE', #108, #157, #52 ) ;
#101 = EDGE_LOOP ( 'NONE', ( #257, #18, #65, #144 ) ) ;
#102 = LINE ( 'NONE', #134, #188 ) ;
#103 = CARTESIAN_POINT ( 'NONE',  ( 0.0000000000000000000, 0.0000000000000000000, 0.0000000000000000000 ) ) ;
#104 = DIRECTION ( 'NONE',  ( 0.0000000000000000000, 1.000000000000000000, 0.0000000000000000000 ) ) ;
#105 = CC_DESIGN_PERSON_AND_ORGANIZATION_ASSIGNMENT ( #16, #170, ( #109 ) ) ;
#106 = APPROVAL ( #250, 'UNSPECIFIED' ) ;
#107 = DIRECTION ( 'NONE',  ( 4.275831445896959482E-31, 1.000000000000000000, 1.224646799147353454E-16 ) ) ;
#108 = CARTESIAN_POINT ( 'NONE',  ( 5.237222008264700033E-14, 1.387277798962213087E-32, 15.00000000000000000 ) ) ;
#109 = PRODUCT_DEFINITION_FORMATION_WITH_SPECIFIED_SOURCE ( 'ANY', '', #75, .NOT_KNOWN. ) ;
#110 = CARTESIAN_POINT ( 'NONE',  ( 0.0000000000000000000, 0.0000000000000000000, 0.0000000000000000000 ) ) ;
#111 = AXIS2_PLACEMENT_3D ( 'NONE', #206, #179, #54 ) ;
#112 = CIRCLE ( 'NONE', #85, 1.850000000000000089 ) ;
#113 = CARTESIAN_POINT ( 'NONE',  ( 7.910288174909353016E-31, 1.849999999999994982, 2.265596578422597677E-16 ) ) ;
#114 =( LENGTH_UNIT ( ) NAMED_UNIT ( * ) SI_UNIT ( .MILLI., .METRE. ) );
#115 = CC_DESIGN_PERSON_AND_ORGANIZATION_ASSIGNMENT ( #62, #331, ( #28 ) ) ;
#116 = DIRECTION ( 'NONE',  ( 0.0000000000000000000, 1.000000000000000000, 0.0000000000000000000 ) ) ;
#117 = EDGE_LOOP ( 'NONE', ( #303, #328 ) ) ;
#118 = APPROVAL_PERSON_ORGANIZATION ( #275, #106, #327 ) ;
#119 = COORDINATED_UNIVERSAL_TIME_OFFSET ( 1, 0, .AHEAD. ) ;
#120 = EDGE_LOOP ( 'NONE', ( #281, #283, #279 ) ) ;
#121 = CALENDAR_DATE ( 2021, 3, 9 ) ;
#122 = VERTEX_POINT ( 'NONE', #313 ) ;
#123 = CARTESIAN_POINT ( 'NONE',  ( 0.0000000000000000000, 0.0000000000000000000, 0.0000000000000000000 ) ) ;
#124 = VERTEX_POINT ( 'NONE', #22 ) ;
#125 = CARTESIAN_POINT ( 'NONE',  ( 3.881103231373880257E-15, -1.849999999999994316, 1.111592145200994919 ) ) ;
#126 = LINE ( 'NONE', #125, #88 ) ;
#127 = EDGE_CURVE ( 'NONE', #17, #122, #126, .T. ) ;
#128 = CARTESIAN_POINT ( 'NONE',  ( 0.0000000000000000000, 0.0000000000000000000, 0.0000000000000000000 ) ) ;
#129 = ADVANCED_FACE ( 'NONE', ( #336 ), #337, .F. ) ;
#130 = APPROVAL_PERSON_ORGANIZATION ( #96, #272, #143 ) ;
#131 = APPLICATION_CONTEXT ( 'configuration controlled 3d designs of mechanical parts and assemblies' ) ;
#132 = DIRECTION ( 'NONE',  ( 0.0000000000000000000, 1.000000000000000000, 0.0000000000000000000 ) ) ;
#133 = AXIS2_PLACEMENT_3D ( 'NONE', #229, #335, #48 ) ;
#134 = CARTESIAN_POINT ( 'NONE',  ( 7.910288174909365277E-31, 1.849999999999997868, 2.265596578422601621E-16 ) ) ;
#135 = DIRECTION ( 'NONE',  ( -3.491481338843133355E-15, 1.224646799147353454E-16, -1.000000000000000000 ) ) ;
#136 = FACE_OUTER_BOUND ( 'NONE', #248, .T. ) ;
#137 = ADVANCED_FACE ( 'NONE', ( #230 ), #274, .T. ) ;
#138 = FACE_OUTER_BOUND ( 'NONE', #219, .T. ) ;
#139 = AXIS2_PLACEMENT_3D ( 'NONE', #103, #178, #205 ) ;
#140 = APPLICATION_CONTEXT ( 'configuration controlled 3d designs of mechanical parts and assemblies' ) ;
#141 = COORDINATED_UNIVERSAL_TIME_OFFSET ( 1, 0, .AHEAD. ) ;
#142 = DIRECTION ( 'NONE',  ( 4.275831445896959482E-31, 1.000000000000000000, 1.224646799147353454E-16 ) ) ;
#143 = APPROVAL_ROLE ( '' ) ;
#144 = ORIENTED_EDGE ( 'NONE', *, *, #234, .F. ) ;
#145 = AXIS2_PLACEMENT_3D ( 'NONE', #181, #46, #132 ) ;
#146 = CALENDAR_DATE ( 2021, 3, 9 ) ;
#147 = VERTEX_POINT ( 'NONE', #78 ) ;
#148 = CC_DESIGN_PERSON_AND_ORGANIZATION_ASSIGNMENT ( #325, #34, ( #109 ) ) ;
#149 = CC_DESIGN_PERSON_AND_ORGANIZATION_ASSIGNMENT ( #225, #93, ( #296 ) ) ;
#150 = VERTEX_POINT ( 'NONE', #49 ) ;
#151 = LOCAL_TIME ( 9, 50, 25.00000000000000000, #119 ) ;
#152 = CARTESIAN_POINT ( 'NONE',  ( 1.815570296198429345E-13, -6.368163355566237959E-15, 52.00000000000000000 ) ) ;
#153 = DIRECTION ( 'NONE',  ( -3.491481338843133355E-15, 1.224646799147353454E-16, -1.000000000000000000 ) ) ;
#154 = AXIS2_PLACEMENT_3D ( 'NONE', #110, #57, #214 ) ;
#155 = DIRECTION ( 'NONE',  ( -3.491481338843133355E-15, 1.224646799147353454E-16, -1.000000000000000000 ) ) ;
#156 = AXIS2_PLACEMENT_3D ( 'NONE', #312, #77, #238 ) ;
#157 = DIRECTION ( 'NONE',  ( 3.491481338843133355E-15, -1.224646799147353454E-16, 1.000000000000000000 ) ) ;
#158 = CARTESIAN_POINT ( 'NONE',  ( 1.815570296198429345E-13, 1.087325842429838008E-32, 52.00000000000000000 ) ) ;
#159 = DIRECTION ( 'NONE',  ( -4.164172852729171573E-31, -1.000000000000000000, -1.172110456741089526E-16 ) ) ;
#160 = PLANE ( 'NONE',  #277 ) ;
#161 = APPROVAL ( #278, 'UNSPECIFIED' ) ;
#162 = CARTESIAN_POINT ( 'NONE',  ( 2.835322131485268044E-14, -1.849999999999997424, 15.00000000000000000 ) ) ;
#163 =( NAMED_UNIT ( * ) SI_UNIT ( $, .STERADIAN. ) SOLID_ANGLE_UNIT ( ) );
#164 = FACE_OUTER_BOUND ( 'NONE', #203, .T. ) ;
#165 = CLOSED_SHELL ( 'NONE', ( #137, #295, #199, #249, #50, #129 ) ) ;
#166 = COORDINATED_UNIVERSAL_TIME_OFFSET ( 1, 0, .AHEAD. ) ;
#167 = CYLINDRICAL_SURFACE ( 'NONE', #19, 1.849999999999994982 ) ;
#168 = DIRECTION ( 'NONE',  ( 0.0000000000000000000, 0.0000000000000000000, 1.000000000000000000 ) ) ;
#169 = ORIENTED_EDGE ( 'NONE', *, *, #127, .T. ) ;
#170 = PERSON_AND_ORGANIZATION_ROLE ( 'creator' ) ;
#171 = ORIENTED_EDGE ( 'NONE', *, *, #237, .F. ) ;
#172 = CIRCLE ( 'NONE', #71, 1.849999999999995426 ) ;
#173 = CALENDAR_DATE ( 2021, 3, 9 ) ;
#174 = LOCAL_TIME ( 9, 50, 25.00000000000000000, #35 ) ;
#175 = EDGE_CURVE ( 'NONE', #150, #226, #319, .T. ) ;
#176 = ORIENTED_EDGE ( 'NONE', *, *, #198, .F. ) ;
#177 = EDGE_LOOP ( 'NONE', ( #15, #13, #326, #252 ) ) ;
#178 = DIRECTION ( 'NONE',  ( -3.491481338843133355E-15, 1.224646799147353454E-16, -1.000000000000000000 ) ) ;
#179 = DIRECTION ( 'NONE',  ( -3.491481338843133355E-15, 1.224646799147353454E-16, -1.000000000000000000 ) ) ;
#180 = CARTESIAN_POINT ( 'NONE',  ( 5.237222008264700033E-14, -1.836970198721029983E-15, 15.00000000000000000 ) ) ;
#181 = CARTESIAN_POINT ( 'NONE',  ( 1.815570296198429345E-13, -6.368163355566237959E-15, 52.00000000000000000 ) ) ;
#182 = AXIS2_PLACEMENT_3D ( 'NONE', #123, #168, #191 ) ;
#183 = CONICAL_SURFACE ( 'NONE', #82, 1.849999999999994094, 1.029744258676649649 ) ;
#184 = CARTESIAN_POINT ( 'NONE',  ( 1.815570296198429345E-13, -6.368163355566237959E-15, 52.00000000000000000 ) ) ;
#185 = DIRECTION ( 'NONE',  ( -2.468850131082257455E-15, 0.7071067811865497932, -0.7071067811865453523 ) ) ;
#186 = LINE ( 'NONE', #113, #298 ) ;
#187 = CARTESIAN_POINT ( 'NONE',  ( 5.237222008264700033E-14, -1.836970198721029983E-15, 15.00000000000000000 ) ) ;
#188 = VECTOR ( 'NONE', #153, 1000.000000000000000 ) ;
#189 =( NAMED_UNIT ( * ) PLANE_ANGLE_UNIT ( ) SI_UNIT ( $, .RADIAN. ) );
#190 = DIRECTION ( 'NONE',  ( -3.491481338843133355E-15, 1.224646799147353454E-16, -1.000000000000000000 ) ) ;
#191 = DIRECTION ( 'NONE',  ( 1.000000000000000000, 0.0000000000000000000, 0.0000000000000000000 ) ) ;
#192 = ORIENTED_EDGE ( 'NONE', *, *, #273, .F. ) ;
#193 = VECTOR ( 'NONE', #292, 999.9999999999998863 ) ;
#194 = SHAPE_DEFINITION_REPRESENTATION ( #20, #95 ) ;
#195 = CARTESIAN_POINT ( 'NONE',  ( 0.0000000000000000000, 0.0000000000000000000, 0.0000000000000000000 ) ) ;
#196 = DATE_AND_TIME ( #121, #151 ) ;
#197 = DIRECTION ( 'NONE',  ( -3.491481338843133355E-15, 1.224646799147353454E-16, -1.000000000000000000 ) ) ;
#198 = EDGE_CURVE ( 'NONE', #332, #228, #172, .T. ) ;
#199 = ADVANCED_FACE ( 'NONE', ( #334 ), #291, .F. ) ;
#200 = CONICAL_SURFACE ( 'NONE', #284, 1.849999999999994094, 1.029744258676649649 ) ;
#201 = ORIENTED_EDGE ( 'NONE', *, *, #273, .T. ) ;
#202 = DATE_TIME_ROLE ( 'classification_date' ) ;
#203 = EDGE_LOOP ( 'NONE', ( #36, #201, #73, #176 ) ) ;
#204 = DIRECTION ( 'NONE',  ( -4.164172852729171573E-31, -1.000000000000000000, -1.172110456741089526E-16 ) ) ;
#205 = DIRECTION ( 'NONE',  ( 4.275831445896959482E-31, 1.000000000000000000, 1.224646799147353454E-16 ) ) ;
#206 = CARTESIAN_POINT ( 'NONE',  ( 1.801604370843056811E-13, -6.319177483600343742E-15, 51.60000000000000142 ) ) ;
#207 = DIRECTION ( 'NONE',  ( -3.491481338843133355E-15, 1.224646799147353454E-16, -1.000000000000000000 ) ) ;
#208 = ADVANCED_FACE ( 'NONE', ( #263 ), #183, .T. ) ;
#209 = ADVANCED_FACE ( 'NONE', ( #311 ), #76, .T. ) ;
#210 = CARTESIAN_POINT ( 'NONE',  ( 1.810608000739336044E-13, -1.450000000000006395, 52.00000000000000000 ) ) ;
#211 = CIRCLE ( 'NONE', #156, 1.849999999999994094 ) ;
#212 = LINE ( 'NONE', #316, #6 ) ;
#213 = CARTESIAN_POINT ( 'NONE',  ( 1.815570296198429345E-13, 1.449999999999993738, 52.00000000000000000 ) ) ;
#214 = DIRECTION ( 'NONE',  ( 4.275831445896959482E-31, 1.000000000000000000, 1.224646799147353700E-16 ) ) ;
#215 = UNCERTAINTY_MEASURE_WITH_UNIT (LENGTH_MEASURE( 1.000000000000000082E-05 ), #114, 'distance_accuracy_value', 'NONE');
#216 = DIRECTION ( 'NONE',  ( 3.491481338843133355E-15, -1.224646799147353454E-16, 1.000000000000000000 ) ) ;
#217 = AXIS2_PLACEMENT_3D ( 'NONE', #158, #231, #107 ) ;
#218 = CYLINDRICAL_SURFACE ( 'NONE', #154, 1.849999999999997868 ) ;
#219 = EDGE_LOOP ( 'NONE', ( #63, #171 ) ) ;
#220 = APPROVAL_DATE_TIME ( #9, #106 ) ;
#221 = ORIENTED_EDGE ( 'NONE', *, *, #55, .F. ) ;
#222 = ORIENTED_EDGE ( 'NONE', *, *, #329, .T. ) ;
#223 = CC_DESIGN_PERSON_AND_ORGANIZATION_ASSIGNMENT ( #227, #64, ( #75 ) ) ;
#224 = EDGE_CURVE ( 'NONE', #122, #124, #211, .T. ) ;
#225 = PERSON_AND_ORGANIZATION ( #12, #39 ) ;
#226 = VERTEX_POINT ( 'NONE', #162 ) ;
#227 = PERSON_AND_ORGANIZATION ( #12, #39 ) ;
#228 = VERTEX_POINT ( 'NONE', #5 ) ;
#229 = CARTESIAN_POINT ( 'NONE',  ( 1.815570296198429345E-13, -6.368163355566237959E-15, 52.00000000000000000 ) ) ;
#230 = FACE_OUTER_BOUND ( 'NONE', #101, .T. ) ;
#231 = DIRECTION ( 'NONE',  ( -3.491481338843133355E-15, 1.224646799147353454E-16, -1.000000000000000000 ) ) ;
#232 = CIRCLE ( 'NONE', #239, 1.849999999999995426 ) ;
#233 = DIRECTION ( 'NONE',  ( 1.798245827342160317E-15, -0.8571673007021098911, 0.5150380749100582634 ) ) ;
#234 = EDGE_CURVE ( 'NONE', #147, #38, #8, .T. ) ;
#235 = CC_DESIGN_DATE_AND_TIME_ASSIGNMENT ( #14, #280, ( #296 ) ) ;
#236 = CARTESIAN_POINT ( 'NONE',  ( 5.237222008264700033E-14, -1.836970198721029983E-15, 15.00000000000000000 ) ) ;
#237 = EDGE_CURVE ( 'NONE', #226, #150, #32, .T. ) ;
#238 = DIRECTION ( 'NONE',  ( 4.164172852729171573E-31, 1.000000000000000000, 1.172110456741089526E-16 ) ) ;
#239 = AXIS2_PLACEMENT_3D ( 'NONE', #315, #21, #104 ) ;
#240 = DESIGN_CONTEXT ( 'detailed design', #131, 'design' ) ;
#241 = CARTESIAN_POINT ( 'NONE',  ( 1.817346034057193017E-13, -1.450000000000006395, 52.00000000000000000 ) ) ;
#242 = DIRECTION ( 'NONE',  ( 3.491481338843133355E-15, -1.224646799147353454E-16, 1.000000000000000000 ) ) ;
#243 = CARTESIAN_POINT ( 'NONE',  ( 5.237222008264700033E-14, 1.387277798962213087E-32, 15.00000000000000000 ) ) ;
#244 = AXIS2_PLACEMENT_3D ( 'NONE', #152, #286, #259 ) ;
#245 = EDGE_CURVE ( 'NONE', #124, #122, #256, .T. ) ;
#246 = SECURITY_CLASSIFICATION_LEVEL ( 'unclassified' ) ;
#247 = ADVANCED_FACE ( 'NONE', ( #90 ), #200, .T. ) ;
#248 = EDGE_LOOP ( 'NONE', ( #310, #222, #255, #42 ) ) ;
#249 = ADVANCED_FACE ( 'NONE', ( #164 ), #2, .T. ) ;
#250 = APPROVAL_STATUS ( 'not_yet_approved' ) ;
#251 = ORIENTED_EDGE ( 'NONE', *, *, #224, .T. ) ;
#252 = ORIENTED_EDGE ( 'NONE', *, *, #262, .F. ) ;
#253 = APPROVAL_ROLE ( '' ) ;
#254 = VECTOR ( 'NONE', #190, 1000.000000000000000 ) ;
#255 = ORIENTED_EDGE ( 'NONE', *, *, #80, .F. ) ;
#256 = CIRCLE ( 'NONE', #70, 1.849999999999994094 ) ;
#257 = ORIENTED_EDGE ( 'NONE', *, *, #55, .T. ) ;
#258 = DIRECTION ( 'NONE',  ( -3.491481338843133355E-15, 1.224646799147353454E-16, -1.000000000000000000 ) ) ;
#259 = DIRECTION ( 'NONE',  ( 0.0000000000000000000, 1.000000000000000000, 0.0000000000000000000 ) ) ;
#260 = EDGE_CURVE ( 'NONE', #226, #122, #320, .T. ) ;
#261 = DIRECTION ( 'NONE',  ( 0.0000000000000000000, 1.000000000000000000, 0.0000000000000000000 ) ) ;
#262 = EDGE_CURVE ( 'NONE', #150, #124, #186, .T. ) ;
#263 = FACE_OUTER_BOUND ( 'NONE', #120, .T. ) ;
#264 = CARTESIAN_POINT ( 'NONE',  ( 3.881103231373881046E-15, -1.361307762577738924E-16, 1.111592145200995141 ) ) ;
#265 = VECTOR ( 'NONE', #297, 1000.000000000000114 ) ;
#266 = DIRECTION ( 'NONE',  ( 0.0000000000000000000, 1.000000000000000000, 0.0000000000000000000 ) ) ;
#267 = LOCAL_TIME ( 9, 50, 25.00000000000000000, #166 ) ;
#268 = CLOSED_SHELL ( 'NONE', ( #209, #208, #247, #7, #309 ) ) ;
#269 = DIRECTION ( 'NONE',  ( -3.491481338843133355E-15, 1.224646799147353454E-16, -1.000000000000000000 ) ) ;
#270 = MANIFOLD_SOLID_BREP ( 'Corps-Déplacer/Copier1[1]', #165 ) ;
#271 = DIRECTION ( 'NONE',  ( -3.491481338843133355E-15, 1.224646799147353454E-16, -1.000000000000000000 ) ) ;
#272 = APPROVAL ( #40, 'UNSPECIFIED' ) ;
#273 = EDGE_CURVE ( 'NONE', #301, #38, #112, .T. ) ;
#274 = CONICAL_SURFACE ( 'NONE', #133, 1.450000000000000178, 0.7853981633974512766 ) ;
#275 = PERSON_AND_ORGANIZATION ( #12, #39 ) ;
#276 = ORIENTED_EDGE ( 'NONE', *, *, #27, .F. ) ;
#277 = AXIS2_PLACEMENT_3D ( 'NONE', #243, #242, #299 ) ;
#278 = APPROVAL_STATUS ( 'not_yet_approved' ) ;
#279 = ORIENTED_EDGE ( 'NONE', *, *, #245, .T. ) ;
#280 = DATE_TIME_ROLE ( 'creation_date' ) ;
#281 = ORIENTED_EDGE ( 'NONE', *, *, #127, .F. ) ;
#282 = CIRCLE ( 'NONE', #111, 1.850000000000000089 ) ;
#283 = ORIENTED_EDGE ( 'NONE', *, *, #27, .T. ) ;
#284 = AXIS2_PLACEMENT_3D ( 'NONE', #86, #216, #159 ) ;
#285 = ORIENTED_EDGE ( 'NONE', *, *, #237, .T. ) ;
#286 = DIRECTION ( 'NONE',  ( -3.491481338843133355E-15, 1.224646799147353454E-16, -1.000000000000000000 ) ) ;
#287 = AXIS2_PLACEMENT_3D ( 'NONE', #180, #155, #261 ) ;
#288 = EDGE_CURVE ( 'NONE', #69, #301, #31, .T. ) ;
#289 = PRODUCT_RELATED_PRODUCT_CATEGORY ( 'detail', '', ( #75 ) ) ;
#290 = FACE_OUTER_BOUND ( 'NONE', #324, .T. ) ;
#291 = PLANE ( 'NONE',  #100 ) ;
#292 = DIRECTION ( 'NONE',  ( 1.903218546456022717E-15, 0.8571673007021097801, 0.5150380749100585964 ) ) ;
#293 = DIRECTION ( 'NONE',  ( -3.491481338843133355E-15, 1.224646799147353454E-16, -1.000000000000000000 ) ) ;
#294 = CARTESIAN_POINT ( 'NONE',  ( 0.0000000000000000000, 0.0000000000000000000, 0.0000000000000000000 ) ) ;
#295 = ADVANCED_FACE ( 'NONE', ( #136 ), #218, .T. ) ;
#296 = PRODUCT_DEFINITION ( 'UNKNOWN', '', #109, #240 ) ;
#297 = DIRECTION ( 'NONE',  ( -2.382254525458708792E-15, -0.7071067811865495711, -0.7071067811865455743 ) ) ;
#298 = VECTOR ( 'NONE', #135, 1000.000000000000000 ) ;
#299 = DIRECTION ( 'NONE',  ( -4.275831445896959482E-31, -1.000000000000000000, -1.224646799147353454E-16 ) ) ;
#300 = APPROVAL_DATE_TIME ( #306, #161 ) ;
#301 = VERTEX_POINT ( 'NONE', #318 ) ;
#302 = COORDINATED_UNIVERSAL_TIME_OFFSET ( 1, 0, .AHEAD. ) ;
#303 = ORIENTED_EDGE ( 'NONE', *, *, #80, .T. ) ;
#304 = CALENDAR_DATE ( 2021, 3, 9 ) ;
#305 = ORIENTED_EDGE ( 'NONE', *, *, #67, .F. ) ;
#306 = DATE_AND_TIME ( #322, #3 ) ;
#307 = ORIENTED_EDGE ( 'NONE', *, *, #260, .F. ) ;
#308 = CC_DESIGN_APPROVAL ( #106, ( #28 ) ) ;
#309 = ADVANCED_FACE ( 'NONE', ( #138 ), #160, .T. ) ;
#310 = ORIENTED_EDGE ( 'NONE', *, *, #66, .T. ) ;
#311 = FACE_OUTER_BOUND ( 'NONE', #177, .T. ) ;
#312 = CARTESIAN_POINT ( 'NONE',  ( 3.881103231373881046E-15, -1.361307762577738924E-16, 1.111592145200995141 ) ) ;
#313 = CARTESIAN_POINT ( 'NONE',  ( 3.881103231373880257E-15, -1.849999999999994316, 1.111592145200994919 ) ) ;
#314 = DIRECTION ( 'NONE',  ( 0.0000000000000000000, 1.000000000000000000, 0.0000000000000000000 ) ) ;
#315 = CARTESIAN_POINT ( 'NONE',  ( 5.237222008264700033E-14, -1.836970198721029983E-15, 15.00000000000000000 ) ) ;
#316 = CARTESIAN_POINT ( 'NONE',  ( 2.265596578422593240E-16, -1.849999999999997868, -2.265596578422609017E-16 ) ) ;
#317 = DIRECTION ( 'NONE',  ( -3.491481338843133355E-15, 1.224646799147353454E-16, -1.000000000000000000 ) ) ;
#318 = CARTESIAN_POINT ( 'NONE',  ( 1.164928882413184341E-13, -1.850000000000006306, 51.60000000000000142 ) ) ;
#319 = CIRCLE ( 'NONE', #287, 1.849999999999995426 ) ;
#320 = LINE ( 'NONE', #321, #254 ) ;
#321 = CARTESIAN_POINT ( 'NONE',  ( 2.265596578422589295E-16, -1.849999999999994982, -2.265596578422605073E-16 ) ) ;
#322 = CALENDAR_DATE ( 2021, 3, 9 ) ;
#323 = ORIENTED_EDGE ( 'NONE', *, *, #67, .T. ) ;
#324 = EDGE_LOOP ( 'NONE', ( #98, #323, #44, #192 ) ) ;
#325 = PERSON_AND_ORGANIZATION ( #12, #39 ) ;
#326 = ORIENTED_EDGE ( 'NONE', *, *, #245, .F. ) ;
#327 = APPROVAL_ROLE ( '' ) ;
#328 = ORIENTED_EDGE ( 'NONE', *, *, #198, .T. ) ;
#329 = EDGE_CURVE ( 'NONE', #301, #332, #212, .T. ) ;
#330 = VECTOR ( 'NONE', #185, 1000.000000000000114 ) ;
#331 = PERSON_AND_ORGANIZATION_ROLE ( 'classification_officer' ) ;
#332 = VERTEX_POINT ( 'NONE', #59 ) ;
#333 = DIRECTION ( 'NONE',  ( 3.491481338843133355E-15, -1.224646799147353454E-16, 1.000000000000000000 ) ) ;
#334 = FACE_OUTER_BOUND ( 'NONE', #117, .T. ) ;
#335 = DIRECTION ( 'NONE',  ( -3.491481338843133355E-15, 1.224646799147353454E-16, -1.000000000000000000 ) ) ;
#336 = FACE_OUTER_BOUND ( 'NONE', #11, .T. ) ;
#337 = PLANE ( 'NONE',  #217 ) ;
ENDSEC;
END-ISO-10303-21;
