ISO-10303-21;
HEADER;
FILE_DESCRIPTION (( 'STEP AP203' ),
    '1' );
FILE_NAME ('54557.step',
    '2021-09-03T07:50:21',
    ( '' ),
    ( '' ),
    'SwSTEP 2.0',
    'SolidWorks 2019',
    '' );
FILE_SCHEMA (( 'CONFIG_CONTROL_DESIGN' ));
ENDSEC;

DATA;
#1 = DIRECTION ( 'NONE',  ( -3.491481338843133355E-15, 1.224646799147353454E-16, -1.000000000000000000 ) ) ;
#2 = COORDINATED_UNIVERSAL_TIME_OFFSET ( 1, 0, .AHEAD. ) ;
#3 = APPLICATION_CONTEXT ( 'configuration controlled 3d designs of mechanical parts and assemblies' ) ;
#4 = AXIS2_PLACEMENT_3D ( 'NONE', #329, #55, #327 ) ;
#5 = CARTESIAN_POINT ( 'NONE',  ( 5.237222008264700033E-14, 1.368530801678939456E-32, 15.00000000000000000 ) ) ;
#6 = DIRECTION ( 'NONE',  ( 3.491481338843133355E-15, -1.224646799147353454E-16, 1.000000000000000000 ) ) ;
#7 = CIRCLE ( 'NONE', #190, 1.824999999999993960 ) ;
#8 = ORIENTED_EDGE ( 'NONE', *, *, #305, .F. ) ;
#9 = CARTESIAN_POINT ( 'NONE',  ( 1.164898266243205601E-13, -1.825000000000006395, 51.60000000000000142 ) ) ;
#10 = ADVANCED_FACE ( 'NONE', ( #197 ), #174, .T. ) ;
#11 = APPROVAL ( #57, 'UNSPECIFIED' ) ;
#12 = AXIS2_PLACEMENT_3D ( 'NONE', #302, #171, #280 ) ;
#13 = ORIENTED_EDGE ( 'NONE', *, *, #40, .F. ) ;
#14 = ADVANCED_FACE ( 'NONE', ( #52 ), #217, .T. ) ;
#15 = COORDINATED_UNIVERSAL_TIME_OFFSET ( 1, 0, .AHEAD. ) ;
#16 = APPROVAL ( #103, 'UNSPECIFIED' ) ;
#17 = ORIENTED_EDGE ( 'NONE', *, *, #317, .F. ) ;
#18 = APPROVAL_ROLE ( '' ) ;
#19 = AXIS2_PLACEMENT_3D ( 'NONE', #160, #193, #323 ) ;
#20 = VERTEX_POINT ( 'NONE', #179 ) ;
#21 = APPROVAL_DATE_TIME ( #122, #11 ) ;
#22 = ORIENTED_EDGE ( 'NONE', *, *, #117, .T. ) ;
#23 = SECURITY_CLASSIFICATION_LEVEL ( 'unclassified' ) ;
#24 = DIRECTION ( 'NONE',  ( 0.0000000000000000000, 1.000000000000000000, 0.0000000000000000000 ) ) ;
#25 = VECTOR ( 'NONE', #1, 1000.000000000000000 ) ;
#26 = APPROVAL_PERSON_ORGANIZATION ( #284, #11, #18 ) ;
#27 = EDGE_CURVE ( 'NONE', #324, #121, #152, .T. ) ;
#28 = CARTESIAN_POINT ( 'NONE',  ( 2.234980408443908861E-16, -1.824999999999997735, -2.234980408443925131E-16 ) ) ;
#29 = CC_DESIGN_DATE_AND_TIME_ASSIGNMENT ( #153, #178, ( #110 ) ) ;
#30 = CYLINDRICAL_SURFACE ( 'NONE', #106, 1.824999999999994627 ) ;
#31 = DIRECTION ( 'NONE',  ( 1.798245827342160317E-15, -0.8571673007021098911, 0.5150380749100582634 ) ) ;
#32 = LINE ( 'NONE', #112, #233 ) ;
#33 = ADVANCED_FACE ( 'NONE', ( #241 ), #250, .T. ) ;
#34 = CC_DESIGN_APPROVAL ( #11, ( #194 ) ) ;
#35 = DIRECTION ( 'NONE',  ( 4.275831445896959482E-31, 1.000000000000000000, 1.224646799147353454E-16 ) ) ;
#36 = DIRECTION ( 'NONE',  ( -4.275831445896959482E-31, -1.000000000000000000, -1.224646799147353454E-16 ) ) ;
#37 = EDGE_LOOP ( 'NONE', ( #332, #223 ) ) ;
#38 = FACE_OUTER_BOUND ( 'NONE', #263, .T. ) ;
#39 = FACE_OUTER_BOUND ( 'NONE', #249, .T. ) ;
#40 = EDGE_CURVE ( 'NONE', #306, #253, #7, .T. ) ;
#41 = DIRECTION ( 'NONE',  ( -3.491481338843133355E-15, 1.224646799147353454E-16, -1.000000000000000000 ) ) ;
#42 = VECTOR ( 'NONE', #41, 1000.000000000000000 ) ;
#43 = CARTESIAN_POINT ( 'NONE',  ( 0.0000000000000000000, 0.0000000000000000000, 0.0000000000000000000 ) ) ;
#44 = CARTESIAN_POINT ( 'NONE',  ( 1.810577384569357556E-13, -1.425000000000006262, 52.00000000000000000 ) ) ;
#45 =( LENGTH_UNIT ( ) NAMED_UNIT ( * ) SI_UNIT ( .MILLI., .METRE. ) );
#46 = MANIFOLD_SOLID_BREP ( 'Corps-Déplacer/Copier1[2]', #101 ) ;
#47 = EDGE_LOOP ( 'NONE', ( #322, #131 ) ) ;
#48 =( NAMED_UNIT ( * ) SI_UNIT ( $, .STERADIAN. ) SOLID_ANGLE_UNIT ( ) );
#49 = EDGE_CURVE ( 'NONE', #170, #253, #99, .T. ) ;
#50 = CARTESIAN_POINT ( 'NONE',  ( 1.815570296198429345E-13, -6.368163355566237959E-15, 52.00000000000000000 ) ) ;
#51 = CARTESIAN_POINT ( 'NONE',  ( 1.815570296198429345E-13, 1.424999999999993827, 52.00000000000000000 ) ) ;
#52 = FACE_OUTER_BOUND ( 'NONE', #310, .T. ) ;
#53 = AXIS2_PLACEMENT_3D ( 'NONE', #200, #203, #256 ) ;
#54 = MANIFOLD_SOLID_BREP ( 'Corps-Déplacer/Copier1[1]', #220 ) ;
#55 = DIRECTION ( 'NONE',  ( 0.0000000000000000000, 0.0000000000000000000, 1.000000000000000000 ) ) ;
#56 = CC_DESIGN_PERSON_AND_ORGANIZATION_ASSIGNMENT ( #281, #254, ( #110 ) ) ;
#57 = APPROVAL_STATUS ( 'not_yet_approved' ) ;
#58 = ORIENTED_EDGE ( 'NONE', *, *, #134, .F. ) ;
#59 = CALENDAR_DATE ( 2021, 3, 9 ) ;
#60 = DIRECTION ( 'NONE',  ( 0.0000000000000000000, 1.000000000000000000, 0.0000000000000000000 ) ) ;
#61 = ORIENTED_EDGE ( 'NONE', *, *, #240, .F. ) ;
#62 = CIRCLE ( 'NONE', #151, 1.824999999999999956 ) ;
#63 = CARTESIAN_POINT ( 'NONE',  ( 5.237222008264700033E-14, -1.836970198721029983E-15, 15.00000000000000000 ) ) ;
#64 = PERSON_AND_ORGANIZATION ( #147, #221 ) ;
#65 = EDGE_CURVE ( 'NONE', #289, #306, #312, .T. ) ;
#66 = CIRCLE ( 'NONE', #246, 1.824999999999995515 ) ;
#67 = CARTESIAN_POINT ( 'NONE',  ( 5.237222008264700033E-14, -1.836970198721029983E-15, 15.00000000000000000 ) ) ;
#68 = CARTESIAN_POINT ( 'NONE',  ( 1.815570296198429345E-13, -6.368163355566237959E-15, 52.00000000000000000 ) ) ;
#69 = DATE_AND_TIME ( #294, #181 ) ;
#70 = CYLINDRICAL_SURFACE ( 'NONE', #114, 1.824999999999997735 ) ;
#71 = CARTESIAN_POINT ( 'NONE',  ( 3.828655890409367658E-15, -1.824999999999994182, 1.096570629725305501 ) ) ;
#72 = ORIENTED_EDGE ( 'NONE', *, *, #86, .F. ) ;
#73 = DIRECTION ( 'NONE',  ( 4.275831445896959482E-31, 1.000000000000000000, 1.224646799147353454E-16 ) ) ;
#74 = VECTOR ( 'NONE', #163, 1000.000000000000114 ) ;
#75 = APPLICATION_CONTEXT ( 'configuration controlled 3d designs of mechanical parts and assemblies' ) ;
#76 = EDGE_CURVE ( 'NONE', #331, #167, #268, .T. ) ;
#77 = APPLICATION_PROTOCOL_DEFINITION ( 'international standard', 'config_control_design', 1994, #75 ) ;
#78 = ORIENTED_EDGE ( 'NONE', *, *, #159, .F. ) ;
#79 = APPLICATION_PROTOCOL_DEFINITION ( 'international standard', 'config_control_design', 1994, #3 ) ;
#80 = CC_DESIGN_SECURITY_CLASSIFICATION ( #330, ( #194 ) ) ;
#81 = CARTESIAN_POINT ( 'NONE',  ( 3.828655890409368447E-15, -1.342911711732093657E-16, 1.096570629725305723 ) ) ;
#82 = ORIENTED_EDGE ( 'NONE', *, *, #49, .T. ) ;
#83 = UNCERTAINTY_MEASURE_WITH_UNIT (LENGTH_MEASURE( 1.000000000000000082E-05 ), #45, 'distance_accuracy_value', 'NONE');
#84 = ORIENTED_EDGE ( 'NONE', *, *, #317, .T. ) ;
#85 = CC_DESIGN_APPROVAL ( #229, ( #330 ) ) ;
#86 = EDGE_CURVE ( 'NONE', #121, #20, #66, .T. ) ;
#87 = CARTESIAN_POINT ( 'NONE',  ( 5.237222008264700033E-14, -1.836970198721029983E-15, 15.00000000000000000 ) ) ;
#88 = DATE_AND_TIME ( #292, #144 ) ;
#89 = CARTESIAN_POINT ( 'NONE',  ( 1.801604370843056811E-13, 1.824999999999993738, 51.60000000000000142 ) ) ;
#90 = LOCAL_TIME ( 9, 50, 21.00000000000000000, #15 ) ;
#91 = DIRECTION ( 'NONE',  ( -3.491481338843133355E-15, 1.224646799147353454E-16, -1.000000000000000000 ) ) ;
#92 = DIRECTION ( 'NONE',  ( -3.491481338843133355E-15, 1.224646799147353454E-16, -1.000000000000000000 ) ) ;
#93 = DIRECTION ( 'NONE',  ( 0.0000000000000000000, 1.000000000000000000, 0.0000000000000000000 ) ) ;
#94 = DIRECTION ( 'NONE',  ( -3.491481338843133355E-15, 1.224646799147353454E-16, -1.000000000000000000 ) ) ;
#95 = VECTOR ( 'NONE', #157, 1000.000000000000000 ) ;
#96 = CONICAL_SURFACE ( 'NONE', #210, 1.824999999999993960, 1.029744258676649649 ) ;
#97 = DIRECTION ( 'NONE',  ( 4.221216316465188497E-31, 1.000000000000000000, 1.188166764367680040E-16 ) ) ;
#98 = DIRECTION ( 'NONE',  ( -4.221216316465188497E-31, -1.000000000000000000, -1.188166764367680040E-16 ) ) ;
#99 = LINE ( 'NONE', #234, #319 ) ;
#100 = ORIENTED_EDGE ( 'NONE', *, *, #27, .F. ) ;
#101 = CLOSED_SHELL ( 'NONE', ( #107, #10, #222, #309, #173 ) ) ;
#102 = CIRCLE ( 'NONE', #276, 1.824999999999993960 ) ;
#103 = APPROVAL_STATUS ( 'not_yet_approved' ) ;
#104 = ORIENTED_EDGE ( 'NONE', *, *, #257, .T. ) ;
#105 = PERSON_AND_ORGANIZATION ( #147, #221 ) ;
#106 = AXIS2_PLACEMENT_3D ( 'NONE', #145, #212, #35 ) ;
#107 = ADVANCED_FACE ( 'NONE', ( #123 ), #218, .T. ) ;
#108 = ORIENTED_EDGE ( 'NONE', *, *, #211, .T. ) ;
#109 = ORIENTED_EDGE ( 'NONE', *, *, #155, .T. ) ;
#110 = PRODUCT_DEFINITION ( 'UNKNOWN', '', #194, #133 ) ;
#111 = VECTOR ( 'NONE', #31, 1000.000000000000000 ) ;
#112 = CARTESIAN_POINT ( 'NONE',  ( 4.052153931253760566E-15, 1.824999999999993738, 1.096570629725305945 ) ) ;
#113 = DIRECTION ( 'NONE',  ( 4.275831445896959482E-31, 1.000000000000000000, 1.224646799147353454E-16 ) ) ;
#114 = AXIS2_PLACEMENT_3D ( 'NONE', #161, #269, #164 ) ;
#115 = DIRECTION ( 'NONE',  ( 0.0000000000000000000, 1.000000000000000000, 0.0000000000000000000 ) ) ;
#116 = DIRECTION ( 'NONE',  ( -3.491481338843133355E-15, 1.224646799147353454E-16, -1.000000000000000000 ) ) ;
#117 = EDGE_CURVE ( 'NONE', #289, #170, #293, .T. ) ;
#118 = LINE ( 'NONE', #71, #111 ) ;
#119 = CIRCLE ( 'NONE', #138, 1.824999999999995515 ) ;
#120 = FACE_OUTER_BOUND ( 'NONE', #230, .T. ) ;
#121 = VERTEX_POINT ( 'NONE', #238 ) ;
#122 = DATE_AND_TIME ( #59, #288 ) ;
#123 = FACE_OUTER_BOUND ( 'NONE', #199, .T. ) ;
#124 = AXIS2_PLACEMENT_3D ( 'NONE', #87, #94, #208 ) ;
#125 = ORIENTED_EDGE ( 'NONE', *, *, #155, .F. ) ;
#126 = DIRECTION ( 'NONE',  ( -2.468850131082257455E-15, 0.7071067811865497932, -0.7071067811865453523 ) ) ;
#127 = CARTESIAN_POINT ( 'NONE',  ( 1.815570296198429345E-13, -6.368163355566237959E-15, 52.00000000000000000 ) ) ;
#128 = EDGE_CURVE ( 'NONE', #324, #287, #242, .T. ) ;
#129 = EDGE_LOOP ( 'NONE', ( #258, #109, #195, #202 ) ) ;
#130 = COORDINATED_UNIVERSAL_TIME_OFFSET ( 1, 0, .AHEAD. ) ;
#131 = ORIENTED_EDGE ( 'NONE', *, *, #117, .F. ) ;
#132 = ORIENTED_EDGE ( 'NONE', *, *, #76, .T. ) ;
#133 = DESIGN_CONTEXT ( 'detailed design', #75, 'design' ) ;
#134 = EDGE_CURVE ( 'NONE', #167, #331, #247, .T. ) ;
#135 = DATE_TIME_ROLE ( 'classification_date' ) ;
#136 = DIRECTION ( 'NONE',  ( -3.491481338843133355E-15, 1.224646799147353454E-16, -1.000000000000000000 ) ) ;
#137 = AXIS2_PLACEMENT_3D ( 'NONE', #127, #224, #303 ) ;
#138 = AXIS2_PLACEMENT_3D ( 'NONE', #67, #116, #214 ) ;
#139 = APPROVAL_ROLE ( '' ) ;
#140 = CARTESIAN_POINT ( 'NONE',  ( 2.234980408443905410E-16, -1.824999999999994627, -2.234980408443921187E-16 ) ) ;
#141 = DIRECTION ( 'NONE',  ( -3.491481338843133355E-15, 1.224646799147353454E-16, -1.000000000000000000 ) ) ;
#142 = DIRECTION ( 'NONE',  ( -3.491481338843133355E-15, 1.224646799147353454E-16, -1.000000000000000000 ) ) ;
#143 = CC_DESIGN_PERSON_AND_ORGANIZATION_ASSIGNMENT ( #204, #311, ( #194 ) ) ;
#144 = LOCAL_TIME ( 9, 50, 21.00000000000000000, #2 ) ;
#145 = CARTESIAN_POINT ( 'NONE',  ( 0.0000000000000000000, 0.0000000000000000000, 0.0000000000000000000 ) ) ;
#146 = DIRECTION ( 'NONE',  ( -3.491481338843133355E-15, 1.224646799147353454E-16, -1.000000000000000000 ) ) ;
#147 = PERSON ( 'UNSPECIFIED', 'UNSPECIFIED', 'UNSPECIFIED', ('UNSPECIFIED'), ('UNSPECIFIED'), ('UNSPECIFIED') ) ;
#148 = DIRECTION ( 'NONE',  ( -3.491481338843133355E-15, 1.224646799147353454E-16, -1.000000000000000000 ) ) ;
#149 = AXIS2_PLACEMENT_3D ( 'NONE', #158, #136, #262 ) ;
#150 = APPROVAL_PERSON_ORGANIZATION ( #105, #16, #172 ) ;
#151 = AXIS2_PLACEMENT_3D ( 'NONE', #192, #162, #93 ) ;
#152 = LINE ( 'NONE', #28, #95 ) ;
#153 = DATE_AND_TIME ( #304, #90 ) ;
#154 = AXIS2_PLACEMENT_3D ( 'NONE', #315, #91, #73 ) ;
#155 = EDGE_CURVE ( 'NONE', #331, #324, #316, .T. ) ;
#156 = ORIENTED_EDGE ( 'NONE', *, *, #49, .F. ) ;
#157 = DIRECTION ( 'NONE',  ( -3.491481338843133355E-15, 1.224646799147353454E-16, -1.000000000000000000 ) ) ;
#158 = CARTESIAN_POINT ( 'NONE',  ( 0.0000000000000000000, 0.0000000000000000000, 0.0000000000000000000 ) ) ;
#159 = EDGE_CURVE ( 'NONE', #219, #253, #32, .T. ) ;
#160 = CARTESIAN_POINT ( 'NONE',  ( 1.801604370843056811E-13, -6.319177483600343742E-15, 51.60000000000000142 ) ) ;
#161 = CARTESIAN_POINT ( 'NONE',  ( 0.0000000000000000000, 0.0000000000000000000, 0.0000000000000000000 ) ) ;
#162 = DIRECTION ( 'NONE',  ( -3.491481338843133355E-15, 1.224646799147353454E-16, -1.000000000000000000 ) ) ;
#163 = DIRECTION ( 'NONE',  ( -2.382254525458708792E-15, -0.7071067811865495711, -0.7071067811865455743 ) ) ;
#164 = DIRECTION ( 'NONE',  ( 4.275831445896959482E-31, 1.000000000000000000, 1.224646799147353454E-16 ) ) ;
#165 = FACE_OUTER_BOUND ( 'NONE', #47, .T. ) ;
#166 = CARTESIAN_POINT ( 'NONE',  ( 2.832393602737254653E-14, -1.824999999999997069, 15.00000000000000000 ) ) ;
#167 = VERTEX_POINT ( 'NONE', #215 ) ;
#168 = DIRECTION ( 'NONE',  ( 4.221216316465188497E-31, 1.000000000000000000, 1.188166764367680040E-16 ) ) ;
#169 = ORIENTED_EDGE ( 'NONE', *, *, #76, .F. ) ;
#170 = VERTEX_POINT ( 'NONE', #273 ) ;
#171 = DIRECTION ( 'NONE',  ( 3.491481338843133355E-15, -1.224646799147353454E-16, 1.000000000000000000 ) ) ;
#172 = APPROVAL_ROLE ( '' ) ;
#173 = ADVANCED_FACE ( 'NONE', ( #165 ), #295, .T. ) ;
#174 = CONICAL_SURFACE ( 'NONE', #12, 1.824999999999993960, 1.029744258676649649 ) ;
#175 = CC_DESIGN_APPROVAL ( #16, ( #110 ) ) ;
#176 = CARTESIAN_POINT ( 'NONE',  ( 7.803392388761940830E-31, 1.824999999999997735, 2.234980408443917243E-16 ) ) ;
#177 = ORIENTED_EDGE ( 'NONE', *, *, #128, .F. ) ;
#178 = DATE_TIME_ROLE ( 'creation_date' ) ;
#179 = CARTESIAN_POINT ( 'NONE',  ( 5.237222008264700033E-14, 1.824999999999993738, 15.00000000000000000 ) ) ;
#180 = DIRECTION ( 'NONE',  ( -3.491481338843133355E-15, 1.224646799147353454E-16, -1.000000000000000000 ) ) ;
#181 = LOCAL_TIME ( 9, 50, 21.00000000000000000, #235 ) ;
#182 = ORIENTED_EDGE ( 'NONE', *, *, #65, .F. ) ;
#183 = PRODUCT_DEFINITION_SHAPE ( 'NONE', 'NONE',  #110 ) ;
#184 = EDGE_CURVE ( 'NONE', #287, #324, #62, .T. ) ;
#185 = DIRECTION ( 'NONE',  ( -4.275831445896959482E-31, -1.000000000000000000, -1.224646799147353454E-16 ) ) ;
#186 = AXIS2_PLACEMENT_3D ( 'NONE', #5, #272, #185 ) ;
#187 = LINE ( 'NONE', #51, #260 ) ;
#188 = CARTESIAN_POINT ( 'NONE',  ( 1.817315417887214276E-13, -1.425000000000006262, 52.00000000000000000 ) ) ;
#189 = CARTESIAN_POINT ( 'NONE',  ( 0.0000000000000000000, 0.0000000000000000000, 0.0000000000000000000 ) ) ;
#190 = AXIS2_PLACEMENT_3D ( 'NONE', #291, #148, #97 ) ;
#191 = AXIS2_PLACEMENT_3D ( 'NONE', #270, #213, #36 ) ;
#192 = CARTESIAN_POINT ( 'NONE',  ( 1.801604370843056811E-13, -6.319177483600343742E-15, 51.60000000000000142 ) ) ;
#193 = DIRECTION ( 'NONE',  ( -3.491481338843133355E-15, 1.224646799147353454E-16, -1.000000000000000000 ) ) ;
#194 = PRODUCT_DEFINITION_FORMATION_WITH_SPECIFIED_SOURCE ( 'ANY', '', #266, .NOT_KNOWN. ) ;
#195 = ORIENTED_EDGE ( 'NONE', *, *, #184, .F. ) ;
#196 = COORDINATED_UNIVERSAL_TIME_OFFSET ( 1, 0, .AHEAD. ) ;
#197 = FACE_OUTER_BOUND ( 'NONE', #261, .T. ) ;
#198 = DATE_AND_TIME ( #251, #282 ) ;
#199 = EDGE_LOOP ( 'NONE', ( #104, #278, #61, #156 ) ) ;
#200 = CARTESIAN_POINT ( 'NONE',  ( 1.815570296198429345E-13, -6.368163355566237959E-15, 52.00000000000000000 ) ) ;
#201 = AXIS2_PLACEMENT_3D ( 'NONE', #50, #180, #60 ) ;
#202 = ORIENTED_EDGE ( 'NONE', *, *, #211, .F. ) ;
#203 = DIRECTION ( 'NONE',  ( -3.491481338843133355E-15, 1.224646799147353454E-16, -1.000000000000000000 ) ) ;
#204 = PERSON_AND_ORGANIZATION ( #147, #221 ) ;
#205 = FACE_OUTER_BOUND ( 'NONE', #326, .T. ) ;
#206 = ADVANCED_FACE ( 'NONE', ( #39 ), #321, .T. ) ;
#207 = SHAPE_DEFINITION_REPRESENTATION ( #183, #313 ) ;
#208 = DIRECTION ( 'NONE',  ( 0.0000000000000000000, 1.000000000000000000, 0.0000000000000000000 ) ) ;
#209 = PLANE ( 'NONE',  #154 ) ;
#210 = AXIS2_PLACEMENT_3D ( 'NONE', #81, #6, #98 ) ;
#211 = EDGE_CURVE ( 'NONE', #167, #287, #187, .T. ) ;
#212 = DIRECTION ( 'NONE',  ( -3.491481338843133355E-15, 1.224646799147353454E-16, -1.000000000000000000 ) ) ;
#213 = DIRECTION ( 'NONE',  ( 3.491481338843133355E-15, -1.224646799147353454E-16, 1.000000000000000000 ) ) ;
#214 = DIRECTION ( 'NONE',  ( 0.0000000000000000000, 1.000000000000000000, 0.0000000000000000000 ) ) ;
#215 = CARTESIAN_POINT ( 'NONE',  ( 1.815570296198429345E-13, 1.424999999999993827, 52.00000000000000000 ) ) ;
#216 = CARTESIAN_POINT ( 'NONE',  ( 5.237222008264700033E-14, -1.836970198721029983E-15, 15.00000000000000000 ) ) ;
#217 = CONICAL_SURFACE ( 'NONE', #137, 1.425000000000000044, 0.7853981633974512766 ) ;
#218 = CYLINDRICAL_SURFACE ( 'NONE', #149, 1.824999999999994627 ) ;
#219 = VERTEX_POINT ( 'NONE', #43 ) ;
#220 = CLOSED_SHELL ( 'NONE', ( #33, #206, #277, #245, #14, #232 ) ) ;
#221 = ORGANIZATION ( 'UNSPECIFIED', 'UNSPECIFIED', '' ) ;
#222 = ADVANCED_FACE ( 'NONE', ( #205 ), #96, .T. ) ;
#223 = ORIENTED_EDGE ( 'NONE', *, *, #86, .T. ) ;
#224 = DIRECTION ( 'NONE',  ( -3.491481338843133355E-15, 1.224646799147353454E-16, -1.000000000000000000 ) ) ;
#225 =( NAMED_UNIT ( * ) PLANE_ANGLE_UNIT ( ) SI_UNIT ( $, .RADIAN. ) );
#226 = ORIENTED_EDGE ( 'NONE', *, *, #27, .T. ) ;
#227 =( GEOMETRIC_REPRESENTATION_CONTEXT ( 3 ) GLOBAL_UNCERTAINTY_ASSIGNED_CONTEXT ( ( #83 ) ) GLOBAL_UNIT_ASSIGNED_CONTEXT ( ( #45, #225, #48 ) ) REPRESENTATION_CONTEXT ( 'NONE', 'WORKASPACE' ) );
#228 = PERSON_AND_ORGANIZATION ( #147, #221 ) ;
#229 = APPROVAL ( #267, 'UNSPECIFIED' ) ;
#230 = EDGE_LOOP ( 'NONE', ( #58, #169 ) ) ;
#231 = ORIENTED_EDGE ( 'NONE', *, *, #128, .T. ) ;
#232 = ADVANCED_FACE ( 'NONE', ( #120 ), #209, .F. ) ;
#233 = VECTOR ( 'NONE', #297, 999.9999999999998863 ) ;
#234 = CARTESIAN_POINT ( 'NONE',  ( 7.803392388761927693E-31, 1.824999999999994627, 2.234980408443913298E-16 ) ) ;
#235 = COORDINATED_UNIVERSAL_TIME_OFFSET ( 1, 0, .AHEAD. ) ;
#236 = CC_DESIGN_PERSON_AND_ORGANIZATION_ASSIGNMENT ( #228, #264, ( #330 ) ) ;
#237 = PERSON_AND_ORGANIZATION ( #147, #221 ) ;
#238 = CARTESIAN_POINT ( 'NONE',  ( 1.164898266243206863E-13, -1.824999999999997291, 15.00000000000000000 ) ) ;
#239 = LINE ( 'NONE', #176, #42 ) ;
#240 = EDGE_CURVE ( 'NONE', #253, #306, #102, .T. ) ;
#241 = FACE_OUTER_BOUND ( 'NONE', #129, .T. ) ;
#242 = CIRCLE ( 'NONE', #19, 1.824999999999999956 ) ;
#243 = FACE_OUTER_BOUND ( 'NONE', #37, .T. ) ;
#244 = DIRECTION ( 'NONE',  ( 0.0000000000000000000, 1.000000000000000000, 0.0000000000000000000 ) ) ;
#245 = ADVANCED_FACE ( 'NONE', ( #271 ), #70, .T. ) ;
#246 = AXIS2_PLACEMENT_3D ( 'NONE', #63, #92, #244 ) ;
#247 = CIRCLE ( 'NONE', #53, 1.425000000000000044 ) ;
#248 = CC_DESIGN_PERSON_AND_ORGANIZATION_ASSIGNMENT ( #259, #279, ( #266 ) ) ;
#249 = EDGE_LOOP ( 'NONE', ( #286, #226, #8, #17 ) ) ;
#250 = CONICAL_SURFACE ( 'NONE', #335, 1.425000000000000044, 0.7853981633974512766 ) ;
#251 = CALENDAR_DATE ( 2021, 3, 9 ) ;
#252 = AXIS2_PLACEMENT_3D ( 'NONE', #189, #142, #113 ) ;
#253 = VERTEX_POINT ( 'NONE', #314 ) ;
#254 = PERSON_AND_ORGANIZATION_ROLE ( 'creator' ) ;
#255 = ORIENTED_EDGE ( 'NONE', *, *, #40, .T. ) ;
#256 = DIRECTION ( 'NONE',  ( 0.0000000000000000000, 1.000000000000000000, 0.0000000000000000000 ) ) ;
#257 = EDGE_CURVE ( 'NONE', #170, #289, #119, .T. ) ;
#258 = ORIENTED_EDGE ( 'NONE', *, *, #134, .T. ) ;
#259 = PERSON_AND_ORGANIZATION ( #147, #221 ) ;
#260 = VECTOR ( 'NONE', #126, 1000.000000000000114 ) ;
#261 = EDGE_LOOP ( 'NONE', ( #308, #298, #300 ) ) ;
#262 = DIRECTION ( 'NONE',  ( 4.275831445896959482E-31, 1.000000000000000000, 1.224646799147353454E-16 ) ) ;
#263 = EDGE_LOOP ( 'NONE', ( #182, #22, #82, #13 ) ) ;
#264 = PERSON_AND_ORGANIZATION_ROLE ( 'classification_officer' ) ;
#265 = EDGE_CURVE ( 'NONE', #219, #306, #118, .T. ) ;
#266 = PRODUCT ( '54557', '54557', '', ( #301 ) ) ;
#267 = APPROVAL_STATUS ( 'not_yet_approved' ) ;
#268 = CIRCLE ( 'NONE', #201, 1.425000000000000044 ) ;
#269 = DIRECTION ( 'NONE',  ( -3.491481338843133355E-15, 1.224646799147353454E-16, -1.000000000000000000 ) ) ;
#270 = CARTESIAN_POINT ( 'NONE',  ( 5.237222008264700033E-14, 1.368530801678939456E-32, 15.00000000000000000 ) ) ;
#271 = FACE_OUTER_BOUND ( 'NONE', #334, .T. ) ;
#272 = DIRECTION ( 'NONE',  ( 3.491481338843133355E-15, -1.224646799147353454E-16, 1.000000000000000000 ) ) ;
#273 = CARTESIAN_POINT ( 'NONE',  ( 5.237222008264700033E-14, 1.824999999999993738, 15.00000000000000000 ) ) ;
#274 = DIRECTION ( 'NONE',  ( -3.491481338843133355E-15, 1.224646799147353454E-16, -1.000000000000000000 ) ) ;
#275 = CARTESIAN_POINT ( 'NONE',  ( 3.828655890409367658E-15, -1.824999999999994182, 1.096570629725305501 ) ) ;
#276 = AXIS2_PLACEMENT_3D ( 'NONE', #296, #274, #168 ) ;
#277 = ADVANCED_FACE ( 'NONE', ( #243 ), #318, .F. ) ;
#278 = ORIENTED_EDGE ( 'NONE', *, *, #65, .T. ) ;
#279 = PERSON_AND_ORGANIZATION_ROLE ( 'design_owner' ) ;
#280 = DIRECTION ( 'NONE',  ( -4.221216316465188497E-31, -1.000000000000000000, -1.188166764367680040E-16 ) ) ;
#281 = PERSON_AND_ORGANIZATION ( #147, #221 ) ;
#282 = LOCAL_TIME ( 9, 50, 21.00000000000000000, #196 ) ;
#283 = ORIENTED_EDGE ( 'NONE', *, *, #265, .T. ) ;
#284 = PERSON_AND_ORGANIZATION ( #147, #221 ) ;
#285 = CC_DESIGN_DATE_AND_TIME_ASSIGNMENT ( #88, #135, ( #330 ) ) ;
#286 = ORIENTED_EDGE ( 'NONE', *, *, #184, .T. ) ;
#287 = VERTEX_POINT ( 'NONE', #89 ) ;
#288 = LOCAL_TIME ( 9, 50, 21.00000000000000000, #130 ) ;
#289 = VERTEX_POINT ( 'NONE', #166 ) ;
#290 = PERSON_AND_ORGANIZATION_ROLE ( 'design_supplier' ) ;
#291 = CARTESIAN_POINT ( 'NONE',  ( 3.828655890409368447E-15, -1.342911711732093657E-16, 1.096570629725305723 ) ) ;
#292 = CALENDAR_DATE ( 2021, 3, 9 ) ;
#293 = CIRCLE ( 'NONE', #124, 1.824999999999995515 ) ;
#294 = CALENDAR_DATE ( 2021, 3, 9 ) ;
#295 = PLANE ( 'NONE',  #191 ) ;
#296 = CARTESIAN_POINT ( 'NONE',  ( 3.828655890409368447E-15, -1.342911711732093657E-16, 1.096570629725305723 ) ) ;
#297 = DIRECTION ( 'NONE',  ( 1.903218546456022717E-15, 0.8571673007021097801, 0.5150380749100585964 ) ) ;
#298 = ORIENTED_EDGE ( 'NONE', *, *, #159, .T. ) ;
#299 = DIRECTION ( 'NONE',  ( -3.491481338843133355E-15, 1.224646799147353454E-16, -1.000000000000000000 ) ) ;
#300 = ORIENTED_EDGE ( 'NONE', *, *, #240, .T. ) ;
#301 = MECHANICAL_CONTEXT ( 'NONE', #3, 'mechanical' ) ;
#302 = CARTESIAN_POINT ( 'NONE',  ( 3.828655890409368447E-15, -1.342911711732093657E-16, 1.096570629725305723 ) ) ;
#303 = DIRECTION ( 'NONE',  ( 0.0000000000000000000, 1.000000000000000000, 0.0000000000000000000 ) ) ;
#304 = CALENDAR_DATE ( 2021, 3, 9 ) ;
#305 = EDGE_CURVE ( 'NONE', #20, #121, #336, .T. ) ;
#306 = VERTEX_POINT ( 'NONE', #275 ) ;
#307 = APPROVAL_DATE_TIME ( #198, #16 ) ;
#308 = ORIENTED_EDGE ( 'NONE', *, *, #265, .F. ) ;
#309 = ADVANCED_FACE ( 'NONE', ( #38 ), #30, .T. ) ;
#310 = EDGE_LOOP ( 'NONE', ( #125, #132, #108, #177 ) ) ;
#311 = PERSON_AND_ORGANIZATION_ROLE ( 'creator' ) ;
#312 = LINE ( 'NONE', #140, #25 ) ;
#313 = ADVANCED_BREP_SHAPE_REPRESENTATION ( '54557', ( #54, #46, #4 ), #227 ) ;
#314 = CARTESIAN_POINT ( 'NONE',  ( 4.052153931253760566E-15, 1.824999999999993738, 1.096570629725305945 ) ) ;
#315 = CARTESIAN_POINT ( 'NONE',  ( 1.815570296198429345E-13, 1.068578845146564787E-32, 52.00000000000000000 ) ) ;
#316 = LINE ( 'NONE', #188, #74 ) ;
#317 = EDGE_CURVE ( 'NONE', #287, #20, #239, .T. ) ;
#318 = PLANE ( 'NONE',  #186 ) ;
#319 = VECTOR ( 'NONE', #299, 1000.000000000000000 ) ;
#320 = AXIS2_PLACEMENT_3D ( 'NONE', #216, #141, #115 ) ;
#321 = CYLINDRICAL_SURFACE ( 'NONE', #252, 1.824999999999997735 ) ;
#322 = ORIENTED_EDGE ( 'NONE', *, *, #257, .F. ) ;
#323 = DIRECTION ( 'NONE',  ( 0.0000000000000000000, 1.000000000000000000, 0.0000000000000000000 ) ) ;
#324 = VERTEX_POINT ( 'NONE', #9 ) ;
#325 = APPROVAL_PERSON_ORGANIZATION ( #64, #229, #139 ) ;
#326 = EDGE_LOOP ( 'NONE', ( #78, #283, #255 ) ) ;
#327 = DIRECTION ( 'NONE',  ( 1.000000000000000000, 0.0000000000000000000, 0.0000000000000000000 ) ) ;
#328 = PRODUCT_RELATED_PRODUCT_CATEGORY ( 'detail', '', ( #266 ) ) ;
#329 = CARTESIAN_POINT ( 'NONE',  ( 0.0000000000000000000, 0.0000000000000000000, 0.0000000000000000000 ) ) ;
#330 = SECURITY_CLASSIFICATION ( '', '', #23 ) ;
#331 = VERTEX_POINT ( 'NONE', #44 ) ;
#332 = ORIENTED_EDGE ( 'NONE', *, *, #305, .T. ) ;
#333 = CC_DESIGN_PERSON_AND_ORGANIZATION_ASSIGNMENT ( #237, #290, ( #194 ) ) ;
#334 = EDGE_LOOP ( 'NONE', ( #100, #231, #84, #72 ) ) ;
#335 = AXIS2_PLACEMENT_3D ( 'NONE', #68, #146, #24 ) ;
#336 = CIRCLE ( 'NONE', #320, 1.824999999999995515 ) ;
#337 = APPROVAL_DATE_TIME ( #69, #229 ) ;
ENDSEC;
END-ISO-10303-21;
