ISO-10303-21;
HEADER;
FILE_DESCRIPTION (( 'STEP AP203' ),
    '1' );
FILE_NAME ('54556.step',
    '2021-09-03T07:50:18',
    ( '' ),
    ( '' ),
    'SwSTEP 2.0',
    'SolidWorks 2019',
    '' );
FILE_SCHEMA (( 'CONFIG_CONTROL_DESIGN' ));
ENDSEC;

DATA;
#1 = CARTESIAN_POINT ( 'NONE',  ( 5.237222008264700033E-14, -1.836970198721029983E-15, 15.00000000000000000 ) ) ;
#2 = LOCAL_TIME ( 9, 50, 18.00000000000000000, #226 ) ;
#3 = LINE ( 'NONE', #99, #276 ) ;
#4 = DIRECTION ( 'NONE',  ( -3.491481338843133355E-15, 1.224646799147353454E-16, -1.000000000000000000 ) ) ;
#5 = CC_DESIGN_DATE_AND_TIME_ASSIGNMENT ( #196, #278, ( #28 ) ) ;
#6 = CARTESIAN_POINT ( 'NONE',  ( 3.776208549444855848E-15, -1.324515660886448143E-16, 1.081549114249616528 ) ) ;
#7 = LINE ( 'NONE', #111, #268 ) ;
#8 = DIRECTION ( 'NONE',  ( 1.903218546456021928E-15, 0.8571673007021098911, 0.5150380749100583744 ) ) ;
#9 = CC_DESIGN_DATE_AND_TIME_ASSIGNMENT ( #178, #328, ( #92 ) ) ;
#10 = APPLICATION_PROTOCOL_DEFINITION ( 'international standard', 'config_control_design', 1994, #176 ) ;
#11 = VERTEX_POINT ( 'NONE', #211 ) ;
#12 = ORIENTED_EDGE ( 'NONE', *, *, #289, .F. ) ;
#13 = ORIENTED_EDGE ( 'NONE', *, *, #201, .T. ) ;
#14 = ADVANCED_FACE ( 'NONE', ( #322 ), #83, .T. ) ;
#15 = CLOSED_SHELL ( 'NONE', ( #329, #168, #233, #16, #94 ) ) ;
#16 = ADVANCED_FACE ( 'NONE', ( #267 ), #98, .T. ) ;
#17 = FACE_OUTER_BOUND ( 'NONE', #119, .T. ) ;
#18 = ORIENTED_EDGE ( 'NONE', *, *, #129, .T. ) ;
#19 = CIRCLE ( 'NONE', #269, 1.800000000000000044 ) ;
#20 = CARTESIAN_POINT ( 'NONE',  ( 3.996644973291379430E-15, 1.799999999999993605, 1.081549114249616750 ) ) ;
#21 = CARTESIAN_POINT ( 'NONE',  ( 7.696496602614504122E-31, 1.799999999999994715, 2.204364238465229659E-16 ) ) ;
#22 = CARTESIAN_POINT ( 'NONE',  ( 1.815570296198429345E-13, 1.049831847863291431E-32, 52.00000000000000000 ) ) ;
#23 = PLANE ( 'NONE',  #154 ) ;
#24 = CONICAL_SURFACE ( 'NONE', #88, 1.799999999999993827, 1.029744258676649871 ) ;
#25 = DIRECTION ( 'NONE',  ( -2.468850131082257455E-15, 0.7071067811865497932, -0.7071067811865453523 ) ) ;
#26 = FACE_OUTER_BOUND ( 'NONE', #323, .T. ) ;
#27 = DIRECTION ( 'NONE',  ( 0.0000000000000000000, 1.000000000000000000, 0.0000000000000000000 ) ) ;
#28 = SECURITY_CLASSIFICATION ( '', '', #89 ) ;
#29 = CARTESIAN_POINT ( 'NONE',  ( 1.801604370843056811E-13, -6.319177483600343742E-15, 51.60000000000000142 ) ) ;
#30 = DIRECTION ( 'NONE',  ( -3.491481338843133355E-15, 1.224646799147353454E-16, -1.000000000000000000 ) ) ;
#31 = ORIENTED_EDGE ( 'NONE', *, *, #212, .T. ) ;
#32 = AXIS2_PLACEMENT_3D ( 'NONE', #22, #227, #125 ) ;
#33 = APPROVAL ( #34, 'UNSPECIFIED' ) ;
#34 = APPROVAL_STATUS ( 'not_yet_approved' ) ;
#35 = CIRCLE ( 'NONE', #337, 1.799999999999995381 ) ;
#36 = CARTESIAN_POINT ( 'NONE',  ( 1.815570296198429345E-13, 1.399999999999993694, 52.00000000000000000 ) ) ;
#37 = PERSON_AND_ORGANIZATION_ROLE ( 'creator' ) ;
#38 = APPROVAL ( #216, 'UNSPECIFIED' ) ;
#39 = APPLICATION_PROTOCOL_DEFINITION ( 'international standard', 'config_control_design', 1994, #326 ) ;
#40 = ORIENTED_EDGE ( 'NONE', *, *, #243, .F. ) ;
#41 = CC_DESIGN_APPROVAL ( #56, ( #28 ) ) ;
#42 = CARTESIAN_POINT ( 'NONE',  ( 1.815570296198429345E-13, -6.368163355566237959E-15, 52.00000000000000000 ) ) ;
#43 = LINE ( 'NONE', #310, #60 ) ;
#44 = CIRCLE ( 'NONE', #261, 1.399999999999999911 ) ;
#45 = CIRCLE ( 'NONE', #215, 1.799999999999995381 ) ;
#46 = ADVANCED_FACE ( 'NONE', ( #204 ), #298, .T. ) ;
#47 = DIRECTION ( 'NONE',  ( 0.0000000000000000000, 1.000000000000000000, 0.0000000000000000000 ) ) ;
#48 = DIRECTION ( 'NONE',  ( 4.275831445896959482E-31, 1.000000000000000000, 1.224646799147353454E-16 ) ) ;
#49 = CARTESIAN_POINT ( 'NONE',  ( 5.237222008264700033E-14, -1.836970198721029983E-15, 15.00000000000000000 ) ) ;
#50 = CIRCLE ( 'NONE', #224, 1.799999999999993827 ) ;
#51 = DIRECTION ( 'NONE',  ( -3.491481338843133355E-15, 1.224646799147353454E-16, -1.000000000000000000 ) ) ;
#52 = DIRECTION ( 'NONE',  ( -3.491481338843133355E-15, 1.224646799147353454E-16, -1.000000000000000000 ) ) ;
#53 = ORIENTED_EDGE ( 'NONE', *, *, #312, .F. ) ;
#54 = AXIS2_PLACEMENT_3D ( 'NONE', #305, #277, #141 ) ;
#55 = ORIENTED_EDGE ( 'NONE', *, *, #303, .F. ) ;
#56 = APPROVAL ( #75, 'UNSPECIFIED' ) ;
#57 = CARTESIAN_POINT ( 'NONE',  ( 2.204364238465225468E-16, -1.799999999999997824, -2.204364238465240753E-16 ) ) ;
#58 = APPROVAL_DATE_TIME ( #272, #33 ) ;
#59 = EDGE_CURVE ( 'NONE', #241, #213, #44, .T. ) ;
#60 = VECTOR ( 'NONE', #145, 1000.000000000000000 ) ;
#61 = CARTESIAN_POINT ( 'NONE',  ( 2.829465073989242840E-14, -1.799999999999997158, 15.00000000000000000 ) ) ;
#62 = DATE_AND_TIME ( #274, #330 ) ;
#63 = VERTEX_POINT ( 'NONE', #263 ) ;
#64 = VERTEX_POINT ( 'NONE', #132 ) ;
#65 = FACE_OUTER_BOUND ( 'NONE', #182, .T. ) ;
#66 = VECTOR ( 'NONE', #25, 1000.000000000000114 ) ;
#67 = DESIGN_CONTEXT ( 'detailed design', #326, 'design' ) ;
#68 = CARTESIAN_POINT ( 'NONE',  ( 1.815570296198429345E-13, -6.368163355566237959E-15, 52.00000000000000000 ) ) ;
#69 = FACE_OUTER_BOUND ( 'NONE', #290, .T. ) ;
#70 = EDGE_CURVE ( 'NONE', #266, #114, #239, .T. ) ;
#71 = ORIENTED_EDGE ( 'NONE', *, *, #205, .F. ) ;
#72 = AXIS2_PLACEMENT_3D ( 'NONE', #1, #106, #283 ) ;
#73 = DIRECTION ( 'NONE',  ( -3.491481338843133355E-15, 1.224646799147353454E-16, -1.000000000000000000 ) ) ;
#74 = DIRECTION ( 'NONE',  ( 3.491481338843133355E-15, -1.224646799147353454E-16, 1.000000000000000000 ) ) ;
#75 = APPROVAL_STATUS ( 'not_yet_approved' ) ;
#76 = AXIS2_PLACEMENT_3D ( 'NONE', #147, #229, #259 ) ;
#77 = PERSON_AND_ORGANIZATION_ROLE ( 'creator' ) ;
#78 = CARTESIAN_POINT ( 'NONE',  ( 1.815570296198429345E-13, -6.368163355566237959E-15, 52.00000000000000000 ) ) ;
#79 = ORIENTED_EDGE ( 'NONE', *, *, #289, .T. ) ;
#80 = APPROVAL_ROLE ( '' ) ;
#81 = ORIENTED_EDGE ( 'NONE', *, *, #101, .F. ) ;
#82 = CARTESIAN_POINT ( 'NONE',  ( 1.817284801717235536E-13, -1.400000000000006350, 52.00000000000000000 ) ) ;
#83 = CYLINDRICAL_SURFACE ( 'NONE', #275, 1.799999999999997824 ) ;
#84 = APPROVAL_ROLE ( '' ) ;
#85 = DIRECTION ( 'NONE',  ( -2.382254525458708792E-15, -0.7071067811865495711, -0.7071067811865455743 ) ) ;
#86 = PERSON_AND_ORGANIZATION ( #279, #262 ) ;
#87 = ORIENTED_EDGE ( 'NONE', *, *, #205, .T. ) ;
#88 = AXIS2_PLACEMENT_3D ( 'NONE', #253, #157, #331 ) ;
#89 = SECURITY_CLASSIFICATION_LEVEL ( 'unclassified' ) ;
#90 = ORIENTED_EDGE ( 'NONE', *, *, #109, .F. ) ;
#91 = DIRECTION ( 'NONE',  ( -3.491481338843133355E-15, 1.224646799147353454E-16, -1.000000000000000000 ) ) ;
#92 = PRODUCT_DEFINITION ( 'UNKNOWN', '', #292, #67 ) ;
#93 = AXIS2_PLACEMENT_3D ( 'NONE', #172, #74, #236 ) ;
#94 = ADVANCED_FACE ( 'NONE', ( #26 ), #231, .T. ) ;
#95 = CARTESIAN_POINT ( 'NONE',  ( 2.204364238465222017E-16, -1.799999999999994715, -2.204364238465237548E-16 ) ) ;
#96 = CYLINDRICAL_SURFACE ( 'NONE', #271, 1.799999999999997824 ) ;
#97 = LOCAL_TIME ( 9, 50, 18.00000000000000000, #190 ) ;
#98 = CYLINDRICAL_SURFACE ( 'NONE', #107, 1.799999999999994715 ) ;
#99 = CARTESIAN_POINT ( 'NONE',  ( 3.996644973291379430E-15, 1.799999999999993605, 1.081549114249616750 ) ) ;
#100 = SHAPE_DEFINITION_REPRESENTATION ( #143, #164 ) ;
#101 = EDGE_CURVE ( 'NONE', #11, #110, #7, .T. ) ;
#102 = DIRECTION ( 'NONE',  ( 0.0000000000000000000, 1.000000000000000000, 0.0000000000000000000 ) ) ;
#103 = DIRECTION ( 'NONE',  ( 4.279844320860538909E-31, 1.000000000000000000, 1.204669080539453535E-16 ) ) ;
#104 = CC_DESIGN_PERSON_AND_ORGANIZATION_ASSIGNMENT ( #116, #77, ( #92 ) ) ;
#105 = PERSON_AND_ORGANIZATION ( #279, #262 ) ;
#106 = DIRECTION ( 'NONE',  ( -3.491481338843133355E-15, 1.224646799147353454E-16, -1.000000000000000000 ) ) ;
#107 = AXIS2_PLACEMENT_3D ( 'NONE', #130, #151, #242 ) ;
#108 = VECTOR ( 'NONE', #300, 1000.000000000000000 ) ;
#109 = EDGE_CURVE ( 'NONE', #114, #266, #118, .T. ) ;
#110 = VERTEX_POINT ( 'NONE', #291 ) ;
#111 = CARTESIAN_POINT ( 'NONE',  ( 3.776208549444855059E-15, -1.799999999999994049, 1.081549114249616306 ) ) ;
#112 = ORIENTED_EDGE ( 'NONE', *, *, #325, .T. ) ;
#113 = APPROVAL_PERSON_ORGANIZATION ( #320, #33, #80 ) ;
#114 = VERTEX_POINT ( 'NONE', #207 ) ;
#115 = EDGE_CURVE ( 'NONE', #64, #63, #35, .T. ) ;
#116 = PERSON_AND_ORGANIZATION ( #279, #262 ) ;
#117 = EDGE_LOOP ( 'NONE', ( #220, #135 ) ) ;
#118 = CIRCLE ( 'NONE', #72, 1.799999999999995381 ) ;
#119 = EDGE_LOOP ( 'NONE', ( #81, #13, #87 ) ) ;
#120 = CARTESIAN_POINT ( 'NONE',  ( 5.237222008264700033E-14, 1.349783804395666373E-32, 15.00000000000000000 ) ) ;
#121 = CIRCLE ( 'NONE', #230, 1.799999999999993827 ) ;
#122 = LINE ( 'NONE', #225, #66 ) ;
#123 = EDGE_LOOP ( 'NONE', ( #250, #179, #202, #287 ) ) ;
#124 = PRODUCT_RELATED_PRODUCT_CATEGORY ( 'detail', '', ( #200 ) ) ;
#125 = DIRECTION ( 'NONE',  ( 4.275831445896959482E-31, 1.000000000000000000, 1.224646799147353454E-16 ) ) ;
#126 = LINE ( 'NONE', #21, #108 ) ;
#127 = PERSON_AND_ORGANIZATION ( #279, #262 ) ;
#128 = AXIS2_PLACEMENT_3D ( 'NONE', #42, #91, #304 ) ;
#129 = EDGE_CURVE ( 'NONE', #266, #110, #219, .T. ) ;
#130 = CARTESIAN_POINT ( 'NONE',  ( 0.0000000000000000000, 0.0000000000000000000, 0.0000000000000000000 ) ) ;
#131 = MECHANICAL_CONTEXT ( 'NONE', #176, 'mechanical' ) ;
#132 = CARTESIAN_POINT ( 'NONE',  ( 1.164867650073228122E-13, -1.799999999999997158, 15.00000000000000000 ) ) ;
#133 = ORIENTED_EDGE ( 'NONE', *, *, #129, .F. ) ;
#134 = APPROVAL_PERSON_ORGANIZATION ( #295, #38, #84 ) ;
#135 = ORIENTED_EDGE ( 'NONE', *, *, #115, .T. ) ;
#136 = ORIENTED_EDGE ( 'NONE', *, *, #138, .F. ) ;
#137 = AXIS2_PLACEMENT_3D ( 'NONE', #68, #158, #254 ) ;
#138 = EDGE_CURVE ( 'NONE', #63, #64, #45, .T. ) ;
#139 = APPROVAL_PERSON_ORGANIZATION ( #127, #56, #284 ) ;
#140 = EDGE_LOOP ( 'NONE', ( #192, #31, #247, #53 ) ) ;
#141 = DIRECTION ( 'NONE',  ( 4.275831445896959482E-31, 1.000000000000000000, 1.224646799147353454E-16 ) ) ;
#142 = MANIFOLD_SOLID_BREP ( 'Corps-Déplacer/Copier1[2]', #15 ) ;
#143 = PRODUCT_DEFINITION_SHAPE ( 'NONE', 'NONE',  #92 ) ;
#144 = VECTOR ( 'NONE', #165, 1000.000000000000000 ) ;
#145 = DIRECTION ( 'NONE',  ( -3.491481338843133355E-15, 1.224646799147353454E-16, -1.000000000000000000 ) ) ;
#146 = VERTEX_POINT ( 'NONE', #20 ) ;
#147 = CARTESIAN_POINT ( 'NONE',  ( 1.801604370843056811E-13, -6.319177483600343742E-15, 51.60000000000000142 ) ) ;
#148 = ADVANCED_FACE ( 'NONE', ( #222 ), #308, .F. ) ;
#149 = DIRECTION ( 'NONE',  ( 0.0000000000000000000, 1.000000000000000000, 0.0000000000000000000 ) ) ;
#150 = ORIENTED_EDGE ( 'NONE', *, *, #303, .T. ) ;
#151 = DIRECTION ( 'NONE',  ( -3.491481338843133355E-15, 1.224646799147353454E-16, -1.000000000000000000 ) ) ;
#152 = ORIENTED_EDGE ( 'NONE', *, *, #212, .F. ) ;
#153 = APPROVAL_DATE_TIME ( #173, #56 ) ;
#154 = AXIS2_PLACEMENT_3D ( 'NONE', #120, #187, #273 ) ;
#155 = VECTOR ( 'NONE', #306, 1000.000000000000000 ) ;
#156 = PERSON_AND_ORGANIZATION ( #279, #262 ) ;
#157 = DIRECTION ( 'NONE',  ( 3.491481338843133355E-15, -1.224646799147353454E-16, 1.000000000000000000 ) ) ;
#158 = DIRECTION ( 'NONE',  ( -3.491481338843133355E-15, 1.224646799147353454E-16, -1.000000000000000000 ) ) ;
#159 = EDGE_CURVE ( 'NONE', #321, #218, #19, .T. ) ;
#160 = DIRECTION ( 'NONE',  ( 0.0000000000000000000, 0.0000000000000000000, 1.000000000000000000 ) ) ;
#161 = ORIENTED_EDGE ( 'NONE', *, *, #312, .T. ) ;
#162 = CC_DESIGN_PERSON_AND_ORGANIZATION_ASSIGNMENT ( #105, #270, ( #200 ) ) ;
#163 = PERSON_AND_ORGANIZATION ( #279, #262 ) ;
#164 = ADVANCED_BREP_SHAPE_REPRESENTATION ( '54556', ( #264, #142, #240 ), #249 ) ;
#165 = DIRECTION ( 'NONE',  ( -3.491481338843133355E-15, 1.224646799147353454E-16, -1.000000000000000000 ) ) ;
#166 = CC_DESIGN_APPROVAL ( #38, ( #292 ) ) ;
#167 = UNCERTAINTY_MEASURE_WITH_UNIT (LENGTH_MEASURE( 1.000000000000000082E-05 ), #223, 'distance_accuracy_value', 'NONE');
#168 = ADVANCED_FACE ( 'NONE', ( #17 ), #24, .T. ) ;
#169 = FACE_OUTER_BOUND ( 'NONE', #214, .T. ) ;
#170 = VECTOR ( 'NONE', #85, 1000.000000000000114 ) ;
#171 = EDGE_CURVE ( 'NONE', #110, #146, #50, .T. ) ;
#172 = CARTESIAN_POINT ( 'NONE',  ( 5.237222008264700033E-14, 1.349783804395666373E-32, 15.00000000000000000 ) ) ;
#173 = DATE_AND_TIME ( #175, #2 ) ;
#174 = CC_DESIGN_PERSON_AND_ORGANIZATION_ASSIGNMENT ( #86, #257, ( #292 ) ) ;
#175 = CALENDAR_DATE ( 2021, 3, 9 ) ;
#176 = APPLICATION_CONTEXT ( 'configuration controlled 3d designs of mechanical parts and assemblies' ) ;
#177 = CIRCLE ( 'NONE', #76, 1.800000000000000044 ) ;
#178 = DATE_AND_TIME ( #301, #307 ) ;
#179 = ORIENTED_EDGE ( 'NONE', *, *, #198, .T. ) ;
#180 = DIRECTION ( 'NONE',  ( 1.798245827342159528E-15, -0.8571673007021100021, 0.5150380749100580413 ) ) ;
#181 = ORIENTED_EDGE ( 'NONE', *, *, #159, .T. ) ;
#182 = EDGE_LOOP ( 'NONE', ( #152, #150, #161, #248 ) ) ;
#183 = LOCAL_TIME ( 9, 50, 18.00000000000000000, #221 ) ;
#184 = ADVANCED_FACE ( 'NONE', ( #69 ), #96, .T. ) ;
#185 = COORDINATED_UNIVERSAL_TIME_OFFSET ( 1, 0, .AHEAD. ) ;
#186 = CC_DESIGN_PERSON_AND_ORGANIZATION_ASSIGNMENT ( #156, #37, ( #292 ) ) ;
#187 = DIRECTION ( 'NONE',  ( 3.491481338843133355E-15, -1.224646799147353454E-16, 1.000000000000000000 ) ) ;
#188 = COORDINATED_UNIVERSAL_TIME_OFFSET ( 1, 0, .AHEAD. ) ;
#189 = DIRECTION ( 'NONE',  ( 3.491481338843133355E-15, -1.224646799147353454E-16, 1.000000000000000000 ) ) ;
#190 = COORDINATED_UNIVERSAL_TIME_OFFSET ( 1, 0, .AHEAD. ) ;
#191 = ORIENTED_EDGE ( 'NONE', *, *, #59, .F. ) ;
#192 = ORIENTED_EDGE ( 'NONE', *, *, #59, .T. ) ;
#193 = PERSON_AND_ORGANIZATION_ROLE ( 'classification_officer' ) ;
#194 = CYLINDRICAL_SURFACE ( 'NONE', #54, 1.799999999999994715 ) ;
#195 = ORIENTED_EDGE ( 'NONE', *, *, #70, .F. ) ;
#196 = DATE_AND_TIME ( #335, #183 ) ;
#197 = AXIS2_PLACEMENT_3D ( 'NONE', #285, #232, #102 ) ;
#198 = EDGE_CURVE ( 'NONE', #218, #321, #177, .T. ) ;
#199 = LINE ( 'NONE', #57, #144 ) ;
#200 = PRODUCT ( '54556', '54556', '', ( #131 ) ) ;
#201 = EDGE_CURVE ( 'NONE', #11, #146, #3, .T. ) ;
#202 = ORIENTED_EDGE ( 'NONE', *, *, #243, .T. ) ;
#203 = CARTESIAN_POINT ( 'NONE',  ( 0.0000000000000000000, 0.0000000000000000000, 0.0000000000000000000 ) ) ;
#204 = FACE_OUTER_BOUND ( 'NONE', #140, .T. ) ;
#205 = EDGE_CURVE ( 'NONE', #146, #110, #121, .T. ) ;
#206 = AXIS2_PLACEMENT_3D ( 'NONE', #327, #189, #280 ) ;
#207 = CARTESIAN_POINT ( 'NONE',  ( 5.237222008264700033E-14, 1.799999999999993605, 15.00000000000000000 ) ) ;
#208 = CARTESIAN_POINT ( 'NONE',  ( 0.0000000000000000000, 0.0000000000000000000, 0.0000000000000000000 ) ) ;
#209 = ORIENTED_EDGE ( 'NONE', *, *, #201, .F. ) ;
#210 = DIRECTION ( 'NONE',  ( 0.0000000000000000000, 1.000000000000000000, 0.0000000000000000000 ) ) ;
#211 = CARTESIAN_POINT ( 'NONE',  ( 0.0000000000000000000, 0.0000000000000000000, 0.0000000000000000000 ) ) ;
#212 = EDGE_CURVE ( 'NONE', #213, #218, #265, .T. ) ;
#213 = VERTEX_POINT ( 'NONE', #251 ) ;
#214 = EDGE_LOOP ( 'NONE', ( #209, #324, #237 ) ) ;
#215 = AXIS2_PLACEMENT_3D ( 'NONE', #235, #51, #47 ) ;
#216 = APPROVAL_STATUS ( 'not_yet_approved' ) ;
#217 = DIRECTION ( 'NONE',  ( 1.000000000000000000, 0.0000000000000000000, 0.0000000000000000000 ) ) ;
#218 = VERTEX_POINT ( 'NONE', #336 ) ;
#219 = LINE ( 'NONE', #95, #155 ) ;
#220 = ORIENTED_EDGE ( 'NONE', *, *, #138, .T. ) ;
#221 = COORDINATED_UNIVERSAL_TIME_OFFSET ( 1, 0, .AHEAD. ) ;
#222 = FACE_OUTER_BOUND ( 'NONE', #332, .T. ) ;
#223 =( LENGTH_UNIT ( ) NAMED_UNIT ( * ) SI_UNIT ( .MILLI., .METRE. ) );
#224 = AXIS2_PLACEMENT_3D ( 'NONE', #6, #258, #103 ) ;
#225 = CARTESIAN_POINT ( 'NONE',  ( 1.815570296198429345E-13, 1.399999999999993694, 52.00000000000000000 ) ) ;
#226 = COORDINATED_UNIVERSAL_TIME_OFFSET ( 1, 0, .AHEAD. ) ;
#227 = DIRECTION ( 'NONE',  ( -3.491481338843133355E-15, 1.224646799147353454E-16, -1.000000000000000000 ) ) ;
#228 = ORIENTED_EDGE ( 'NONE', *, *, #171, .F. ) ;
#229 = DIRECTION ( 'NONE',  ( -3.491481338843133355E-15, 1.224646799147353454E-16, -1.000000000000000000 ) ) ;
#230 = AXIS2_PLACEMENT_3D ( 'NONE', #286, #52, #319 ) ;
#231 = PLANE ( 'NONE',  #93 ) ;
#232 = DIRECTION ( 'NONE',  ( -3.491481338843133355E-15, 1.224646799147353454E-16, -1.000000000000000000 ) ) ;
#233 = ADVANCED_FACE ( 'NONE', ( #169 ), #311, .T. ) ;
#234 = DIRECTION ( 'NONE',  ( -3.491481338843133355E-15, 1.224646799147353454E-16, -1.000000000000000000 ) ) ;
#235 = CARTESIAN_POINT ( 'NONE',  ( 5.237222008264700033E-14, -1.836970198721029983E-15, 15.00000000000000000 ) ) ;
#236 = DIRECTION ( 'NONE',  ( -4.275831445896959482E-31, -1.000000000000000000, -1.224646799147353454E-16 ) ) ;
#237 = ORIENTED_EDGE ( 'NONE', *, *, #171, .T. ) ;
#238 =( NAMED_UNIT ( * ) SI_UNIT ( $, .STERADIAN. ) SOLID_ANGLE_UNIT ( ) );
#239 = CIRCLE ( 'NONE', #245, 1.799999999999995381 ) ;
#240 = AXIS2_PLACEMENT_3D ( 'NONE', #208, #160, #217 ) ;
#241 = VERTEX_POINT ( 'NONE', #36 ) ;
#242 = DIRECTION ( 'NONE',  ( 4.275831445896959482E-31, 1.000000000000000000, 1.224646799147353454E-16 ) ) ;
#243 = EDGE_CURVE ( 'NONE', #321, #63, #43, .T. ) ;
#244 = EDGE_LOOP ( 'NONE', ( #133, #333, #79, #228 ) ) ;
#245 = AXIS2_PLACEMENT_3D ( 'NONE', #314, #30, #149 ) ;
#246 = CC_DESIGN_SECURITY_CLASSIFICATION ( #28, ( #292 ) ) ;
#247 = ORIENTED_EDGE ( 'NONE', *, *, #159, .F. ) ;
#248 = ORIENTED_EDGE ( 'NONE', *, *, #198, .F. ) ;
#249 =( GEOMETRIC_REPRESENTATION_CONTEXT ( 3 ) GLOBAL_UNCERTAINTY_ASSIGNED_CONTEXT ( ( #167 ) ) GLOBAL_UNIT_ASSIGNED_CONTEXT ( ( #223, #309, #238 ) ) REPRESENTATION_CONTEXT ( 'NONE', 'WORKASPACE' ) );
#250 = ORIENTED_EDGE ( 'NONE', *, *, #325, .F. ) ;
#251 = CARTESIAN_POINT ( 'NONE',  ( 1.810546768399378815E-13, -1.400000000000006350, 52.00000000000000000 ) ) ;
#252 = EDGE_LOOP ( 'NONE', ( #302, #18, #71, #12 ) ) ;
#253 = CARTESIAN_POINT ( 'NONE',  ( 3.776208549444855848E-15, -1.324515660886448143E-16, 1.081549114249616528 ) ) ;
#254 = DIRECTION ( 'NONE',  ( 0.0000000000000000000, 1.000000000000000000, 0.0000000000000000000 ) ) ;
#255 = CIRCLE ( 'NONE', #137, 1.399999999999999911 ) ;
#256 = FACE_OUTER_BOUND ( 'NONE', #117, .T. ) ;
#257 = PERSON_AND_ORGANIZATION_ROLE ( 'design_supplier' ) ;
#258 = DIRECTION ( 'NONE',  ( -3.491481338843133355E-15, 1.224646799147353454E-16, -1.000000000000000000 ) ) ;
#259 = DIRECTION ( 'NONE',  ( 0.0000000000000000000, 1.000000000000000000, 0.0000000000000000000 ) ) ;
#260 = DIRECTION ( 'NONE',  ( -3.491481338843133355E-15, 1.224646799147353454E-16, -1.000000000000000000 ) ) ;
#261 = AXIS2_PLACEMENT_3D ( 'NONE', #78, #4, #210 ) ;
#262 = ORGANIZATION ( 'UNSPECIFIED', 'UNSPECIFIED', '' ) ;
#263 = CARTESIAN_POINT ( 'NONE',  ( 5.237222008264700033E-14, 1.799999999999993605, 15.00000000000000000 ) ) ;
#264 = MANIFOLD_SOLID_BREP ( 'Corps-Déplacer/Copier1[1]', #315 ) ;
#265 = LINE ( 'NONE', #82, #170 ) ;
#266 = VERTEX_POINT ( 'NONE', #61 ) ;
#267 = FACE_OUTER_BOUND ( 'NONE', #244, .T. ) ;
#268 = VECTOR ( 'NONE', #180, 1000.000000000000000 ) ;
#269 = AXIS2_PLACEMENT_3D ( 'NONE', #29, #234, #316 ) ;
#270 = PERSON_AND_ORGANIZATION_ROLE ( 'design_owner' ) ;
#271 = AXIS2_PLACEMENT_3D ( 'NONE', #203, #73, #48 ) ;
#272 = DATE_AND_TIME ( #317, #97 ) ;
#273 = DIRECTION ( 'NONE',  ( -4.275831445896959482E-31, -1.000000000000000000, -1.224646799147353454E-16 ) ) ;
#274 = CALENDAR_DATE ( 2021, 3, 9 ) ;
#275 = AXIS2_PLACEMENT_3D ( 'NONE', #293, #313, #288 ) ;
#276 = VECTOR ( 'NONE', #8, 1000.000000000000114 ) ;
#277 = DIRECTION ( 'NONE',  ( -3.491481338843133355E-15, 1.224646799147353454E-16, -1.000000000000000000 ) ) ;
#278 = DATE_TIME_ROLE ( 'classification_date' ) ;
#279 = PERSON ( 'UNSPECIFIED', 'UNSPECIFIED', 'UNSPECIFIED', ('UNSPECIFIED'), ('UNSPECIFIED'), ('UNSPECIFIED') ) ;
#280 = DIRECTION ( 'NONE',  ( -4.279844320860538909E-31, -1.000000000000000000, -1.204669080539453535E-16 ) ) ;
#281 = CC_DESIGN_PERSON_AND_ORGANIZATION_ASSIGNMENT ( #163, #193, ( #28 ) ) ;
#282 = CC_DESIGN_APPROVAL ( #33, ( #92 ) ) ;
#283 = DIRECTION ( 'NONE',  ( 0.0000000000000000000, 1.000000000000000000, 0.0000000000000000000 ) ) ;
#284 = APPROVAL_ROLE ( '' ) ;
#285 = CARTESIAN_POINT ( 'NONE',  ( 1.815570296198429345E-13, -6.368163355566237959E-15, 52.00000000000000000 ) ) ;
#286 = CARTESIAN_POINT ( 'NONE',  ( 3.776208549444855848E-15, -1.324515660886448143E-16, 1.081549114249616528 ) ) ;
#287 = ORIENTED_EDGE ( 'NONE', *, *, #115, .F. ) ;
#288 = DIRECTION ( 'NONE',  ( 4.275831445896959482E-31, 1.000000000000000000, 1.224646799147353454E-16 ) ) ;
#289 = EDGE_CURVE ( 'NONE', #114, #146, #126, .T. ) ;
#290 = EDGE_LOOP ( 'NONE', ( #181, #112, #136, #40 ) ) ;
#291 = CARTESIAN_POINT ( 'NONE',  ( 3.776208549444855059E-15, -1.799999999999994049, 1.081549114249616306 ) ) ;
#292 = PRODUCT_DEFINITION_FORMATION_WITH_SPECIFIED_SOURCE ( 'ANY', '', #200, .NOT_KNOWN. ) ;
#293 = CARTESIAN_POINT ( 'NONE',  ( 0.0000000000000000000, 0.0000000000000000000, 0.0000000000000000000 ) ) ;
#294 = CARTESIAN_POINT ( 'NONE',  ( 1.801604370843056811E-13, 1.799999999999993605, 51.60000000000000142 ) ) ;
#295 = PERSON_AND_ORGANIZATION ( #279, #262 ) ;
#296 = ADVANCED_FACE ( 'NONE', ( #256 ), #23, .F. ) ;
#297 = APPROVAL_DATE_TIME ( #62, #38 ) ;
#298 = CONICAL_SURFACE ( 'NONE', #197, 1.399999999999999911, 0.7853981633974512766 ) ;
#299 = CONICAL_SURFACE ( 'NONE', #128, 1.399999999999999911, 0.7853981633974512766 ) ;
#300 = DIRECTION ( 'NONE',  ( -3.491481338843133355E-15, 1.224646799147353454E-16, -1.000000000000000000 ) ) ;
#301 = CALENDAR_DATE ( 2021, 3, 9 ) ;
#302 = ORIENTED_EDGE ( 'NONE', *, *, #109, .T. ) ;
#303 = EDGE_CURVE ( 'NONE', #213, #241, #255, .T. ) ;
#304 = DIRECTION ( 'NONE',  ( 0.0000000000000000000, 1.000000000000000000, 0.0000000000000000000 ) ) ;
#305 = CARTESIAN_POINT ( 'NONE',  ( 0.0000000000000000000, 0.0000000000000000000, 0.0000000000000000000 ) ) ;
#306 = DIRECTION ( 'NONE',  ( -3.491481338843133355E-15, 1.224646799147353454E-16, -1.000000000000000000 ) ) ;
#307 = LOCAL_TIME ( 9, 50, 18.00000000000000000, #185 ) ;
#308 = PLANE ( 'NONE',  #32 ) ;
#309 =( NAMED_UNIT ( * ) PLANE_ANGLE_UNIT ( ) SI_UNIT ( $, .RADIAN. ) );
#310 = CARTESIAN_POINT ( 'NONE',  ( 7.696496602614517259E-31, 1.799999999999997824, 2.204364238465233604E-16 ) ) ;
#311 = CONICAL_SURFACE ( 'NONE', #206, 1.799999999999993827, 1.029744258676649871 ) ;
#312 = EDGE_CURVE ( 'NONE', #241, #321, #122, .T. ) ;
#313 = DIRECTION ( 'NONE',  ( -3.491481338843133355E-15, 1.224646799147353454E-16, -1.000000000000000000 ) ) ;
#314 = CARTESIAN_POINT ( 'NONE',  ( 5.237222008264700033E-14, -1.836970198721029983E-15, 15.00000000000000000 ) ) ;
#315 = CLOSED_SHELL ( 'NONE', ( #46, #184, #296, #14, #318, #148 ) ) ;
#316 = DIRECTION ( 'NONE',  ( 0.0000000000000000000, 1.000000000000000000, 0.0000000000000000000 ) ) ;
#317 = CALENDAR_DATE ( 2021, 3, 9 ) ;
#318 = ADVANCED_FACE ( 'NONE', ( #65 ), #299, .T. ) ;
#319 = DIRECTION ( 'NONE',  ( 4.279844320860538909E-31, 1.000000000000000000, 1.204669080539453535E-16 ) ) ;
#320 = PERSON_AND_ORGANIZATION ( #279, #262 ) ;
#321 = VERTEX_POINT ( 'NONE', #294 ) ;
#322 = FACE_OUTER_BOUND ( 'NONE', #123, .T. ) ;
#323 = EDGE_LOOP ( 'NONE', ( #90, #195 ) ) ;
#324 = ORIENTED_EDGE ( 'NONE', *, *, #101, .T. ) ;
#325 = EDGE_CURVE ( 'NONE', #218, #64, #199, .T. ) ;
#326 = APPLICATION_CONTEXT ( 'configuration controlled 3d designs of mechanical parts and assemblies' ) ;
#327 = CARTESIAN_POINT ( 'NONE',  ( 3.776208549444855848E-15, -1.324515660886448143E-16, 1.081549114249616528 ) ) ;
#328 = DATE_TIME_ROLE ( 'creation_date' ) ;
#329 = ADVANCED_FACE ( 'NONE', ( #334 ), #194, .T. ) ;
#330 = LOCAL_TIME ( 9, 50, 18.00000000000000000, #188 ) ;
#331 = DIRECTION ( 'NONE',  ( -4.279844320860538909E-31, -1.000000000000000000, -1.204669080539453535E-16 ) ) ;
#332 = EDGE_LOOP ( 'NONE', ( #191, #55 ) ) ;
#333 = ORIENTED_EDGE ( 'NONE', *, *, #70, .T. ) ;
#334 = FACE_OUTER_BOUND ( 'NONE', #252, .T. ) ;
#335 = CALENDAR_DATE ( 2021, 3, 9 ) ;
#336 = CARTESIAN_POINT ( 'NONE',  ( 1.164867650073226860E-13, -1.800000000000006040, 51.60000000000000142 ) ) ;
#337 = AXIS2_PLACEMENT_3D ( 'NONE', #49, #260, #27 ) ;
ENDSEC;
END-ISO-10303-21;
