ISO-10303-21;
HEADER;
FILE_DESCRIPTION (( 'STEP AP203' ),
    '1' );
FILE_NAME ('54554.step',
    '2021-09-03T07:50:15',
    ( '' ),
    ( '' ),
    'SwSTEP 2.0',
    'SolidWorks 2019',
    '' );
FILE_SCHEMA (( 'CONFIG_CONTROL_DESIGN' ));
ENDSEC;

DATA;
#1 = AXIS2_PLACEMENT_3D ( 'NONE', #199, #67, #285 ) ;
#2 = EDGE_LOOP ( 'NONE', ( #48, #232, #309, #82 ) ) ;
#3 = CC_DESIGN_PERSON_AND_ORGANIZATION_ASSIGNMENT ( #188, #58, ( #73 ) ) ;
#4 = VECTOR ( 'NONE', #144, 999.9999999999998863 ) ;
#5 = CALENDAR_DATE ( 2021, 3, 9 ) ;
#6 = DIRECTION ( 'NONE',  ( -3.491481338843133355E-15, 1.224646799147353454E-16, -1.000000000000000000 ) ) ;
#7 = DATE_TIME_ROLE ( 'creation_date' ) ;
#8 = PLANE ( 'NONE',  #10 ) ;
#9 = DIRECTION ( 'NONE',  ( 0.0000000000000000000, 1.000000000000000000, 0.0000000000000000000 ) ) ;
#10 = AXIS2_PLACEMENT_3D ( 'NONE', #251, #193, #63 ) ;
#11 = COORDINATED_UNIVERSAL_TIME_OFFSET ( 1, 0, .AHEAD. ) ;
#12 = CC_DESIGN_PERSON_AND_ORGANIZATION_ASSIGNMENT ( #160, #295, ( #294 ) ) ;
#13 = LINE ( 'NONE', #319, #317 ) ;
#14 =( NAMED_UNIT ( * ) SI_UNIT ( $, .STERADIAN. ) SOLID_ANGLE_UNIT ( ) );
#15 = CONICAL_SURFACE ( 'NONE', #283, 1.774999999999993916, 1.029744258676649649 ) ;
#16 = ORGANIZATION ( 'UNSPECIFIED', 'UNSPECIFIED', '' ) ;
#17 = FACE_OUTER_BOUND ( 'NONE', #230, .T. ) ;
#18 = ADVANCED_FACE ( 'NONE', ( #87 ), #299, .T. ) ;
#19 = FACE_OUTER_BOUND ( 'NONE', #97, .T. ) ;
#20 = ORIENTED_EDGE ( 'NONE', *, *, #215, .T. ) ;
#21 = VERTEX_POINT ( 'NONE', #53 ) ;
#22 = CARTESIAN_POINT ( 'NONE',  ( 0.0000000000000000000, 0.0000000000000000000, 0.0000000000000000000 ) ) ;
#23 = CONICAL_SURFACE ( 'NONE', #291, 1.375000000000000000, 0.7853981633974512766 ) ;
#24 = ADVANCED_FACE ( 'NONE', ( #244 ), #161, .T. ) ;
#25 = ORIENTED_EDGE ( 'NONE', *, *, #95, .T. ) ;
#26 = ORIENTED_EDGE ( 'NONE', *, *, #181, .F. ) ;
#27 = ORIENTED_EDGE ( 'NONE', *, *, #55, .T. ) ;
#28 = AXIS2_PLACEMENT_3D ( 'NONE', #252, #33, #326 ) ;
#29 = APPROVAL_PERSON_ORGANIZATION ( #203, #321, #224 ) ;
#30 = PERSON ( 'UNSPECIFIED', 'UNSPECIFIED', 'UNSPECIFIED', ('UNSPECIFIED'), ('UNSPECIFIED'), ('UNSPECIFIED') ) ;
#31 = EDGE_CURVE ( 'NONE', #176, #75, #126, .T. ) ;
#32 = PERSON_AND_ORGANIZATION ( #30, #16 ) ;
#33 = DIRECTION ( 'NONE',  ( -3.491481338843133355E-15, 1.224646799147353454E-16, -1.000000000000000000 ) ) ;
#34 = CARTESIAN_POINT ( 'NONE',  ( 0.0000000000000000000, 0.0000000000000000000, 0.0000000000000000000 ) ) ;
#35 = APPLICATION_CONTEXT ( 'configuration controlled 3d designs of mechanical parts and assemblies' ) ;
#36 = EDGE_CURVE ( 'NONE', #241, #201, #242, .T. ) ;
#37 = LINE ( 'NONE', #293, #288 ) ;
#38 = AXIS2_PLACEMENT_3D ( 'NONE', #163, #245, #135 ) ;
#39 = DIRECTION ( 'NONE',  ( 0.0000000000000000000, 1.000000000000000000, 0.0000000000000000000 ) ) ;
#40 = DIRECTION ( 'NONE',  ( -3.491481338843133355E-15, 1.224646799147353454E-16, -1.000000000000000000 ) ) ;
#41 = CARTESIAN_POINT ( 'NONE',  ( 5.237222008264700033E-14, 1.331036807112392743E-32, 15.00000000000000000 ) ) ;
#42 = ORIENTED_EDGE ( 'NONE', *, *, #215, .F. ) ;
#43 = CONICAL_SURFACE ( 'NONE', #273, 1.375000000000000000, 0.7853981633974512766 ) ;
#44 = CARTESIAN_POINT ( 'NONE',  ( 1.815570296198429345E-13, -6.368163355566237959E-15, 52.00000000000000000 ) ) ;
#45 = VERTEX_POINT ( 'NONE', #158 ) ;
#46 = CYLINDRICAL_SURFACE ( 'NONE', #1, 1.774999999999997469 ) ;
#47 = DIRECTION ( 'NONE',  ( -4.275831445896959482E-31, -1.000000000000000000, -1.224646799147353454E-16 ) ) ;
#48 = ORIENTED_EDGE ( 'NONE', *, *, #36, .T. ) ;
#49 = DESIGN_CONTEXT ( 'detailed design', #35, 'design' ) ;
#50 = ADVANCED_FACE ( 'NONE', ( #210 ), #15, .T. ) ;
#51 = ORIENTED_EDGE ( 'NONE', *, *, #115, .T. ) ;
#52 = CIRCLE ( 'NONE', #38, 1.774999999999995248 ) ;
#53 = CARTESIAN_POINT ( 'NONE',  ( 1.815570296198429345E-13, 1.374999999999993561, 52.00000000000000000 ) ) ;
#54 = CALENDAR_DATE ( 2021, 3, 9 ) ;
#55 = EDGE_CURVE ( 'NONE', #118, #134, #200, .T. ) ;
#56 = EDGE_LOOP ( 'NONE', ( #306, #238, #172 ) ) ;
#57 = AXIS2_PLACEMENT_3D ( 'NONE', #153, #80, #240 ) ;
#58 = PERSON_AND_ORGANIZATION_ROLE ( 'design_supplier' ) ;
#59 = EDGE_CURVE ( 'NONE', #262, #134, #208, .T. ) ;
#60 = CARTESIAN_POINT ( 'NONE',  ( 2.173748068486537885E-16, -1.774999999999994360, -2.173748068486552923E-16 ) ) ;
#61 = FACE_OUTER_BOUND ( 'NONE', #266, .T. ) ;
#62 = APPROVAL_DATE_TIME ( #186, #243 ) ;
#63 = DIRECTION ( 'NONE',  ( -4.275831445896959482E-31, -1.000000000000000000, -1.224646799147353454E-16 ) ) ;
#64 = CARTESIAN_POINT ( 'NONE',  ( 1.801604370843056811E-13, -6.319177483600343742E-15, 51.60000000000000142 ) ) ;
#65 = CARTESIAN_POINT ( 'NONE',  ( 5.237222008264700033E-14, -1.836970198721029983E-15, 15.00000000000000000 ) ) ;
#66 = AXIS2_PLACEMENT_3D ( 'NONE', #79, #220, #114 ) ;
#67 = DIRECTION ( 'NONE',  ( -3.491481338843133355E-15, 1.224646799147353454E-16, -1.000000000000000000 ) ) ;
#68 = CARTESIAN_POINT ( 'NONE',  ( 3.941136015328999873E-15, 1.774999999999993694, 1.066527598773927776 ) ) ;
#69 = EDGE_LOOP ( 'NONE', ( #312, #42 ) ) ;
#70 = DIRECTION ( 'NONE',  ( -3.491481338843133355E-15, 1.224646799147353454E-16, -1.000000000000000000 ) ) ;
#71 = AXIS2_PLACEMENT_3D ( 'NONE', #141, #275, #195 ) ;
#72 = ORIENTED_EDGE ( 'NONE', *, *, #279, .T. ) ;
#73 = PRODUCT_DEFINITION_FORMATION_WITH_SPECIFIED_SOURCE ( 'ANY', '', #154, .NOT_KNOWN. ) ;
#74 = DIRECTION ( 'NONE',  ( 1.000000000000000000, 0.0000000000000000000, 0.0000000000000000000 ) ) ;
#75 = VERTEX_POINT ( 'NONE', #68 ) ;
#76 = DIRECTION ( 'NONE',  ( 4.340123818337447489E-31, 1.000000000000000000, 1.221636250687896424E-16 ) ) ;
#77 = APPROVAL ( #88, 'UNSPECIFIED' ) ;
#78 = AXIS2_PLACEMENT_3D ( 'NONE', #247, #113, #222 ) ;
#79 = CARTESIAN_POINT ( 'NONE',  ( 3.723761208480344827E-15, -1.306119610040803369E-16, 1.066527598773927554 ) ) ;
#80 = DIRECTION ( 'NONE',  ( -3.491481338843133355E-15, 1.224646799147353454E-16, -1.000000000000000000 ) ) ;
#81 = CARTESIAN_POINT ( 'NONE',  ( 3.723761208480344038E-15, -1.774999999999994138, 1.066527598773927332 ) ) ;
#82 = ORIENTED_EDGE ( 'NONE', *, *, #276, .F. ) ;
#83 = APPROVAL_ROLE ( '' ) ;
#84 = DIRECTION ( 'NONE',  ( 4.275831445896959482E-31, 1.000000000000000000, 1.224646799147353454E-16 ) ) ;
#85 = CIRCLE ( 'NONE', #256, 1.774999999999999911 ) ;
#86 = LOCAL_TIME ( 9, 50, 15.00000000000000000, #166 ) ;
#87 = FACE_OUTER_BOUND ( 'NONE', #69, .T. ) ;
#88 = APPROVAL_STATUS ( 'not_yet_approved' ) ;
#89 = FACE_OUTER_BOUND ( 'NONE', #150, .T. ) ;
#90 = DIRECTION ( 'NONE',  ( -3.491481338843133355E-15, 1.224646799147353454E-16, -1.000000000000000000 ) ) ;
#91 = CIRCLE ( 'NONE', #78, 1.774999999999993916 ) ;
#92 = CC_DESIGN_PERSON_AND_ORGANIZATION_ASSIGNMENT ( #121, #142, ( #154 ) ) ;
#93 = LOCAL_TIME ( 9, 50, 15.00000000000000000, #11 ) ;
#94 = UNCERTAINTY_MEASURE_WITH_UNIT (LENGTH_MEASURE( 1.000000000000000082E-05 ), #116, 'distance_accuracy_value', 'NONE');
#95 = EDGE_CURVE ( 'NONE', #45, #284, #303, .T. ) ;
#96 = VECTOR ( 'NONE', #108, 1000.000000000000000 ) ;
#97 = EDGE_LOOP ( 'NONE', ( #145, #287, #259, #26 ) ) ;
#98 = DIRECTION ( 'NONE',  ( 1.798245827342160317E-15, -0.8571673007021098911, 0.5150380749100582634 ) ) ;
#99 = ORIENTED_EDGE ( 'NONE', *, *, #174, .T. ) ;
#100 = LINE ( 'NONE', #329, #315 ) ;
#101 = LOCAL_TIME ( 9, 50, 15.00000000000000000, #111 ) ;
#102 = CC_DESIGN_DATE_AND_TIME_ASSIGNMENT ( #159, #221, ( #294 ) ) ;
#103 = PRODUCT_DEFINITION_SHAPE ( 'NONE', 'NONE',  #162 ) ;
#104 = APPROVAL_DATE_TIME ( #211, #321 ) ;
#105 = DATE_AND_TIME ( #300, #93 ) ;
#106 = AXIS2_PLACEMENT_3D ( 'NONE', #41, #179, #47 ) ;
#107 = APPROVAL_STATUS ( 'not_yet_approved' ) ;
#108 = DIRECTION ( 'NONE',  ( -3.491481338843133355E-15, 1.224646799147353454E-16, -1.000000000000000000 ) ) ;
#109 = FACE_OUTER_BOUND ( 'NONE', #316, .T. ) ;
#110 = AXIS2_PLACEMENT_3D ( 'NONE', #278, #90, #265 ) ;
#111 = COORDINATED_UNIVERSAL_TIME_OFFSET ( 1, 0, .AHEAD. ) ;
#112 = CARTESIAN_POINT ( 'NONE',  ( 1.810516152229400075E-13, -1.375000000000006217, 52.00000000000000000 ) ) ;
#113 = DIRECTION ( 'NONE',  ( -3.491481338843133355E-15, 1.224646799147353454E-16, -1.000000000000000000 ) ) ;
#114 = DIRECTION ( 'NONE',  ( -4.340123818337447489E-31, -1.000000000000000000, -1.221636250687896424E-16 ) ) ;
#115 = EDGE_CURVE ( 'NONE', #134, #262, #85, .T. ) ;
#116 =( LENGTH_UNIT ( ) NAMED_UNIT ( * ) SI_UNIT ( .MILLI., .METRE. ) );
#117 = CIRCLE ( 'NONE', #213, 1.375000000000000000 ) ;
#118 = VERTEX_POINT ( 'NONE', #112 ) ;
#119 = DIRECTION ( 'NONE',  ( -3.491481338843133355E-15, 1.224646799147353454E-16, -1.000000000000000000 ) ) ;
#120 = LINE ( 'NONE', #229, #137 ) ;
#121 = PERSON_AND_ORGANIZATION ( #30, #16 ) ;
#122 = ORIENTED_EDGE ( 'NONE', *, *, #155, .F. ) ;
#123 = COORDINATED_UNIVERSAL_TIME_OFFSET ( 1, 0, .AHEAD. ) ;
#124 = EDGE_LOOP ( 'NONE', ( #228, #286, #127, #180 ) ) ;
#125 = DIRECTION ( 'NONE',  ( -3.491481338843133355E-15, 1.224646799147353454E-16, -1.000000000000000000 ) ) ;
#126 = CIRCLE ( 'NONE', #149, 1.774999999999993916 ) ;
#127 = ORIENTED_EDGE ( 'NONE', *, *, #234, .T. ) ;
#128 = EDGE_CURVE ( 'NONE', #284, #45, #52, .T. ) ;
#129 = ORIENTED_EDGE ( 'NONE', *, *, #249, .F. ) ;
#130 = PERSON_AND_ORGANIZATION ( #30, #16 ) ;
#131 = CARTESIAN_POINT ( 'NONE',  ( 2.826536545241230711E-14, -1.774999999999996803, 15.00000000000000000 ) ) ;
#132 = CC_DESIGN_DATE_AND_TIME_ASSIGNMENT ( #320, #7, ( #162 ) ) ;
#133 = MANIFOLD_SOLID_BREP ( 'Corps-Déplacer/Copier1[2]', #328 ) ;
#134 = VERTEX_POINT ( 'NONE', #218 ) ;
#135 = DIRECTION ( 'NONE',  ( 0.0000000000000000000, 1.000000000000000000, 0.0000000000000000000 ) ) ;
#136 = DIRECTION ( 'NONE',  ( -3.491481338843133355E-15, 1.224646799147353454E-16, -1.000000000000000000 ) ) ;
#137 = VECTOR ( 'NONE', #98, 1000.000000000000000 ) ;
#138 = CC_DESIGN_APPROVAL ( #321, ( #162 ) ) ;
#139 = SECURITY_CLASSIFICATION_LEVEL ( 'unclassified' ) ;
#140 = EDGE_CURVE ( 'NONE', #118, #21, #226, .T. ) ;
#141 = CARTESIAN_POINT ( 'NONE',  ( 1.815570296198429345E-13, -6.368163355566237959E-15, 52.00000000000000000 ) ) ;
#142 = PERSON_AND_ORGANIZATION_ROLE ( 'design_owner' ) ;
#143 = VECTOR ( 'NONE', #191, 1000.000000000000114 ) ;
#144 = DIRECTION ( 'NONE',  ( 1.903218546456022717E-15, 0.8571673007021097801, 0.5150380749100585964 ) ) ;
#145 = ORIENTED_EDGE ( 'NONE', *, *, #59, .T. ) ;
#146 = APPLICATION_PROTOCOL_DEFINITION ( 'international standard', 'config_control_design', 1994, #260 ) ;
#147 = ORIENTED_EDGE ( 'NONE', *, *, #279, .F. ) ;
#148 = DIRECTION ( 'NONE',  ( 0.0000000000000000000, 1.000000000000000000, 0.0000000000000000000 ) ) ;
#149 = AXIS2_PLACEMENT_3D ( 'NONE', #267, #125, #76 ) ;
#150 = EDGE_LOOP ( 'NONE', ( #129, #20, #198, #254 ) ) ;
#151 = ADVANCED_FACE ( 'NONE', ( #322 ), #325, .T. ) ;
#152 = ORIENTED_EDGE ( 'NONE', *, *, #332, .F. ) ;
#153 = CARTESIAN_POINT ( 'NONE',  ( 5.237222008264700033E-14, -1.836970198721029983E-15, 15.00000000000000000 ) ) ;
#154 = PRODUCT ( '54554', '54554', '', ( #264 ) ) ;
#155 = EDGE_CURVE ( 'NONE', #134, #284, #13, .T. ) ;
#156 = VECTOR ( 'NONE', #225, 1000.000000000000114 ) ;
#157 = CC_DESIGN_APPROVAL ( #243, ( #294 ) ) ;
#158 = CARTESIAN_POINT ( 'NONE',  ( 5.237222008264700033E-14, 1.774999999999993694, 15.00000000000000000 ) ) ;
#159 = DATE_AND_TIME ( #5, #101 ) ;
#160 = PERSON_AND_ORGANIZATION ( #30, #16 ) ;
#161 = CONICAL_SURFACE ( 'NONE', #66, 1.774999999999993916, 1.029744258676649649 ) ;
#162 = PRODUCT_DEFINITION ( 'UNKNOWN', '', #73, #49 ) ;
#163 = CARTESIAN_POINT ( 'NONE',  ( 5.237222008264700033E-14, -1.836970198721029983E-15, 15.00000000000000000 ) ) ;
#164 = SHAPE_DEFINITION_REPRESENTATION ( #103, #169 ) ;
#165 = CARTESIAN_POINT ( 'NONE',  ( 5.237222008264700033E-14, -1.836970198721029983E-15, 15.00000000000000000 ) ) ;
#166 = COORDINATED_UNIVERSAL_TIME_OFFSET ( 1, 0, .AHEAD. ) ;
#167 = DIRECTION ( 'NONE',  ( -3.491481338843133355E-15, 1.224646799147353454E-16, -1.000000000000000000 ) ) ;
#168 = DIRECTION ( 'NONE',  ( 0.0000000000000000000, 1.000000000000000000, 0.0000000000000000000 ) ) ;
#169 = ADVANCED_BREP_SHAPE_REPRESENTATION ( '54554', ( #258, #133, #268 ), #184 ) ;
#170 = CARTESIAN_POINT ( 'NONE',  ( 1.815570296198429345E-13, -6.368163355566237959E-15, 52.00000000000000000 ) ) ;
#171 = LINE ( 'NONE', #60, #96 ) ;
#172 = ORIENTED_EDGE ( 'NONE', *, *, #31, .T. ) ;
#173 = CARTESIAN_POINT ( 'NONE',  ( 3.941136015328999873E-15, 1.774999999999993694, 1.066527598773927776 ) ) ;
#174 = EDGE_CURVE ( 'NONE', #75, #176, #91, .T. ) ;
#175 = CLOSED_SHELL ( 'NONE', ( #297, #302, #263, #183, #272, #227 ) ) ;
#176 = VERTEX_POINT ( 'NONE', #81 ) ;
#177 = DIRECTION ( 'NONE',  ( -3.491481338843133355E-15, 1.224646799147353454E-16, -1.000000000000000000 ) ) ;
#178 = CARTESIAN_POINT ( 'NONE',  ( 0.0000000000000000000, 0.0000000000000000000, 0.0000000000000000000 ) ) ;
#179 = DIRECTION ( 'NONE',  ( 3.491481338843133355E-15, -1.224646799147353454E-16, 1.000000000000000000 ) ) ;
#180 = ORIENTED_EDGE ( 'NONE', *, *, #115, .F. ) ;
#181 = EDGE_CURVE ( 'NONE', #262, #45, #37, .T. ) ;
#182 = CIRCLE ( 'NONE', #311, 1.774999999999995248 ) ;
#183 = ADVANCED_FACE ( 'NONE', ( #61 ), #250, .T. ) ;
#184 =( GEOMETRIC_REPRESENTATION_CONTEXT ( 3 ) GLOBAL_UNCERTAINTY_ASSIGNED_CONTEXT ( ( #94 ) ) GLOBAL_UNIT_ASSIGNED_CONTEXT ( ( #116, #307, #14 ) ) REPRESENTATION_CONTEXT ( 'NONE', 'WORKASPACE' ) );
#185 = CC_DESIGN_SECURITY_CLASSIFICATION ( #294, ( #73 ) ) ;
#186 = DATE_AND_TIME ( #318, #86 ) ;
#187 = CARTESIAN_POINT ( 'NONE',  ( 1.801604370843056811E-13, -6.319177483600343742E-15, 51.60000000000000142 ) ) ;
#188 = PERSON_AND_ORGANIZATION ( #30, #16 ) ;
#189 = CARTESIAN_POINT ( 'NONE',  ( 3.723761208480344827E-15, -1.306119610040803369E-16, 1.066527598773927554 ) ) ;
#190 = FACE_OUTER_BOUND ( 'NONE', #290, .T. ) ;
#191 = DIRECTION ( 'NONE',  ( -2.382254525458708792E-15, -0.7071067811865495711, -0.7071067811865455743 ) ) ;
#192 = ADVANCED_FACE ( 'NONE', ( #89 ), #327, .T. ) ;
#193 = DIRECTION ( 'NONE',  ( 3.491481338843133355E-15, -1.224646799147353454E-16, 1.000000000000000000 ) ) ;
#194 = DIRECTION ( 'NONE',  ( -3.491481338843133355E-15, 1.224646799147353454E-16, -1.000000000000000000 ) ) ;
#195 = DIRECTION ( 'NONE',  ( 0.0000000000000000000, 1.000000000000000000, 0.0000000000000000000 ) ) ;
#196 = ORIENTED_EDGE ( 'NONE', *, *, #128, .F. ) ;
#197 = CARTESIAN_POINT ( 'NONE',  ( 5.237222008264700033E-14, 1.774999999999993694, 15.00000000000000000 ) ) ;
#198 = ORIENTED_EDGE ( 'NONE', *, *, #276, .T. ) ;
#199 = CARTESIAN_POINT ( 'NONE',  ( 0.0000000000000000000, 0.0000000000000000000, 0.0000000000000000000 ) ) ;
#200 = LINE ( 'NONE', #261, #143 ) ;
#201 = VERTEX_POINT ( 'NONE', #131 ) ;
#202 = DIRECTION ( 'NONE',  ( 0.0000000000000000000, 0.0000000000000000000, 1.000000000000000000 ) ) ;
#203 = PERSON_AND_ORGANIZATION ( #30, #16 ) ;
#204 = DIRECTION ( 'NONE',  ( -4.340123818337447489E-31, -1.000000000000000000, -1.221636250687896424E-16 ) ) ;
#205 = EDGE_LOOP ( 'NONE', ( #152, #237, #99 ) ) ;
#206 = PERSON_AND_ORGANIZATION_ROLE ( 'creator' ) ;
#207 = CARTESIAN_POINT ( 'NONE',  ( 1.815570296198429345E-13, 1.374999999999993561, 52.00000000000000000 ) ) ;
#208 = CIRCLE ( 'NONE', #323, 1.774999999999999911 ) ;
#209 = PERSON_AND_ORGANIZATION ( #30, #16 ) ;
#210 = FACE_OUTER_BOUND ( 'NONE', #205, .T. ) ;
#211 = DATE_AND_TIME ( #335, #289 ) ;
#212 = CC_DESIGN_PERSON_AND_ORGANIZATION_ASSIGNMENT ( #32, #246, ( #73 ) ) ;
#213 = AXIS2_PLACEMENT_3D ( 'NONE', #44, #70, #39 ) ;
#214 = CC_DESIGN_APPROVAL ( #77, ( #73 ) ) ;
#215 = EDGE_CURVE ( 'NONE', #201, #241, #182, .T. ) ;
#216 = APPROVAL_ROLE ( '' ) ;
#217 = DIRECTION ( 'NONE',  ( 0.0000000000000000000, 1.000000000000000000, 0.0000000000000000000 ) ) ;
#218 = CARTESIAN_POINT ( 'NONE',  ( 1.164837033903248120E-13, -1.775000000000006128, 51.60000000000000142 ) ) ;
#219 = AXIS2_PLACEMENT_3D ( 'NONE', #165, #6, #9 ) ;
#220 = DIRECTION ( 'NONE',  ( 3.491481338843133355E-15, -1.224646799147353454E-16, 1.000000000000000000 ) ) ;
#221 = DATE_TIME_ROLE ( 'classification_date' ) ;
#222 = DIRECTION ( 'NONE',  ( 4.340123818337447489E-31, 1.000000000000000000, 1.221636250687896424E-16 ) ) ;
#223 = DIRECTION ( 'NONE',  ( -3.491481338843133355E-15, 1.224646799147353454E-16, -1.000000000000000000 ) ) ;
#224 = APPROVAL_ROLE ( '' ) ;
#225 = DIRECTION ( 'NONE',  ( -2.468850131082257455E-15, 0.7071067811865497932, -0.7071067811865453523 ) ) ;
#226 = CIRCLE ( 'NONE', #71, 1.375000000000000000 ) ;
#227 = ADVANCED_FACE ( 'NONE', ( #190 ), #305, .F. ) ;
#228 = ORIENTED_EDGE ( 'NONE', *, *, #55, .F. ) ;
#229 = CARTESIAN_POINT ( 'NONE',  ( 3.723761208480344038E-15, -1.774999999999994138, 1.066527598773927332 ) ) ;
#230 = EDGE_LOOP ( 'NONE', ( #72, #27, #331, #308 ) ) ;
#231 = CARTESIAN_POINT ( 'NONE',  ( 1.815570296198429345E-13, -6.368163355566237959E-15, 52.00000000000000000 ) ) ;
#232 = ORIENTED_EDGE ( 'NONE', *, *, #249, .T. ) ;
#233 = APPLICATION_PROTOCOL_DEFINITION ( 'international standard', 'config_control_design', 1994, #35 ) ;
#234 = EDGE_CURVE ( 'NONE', #21, #262, #257, .T. ) ;
#235 = AXIS2_PLACEMENT_3D ( 'NONE', #34, #280, #84 ) ;
#236 = APPROVAL_PERSON_ORGANIZATION ( #292, #243, #216 ) ;
#237 = ORIENTED_EDGE ( 'NONE', *, *, #336, .T. ) ;
#238 = ORIENTED_EDGE ( 'NONE', *, *, #332, .T. ) ;
#239 = APPROVAL_PERSON_ORGANIZATION ( #130, #77, #83 ) ;
#240 = DIRECTION ( 'NONE',  ( 0.0000000000000000000, 1.000000000000000000, 0.0000000000000000000 ) ) ;
#241 = VERTEX_POINT ( 'NONE', #197 ) ;
#242 = CIRCLE ( 'NONE', #57, 1.774999999999995248 ) ;
#243 = APPROVAL ( #107, 'UNSPECIFIED' ) ;
#244 = FACE_OUTER_BOUND ( 'NONE', #56, .T. ) ;
#245 = DIRECTION ( 'NONE',  ( -3.491481338843133355E-15, 1.224646799147353454E-16, -1.000000000000000000 ) ) ;
#246 = PERSON_AND_ORGANIZATION_ROLE ( 'creator' ) ;
#247 = CARTESIAN_POINT ( 'NONE',  ( 3.723761208480344827E-15, -1.306119610040803369E-16, 1.066527598773927554 ) ) ;
#248 = APPROVAL_DATE_TIME ( #105, #77 ) ;
#249 = EDGE_CURVE ( 'NONE', #201, #176, #171, .T. ) ;
#250 = CYLINDRICAL_SURFACE ( 'NONE', #28, 1.774999999999997469 ) ;
#251 = CARTESIAN_POINT ( 'NONE',  ( 5.237222008264700033E-14, 1.331036807112392743E-32, 15.00000000000000000 ) ) ;
#252 = CARTESIAN_POINT ( 'NONE',  ( 0.0000000000000000000, 0.0000000000000000000, 0.0000000000000000000 ) ) ;
#253 = DIRECTION ( 'NONE',  ( -3.491481338843133355E-15, 1.224646799147353454E-16, -1.000000000000000000 ) ) ;
#254 = ORIENTED_EDGE ( 'NONE', *, *, #31, .F. ) ;
#255 = FACE_OUTER_BOUND ( 'NONE', #124, .T. ) ;
#256 = AXIS2_PLACEMENT_3D ( 'NONE', #187, #167, #217 ) ;
#257 = LINE ( 'NONE', #207, #156 ) ;
#258 = MANIFOLD_SOLID_BREP ( 'Corps-Déplacer/Copier1[1]', #175 ) ;
#259 = ORIENTED_EDGE ( 'NONE', *, *, #95, .F. ) ;
#260 = APPLICATION_CONTEXT ( 'configuration controlled 3d designs of mechanical parts and assemblies' ) ;
#261 = CARTESIAN_POINT ( 'NONE',  ( 1.817254185547257048E-13, -1.375000000000006217, 52.00000000000000000 ) ) ;
#262 = VERTEX_POINT ( 'NONE', #296 ) ;
#263 = ADVANCED_FACE ( 'NONE', ( #109 ), #8, .F. ) ;
#264 = MECHANICAL_CONTEXT ( 'NONE', #260, 'mechanical' ) ;
#265 = DIRECTION ( 'NONE',  ( 4.275831445896959482E-31, 1.000000000000000000, 1.224646799147353454E-16 ) ) ;
#266 = EDGE_LOOP ( 'NONE', ( #122, #51, #281, #196 ) ) ;
#267 = CARTESIAN_POINT ( 'NONE',  ( 3.723761208480344827E-15, -1.306119610040803369E-16, 1.066527598773927554 ) ) ;
#268 = AXIS2_PLACEMENT_3D ( 'NONE', #178, #202, #74 ) ;
#269 = CC_DESIGN_PERSON_AND_ORGANIZATION_ASSIGNMENT ( #209, #206, ( #162 ) ) ;
#270 = AXIS2_PLACEMENT_3D ( 'NONE', #274, #194, #301 ) ;
#271 = COORDINATED_UNIVERSAL_TIME_OFFSET ( 1, 0, .AHEAD. ) ;
#272 = ADVANCED_FACE ( 'NONE', ( #255 ), #43, .T. ) ;
#273 = AXIS2_PLACEMENT_3D ( 'NONE', #231, #253, #148 ) ;
#274 = CARTESIAN_POINT ( 'NONE',  ( 0.0000000000000000000, 0.0000000000000000000, 0.0000000000000000000 ) ) ;
#275 = DIRECTION ( 'NONE',  ( -3.491481338843133355E-15, 1.224646799147353454E-16, -1.000000000000000000 ) ) ;
#276 = EDGE_CURVE ( 'NONE', #241, #75, #100, .T. ) ;
#277 = DIRECTION ( 'NONE',  ( -3.491481338843133355E-15, 1.224646799147353454E-16, -1.000000000000000000 ) ) ;
#278 = CARTESIAN_POINT ( 'NONE',  ( 1.815570296198429345E-13, 1.031084850580018210E-32, 52.00000000000000000 ) ) ;
#279 = EDGE_CURVE ( 'NONE', #21, #118, #117, .T. ) ;
#280 = DIRECTION ( 'NONE',  ( -3.491481338843133355E-15, 1.224646799147353454E-16, -1.000000000000000000 ) ) ;
#281 = ORIENTED_EDGE ( 'NONE', *, *, #181, .T. ) ;
#282 = PRODUCT_RELATED_PRODUCT_CATEGORY ( 'detail', '', ( #154 ) ) ;
#283 = AXIS2_PLACEMENT_3D ( 'NONE', #189, #324, #204 ) ;
#284 = VERTEX_POINT ( 'NONE', #310 ) ;
#285 = DIRECTION ( 'NONE',  ( 4.275831445896959482E-31, 1.000000000000000000, 1.224646799147353454E-16 ) ) ;
#286 = ORIENTED_EDGE ( 'NONE', *, *, #140, .T. ) ;
#287 = ORIENTED_EDGE ( 'NONE', *, *, #155, .T. ) ;
#288 = VECTOR ( 'NONE', #136, 1000.000000000000000 ) ;
#289 = LOCAL_TIME ( 9, 50, 15.00000000000000000, #123 ) ;
#290 = EDGE_LOOP ( 'NONE', ( #147, #314 ) ) ;
#291 = AXIS2_PLACEMENT_3D ( 'NONE', #170, #119, #304 ) ;
#292 = PERSON_AND_ORGANIZATION ( #30, #16 ) ;
#293 = CARTESIAN_POINT ( 'NONE',  ( 7.589600816467092812E-31, 1.774999999999997469, 2.173748068486549471E-16 ) ) ;
#294 = SECURITY_CLASSIFICATION ( '', '', #139 ) ;
#295 = PERSON_AND_ORGANIZATION_ROLE ( 'classification_officer' ) ;
#296 = CARTESIAN_POINT ( 'NONE',  ( 1.801604370843056811E-13, 1.774999999999993694, 51.60000000000000142 ) ) ;
#297 = ADVANCED_FACE ( 'NONE', ( #17 ), #23, .T. ) ;
#298 = DIRECTION ( 'NONE',  ( 0.0000000000000000000, 1.000000000000000000, 0.0000000000000000000 ) ) ;
#299 = PLANE ( 'NONE',  #106 ) ;
#300 = CALENDAR_DATE ( 2021, 3, 9 ) ;
#301 = DIRECTION ( 'NONE',  ( 4.275831445896959482E-31, 1.000000000000000000, 1.224646799147353454E-16 ) ) ;
#302 = ADVANCED_FACE ( 'NONE', ( #19 ), #46, .T. ) ;
#303 = CIRCLE ( 'NONE', #219, 1.774999999999995248 ) ;
#304 = DIRECTION ( 'NONE',  ( 0.0000000000000000000, 1.000000000000000000, 0.0000000000000000000 ) ) ;
#305 = PLANE ( 'NONE',  #110 ) ;
#306 = ORIENTED_EDGE ( 'NONE', *, *, #336, .F. ) ;
#307 =( NAMED_UNIT ( * ) PLANE_ANGLE_UNIT ( ) SI_UNIT ( $, .RADIAN. ) );
#308 = ORIENTED_EDGE ( 'NONE', *, *, #234, .F. ) ;
#309 = ORIENTED_EDGE ( 'NONE', *, *, #174, .F. ) ;
#310 = CARTESIAN_POINT ( 'NONE',  ( 1.164837033903249382E-13, -1.774999999999997025, 15.00000000000000000 ) ) ;
#311 = AXIS2_PLACEMENT_3D ( 'NONE', #65, #223, #168 ) ;
#312 = ORIENTED_EDGE ( 'NONE', *, *, #36, .F. ) ;
#313 = APPROVAL_STATUS ( 'not_yet_approved' ) ;
#314 = ORIENTED_EDGE ( 'NONE', *, *, #140, .F. ) ;
#315 = VECTOR ( 'NONE', #177, 1000.000000000000000 ) ;
#316 = EDGE_LOOP ( 'NONE', ( #25, #333 ) ) ;
#317 = VECTOR ( 'NONE', #277, 1000.000000000000000 ) ;
#318 = CALENDAR_DATE ( 2021, 3, 9 ) ;
#319 = CARTESIAN_POINT ( 'NONE',  ( 2.173748068486541336E-16, -1.774999999999997469, -2.173748068486556620E-16 ) ) ;
#320 = DATE_AND_TIME ( #54, #334 ) ;
#321 = APPROVAL ( #313, 'UNSPECIFIED' ) ;
#322 = FACE_OUTER_BOUND ( 'NONE', #2, .T. ) ;
#323 = AXIS2_PLACEMENT_3D ( 'NONE', #64, #40, #298 ) ;
#324 = DIRECTION ( 'NONE',  ( 3.491481338843133355E-15, -1.224646799147353454E-16, 1.000000000000000000 ) ) ;
#325 = CYLINDRICAL_SURFACE ( 'NONE', #235, 1.774999999999994360 ) ;
#326 = DIRECTION ( 'NONE',  ( 4.275831445896959482E-31, 1.000000000000000000, 1.224646799147353454E-16 ) ) ;
#327 = CYLINDRICAL_SURFACE ( 'NONE', #270, 1.774999999999994360 ) ;
#328 = CLOSED_SHELL ( 'NONE', ( #151, #50, #24, #192, #18 ) ) ;
#329 = CARTESIAN_POINT ( 'NONE',  ( 7.589600816467078799E-31, 1.774999999999994360, 2.173748068486545527E-16 ) ) ;
#330 = LINE ( 'NONE', #173, #4 ) ;
#331 = ORIENTED_EDGE ( 'NONE', *, *, #59, .F. ) ;
#332 = EDGE_CURVE ( 'NONE', #337, #176, #120, .T. ) ;
#333 = ORIENTED_EDGE ( 'NONE', *, *, #128, .T. ) ;
#334 = LOCAL_TIME ( 9, 50, 15.00000000000000000, #271 ) ;
#335 = CALENDAR_DATE ( 2021, 3, 9 ) ;
#336 = EDGE_CURVE ( 'NONE', #337, #75, #330, .T. ) ;
#337 = VERTEX_POINT ( 'NONE', #22 ) ;
ENDSEC;
END-ISO-10303-21;
