ISO-10303-21;
HEADER;
FILE_DESCRIPTION (( 'STEP AP203' ),
    '1' );
FILE_NAME ('54552.step',
    '2021-09-03T07:50:09',
    ( '' ),
    ( '' ),
    'SwSTEP 2.0',
    'SolidWorks 2019',
    '' );
FILE_SCHEMA (( 'CONFIG_CONTROL_DESIGN' ));
ENDSEC;

DATA;
#1 = DATE_AND_TIME ( #263, #220 ) ;
#2 = DIRECTION ( 'NONE',  ( 0.0000000000000000000, 1.000000000000000000, 0.0000000000000000000 ) ) ;
#3 = CIRCLE ( 'NONE', #197, 1.724999999999994094 ) ;
#4 = ORIENTED_EDGE ( 'NONE', *, *, #231, .F. ) ;
#5 = DIRECTION ( 'NONE',  ( 3.491481338843133355E-15, -1.224646799147353454E-16, 1.000000000000000000 ) ) ;
#6 = ORIENTED_EDGE ( 'NONE', *, *, #258, .F. ) ;
#7 = FACE_OUTER_BOUND ( 'NONE', #46, .T. ) ;
#8 = ORIENTED_EDGE ( 'NONE', *, *, #258, .T. ) ;
#9 = ADVANCED_FACE ( 'NONE', ( #16 ), #127, .T. ) ;
#10 = LINE ( 'NONE', #121, #114 ) ;
#11 = ORIENTED_EDGE ( 'NONE', *, *, #139, .F. ) ;
#12 = LOCAL_TIME ( 9, 50, 9.000000000000000000, #160 ) ;
#13 = CARTESIAN_POINT ( 'NONE',  ( 0.0000000000000000000, 0.0000000000000000000, 0.0000000000000000000 ) ) ;
#14 = ORIENTED_EDGE ( 'NONE', *, *, #139, .T. ) ;
#15 =( NAMED_UNIT ( * ) SI_UNIT ( $, .STERADIAN. ) SOLID_ANGLE_UNIT ( ) );
#16 = FACE_OUTER_BOUND ( 'NONE', #122, .T. ) ;
#17 = APPLICATION_CONTEXT ( 'configuration controlled 3d designs of mechanical parts and assemblies' ) ;
#18 = PRODUCT_DEFINITION_FORMATION_WITH_SPECIFIED_SOURCE ( 'ANY', '', #246, .NOT_KNOWN. ) ;
#19 = DIRECTION ( 'NONE',  ( -3.491481338843133355E-15, 1.224646799147353454E-16, -1.000000000000000000 ) ) ;
#20 = DIRECTION ( 'NONE',  ( 0.0000000000000000000, 1.000000000000000000, 0.0000000000000000000 ) ) ;
#21 = APPROVAL ( #285, 'UNSPECIFIED' ) ;
#22 = CALENDAR_DATE ( 2021, 3, 9 ) ;
#23 = VECTOR ( 'NONE', #289, 1000.000000000000114 ) ;
#24 = APPROVAL_DATE_TIME ( #133, #53 ) ;
#25 = COORDINATED_UNIVERSAL_TIME_OFFSET ( 1, 0, .AHEAD. ) ;
#26 = APPROVAL_ROLE ( '' ) ;
#27 = MANIFOLD_SOLID_BREP ( 'Corps-Déplacer/Copier1[2]', #65 ) ;
#28 = PERSON_AND_ORGANIZATION ( #208, #163 ) ;
#29 = AXIS2_PLACEMENT_3D ( 'NONE', #268, #295, #90 ) ;
#30 = AXIS2_PLACEMENT_3D ( 'NONE', #77, #156, #230 ) ;
#31 = SECURITY_CLASSIFICATION_LEVEL ( 'unclassified' ) ;
#32 = DIRECTION ( 'NONE',  ( -3.491481338843133355E-15, 1.224646799147353454E-16, -1.000000000000000000 ) ) ;
#33 = ORIENTED_EDGE ( 'NONE', *, *, #154, .T. ) ;
#34 = DIRECTION ( 'NONE',  ( -3.491481338843133355E-15, 1.224646799147353454E-16, -1.000000000000000000 ) ) ;
#35 = CARTESIAN_POINT ( 'NONE',  ( 1.815570296198429345E-13, 1.324999999999993960, 52.00000000000000000 ) ) ;
#36 = VERTEX_POINT ( 'NONE', #224 ) ;
#37 =( GEOMETRIC_REPRESENTATION_CONTEXT ( 3 ) GLOBAL_UNCERTAINTY_ASSIGNED_CONTEXT ( ( #58 ) ) GLOBAL_UNIT_ASSIGNED_CONTEXT ( ( #202, #152, #15 ) ) REPRESENTATION_CONTEXT ( 'NONE', 'WORKASPACE' ) );
#38 = DIRECTION ( 'NONE',  ( -3.491481338843133355E-15, 1.224646799147353454E-16, -1.000000000000000000 ) ) ;
#39 = APPROVAL ( #82, 'UNSPECIFIED' ) ;
#40 = CARTESIAN_POINT ( 'NONE',  ( 3.830118099404239180E-15, 1.724999999999993872, 1.036484567822549607 ) ) ;
#41 = DESIGN_CONTEXT ( 'detailed design', #17, 'design' ) ;
#42 = DIRECTION ( 'NONE',  ( 0.0000000000000000000, 1.000000000000000000, 0.0000000000000000000 ) ) ;
#43 = ORIENTED_EDGE ( 'NONE', *, *, #287, .F. ) ;
#44 = ORIENTED_EDGE ( 'NONE', *, *, #249, .F. ) ;
#45 = FACE_OUTER_BOUND ( 'NONE', #286, .T. ) ;
#46 = EDGE_LOOP ( 'NONE', ( #324, #253, #244, #275 ) ) ;
#47 = ADVANCED_FACE ( 'NONE', ( #73 ), #126, .F. ) ;
#48 = FACE_OUTER_BOUND ( 'NONE', #296, .T. ) ;
#49 = CARTESIAN_POINT ( 'NONE',  ( 5.237222008264700033E-14, -1.836970198721029983E-15, 15.00000000000000000 ) ) ;
#50 = VECTOR ( 'NONE', #315, 1000.000000000000000 ) ;
#51 = VECTOR ( 'NONE', #106, 1000.000000000000000 ) ;
#52 = DIRECTION ( 'NONE',  ( 4.465924508724040182E-31, 1.000000000000000000, 1.257045997084647049E-16 ) ) ;
#53 = APPROVAL ( #283, 'UNSPECIFIED' ) ;
#54 = PERSON_AND_ORGANIZATION_ROLE ( 'creator' ) ;
#55 = CARTESIAN_POINT ( 'NONE',  ( 0.0000000000000000000, 0.0000000000000000000, 0.0000000000000000000 ) ) ;
#56 = CC_DESIGN_SECURITY_CLASSIFICATION ( #282, ( #18 ) ) ;
#57 = DATE_TIME_ROLE ( 'creation_date' ) ;
#58 = UNCERTAINTY_MEASURE_WITH_UNIT (LENGTH_MEASURE( 1.000000000000000082E-05 ), #202, 'distance_accuracy_value', 'NONE');
#59 = ADVANCED_FACE ( 'NONE', ( #103 ), #200, .T. ) ;
#60 = DATE_AND_TIME ( #237, #302 ) ;
#61 = AXIS2_PLACEMENT_3D ( 'NONE', #68, #141, #42 ) ;
#62 = LINE ( 'NONE', #215, #264 ) ;
#63 = DIRECTION ( 'NONE',  ( -3.491481338843133355E-15, 1.224646799147353454E-16, -1.000000000000000000 ) ) ;
#64 = CARTESIAN_POINT ( 'NONE',  ( 1.815570296198429345E-13, -6.368163355566237959E-15, 52.00000000000000000 ) ) ;
#65 = CLOSED_SHELL ( 'NONE', ( #291, #93, #113, #236, #59 ) ) ;
#66 = ORIENTED_EDGE ( 'NONE', *, *, #337, .F. ) ;
#67 = CC_DESIGN_APPROVAL ( #39, ( #86 ) ) ;
#68 = CARTESIAN_POINT ( 'NONE',  ( 5.237222008264700033E-14, -1.836970198721029983E-15, 15.00000000000000000 ) ) ;
#69 = ORIENTED_EDGE ( 'NONE', *, *, #192, .T. ) ;
#70 = FACE_OUTER_BOUND ( 'NONE', #194, .T. ) ;
#71 = ORIENTED_EDGE ( 'NONE', *, *, #135, .T. ) ;
#72 = CARTESIAN_POINT ( 'NONE',  ( 3.618866526551321207E-15, -1.269327508349513081E-16, 1.036484567822549385 ) ) ;
#73 = FACE_OUTER_BOUND ( 'NONE', #171, .T. ) ;
#74 = AXIS2_PLACEMENT_3D ( 'NONE', #119, #34, #98 ) ;
#75 = ADVANCED_BREP_SHAPE_REPRESENTATION ( '54552', ( #134, #27, #190 ), #37 ) ;
#76 = AXIS2_PLACEMENT_3D ( 'NONE', #274, #281, #329 ) ;
#77 = CARTESIAN_POINT ( 'NONE',  ( 1.815570296198429345E-13, 9.935908560134719071E-33, 52.00000000000000000 ) ) ;
#78 = VERTEX_POINT ( 'NONE', #40 ) ;
#79 = PLANE ( 'NONE',  #30 ) ;
#80 = CC_DESIGN_PERSON_AND_ORGANIZATION_ASSIGNMENT ( #235, #54, ( #18 ) ) ;
#81 = CYLINDRICAL_SURFACE ( 'NONE', #166, 1.724999999999994760 ) ;
#82 = APPROVAL_STATUS ( 'not_yet_approved' ) ;
#83 = PERSON_AND_ORGANIZATION_ROLE ( 'creator' ) ;
#84 = PERSON_AND_ORGANIZATION_ROLE ( 'classification_officer' ) ;
#85 = PERSON_AND_ORGANIZATION ( #208, #163 ) ;
#86 = PRODUCT_DEFINITION ( 'UNKNOWN', '', #18, #41 ) ;
#87 = EDGE_LOOP ( 'NONE', ( #300, #218, #6, #298 ) ) ;
#88 = AXIS2_PLACEMENT_3D ( 'NONE', #214, #94, #186 ) ;
#89 = APPROVAL_PERSON_ORGANIZATION ( #85, #21, #26 ) ;
#90 = DIRECTION ( 'NONE',  ( 0.0000000000000000000, 1.000000000000000000, 0.0000000000000000000 ) ) ;
#91 = FACE_OUTER_BOUND ( 'NONE', #112, .T. ) ;
#92 = CARTESIAN_POINT ( 'NONE',  ( 1.815570296198429345E-13, -6.368163355566237959E-15, 52.00000000000000000 ) ) ;
#93 = ADVANCED_FACE ( 'NONE', ( #91 ), #178, .T. ) ;
#94 = DIRECTION ( 'NONE',  ( -3.491481338843133355E-15, 1.224646799147353454E-16, -1.000000000000000000 ) ) ;
#95 = AXIS2_PLACEMENT_3D ( 'NONE', #92, #187, #149 ) ;
#96 = VERTEX_POINT ( 'NONE', #241 ) ;
#97 = AXIS2_PLACEMENT_3D ( 'NONE', #49, #303, #20 ) ;
#98 = DIRECTION ( 'NONE',  ( 0.0000000000000000000, 1.000000000000000000, 0.0000000000000000000 ) ) ;
#99 = ORIENTED_EDGE ( 'NONE', *, *, #148, .F. ) ;
#100 = CYLINDRICAL_SURFACE ( 'NONE', #179, 1.724999999999997868 ) ;
#101 = ORIENTED_EDGE ( 'NONE', *, *, #249, .T. ) ;
#102 = DIRECTION ( 'NONE',  ( 4.465924508724040182E-31, 1.000000000000000000, 1.257045997084647049E-16 ) ) ;
#103 = FACE_OUTER_BOUND ( 'NONE', #144, .T. ) ;
#104 = CIRCLE ( 'NONE', #97, 1.724999999999995648 ) ;
#105 = CC_DESIGN_PERSON_AND_ORGANIZATION_ASSIGNMENT ( #180, #232, ( #246 ) ) ;
#106 = DIRECTION ( 'NONE',  ( -3.491481338843133355E-15, 1.224646799147353454E-16, -1.000000000000000000 ) ) ;
#107 = LINE ( 'NONE', #128, #307 ) ;
#108 = CALENDAR_DATE ( 2021, 3, 9 ) ;
#109 = APPROVAL_DATE_TIME ( #1, #21 ) ;
#110 = DATE_AND_TIME ( #132, #12 ) ;
#111 = EDGE_CURVE ( 'NONE', #222, #191, #292, .T. ) ;
#112 = EDGE_LOOP ( 'NONE', ( #319, #33, #8 ) ) ;
#113 = ADVANCED_FACE ( 'NONE', ( #70 ), #280, .T. ) ;
#114 = VECTOR ( 'NONE', #221, 1000.000000000000000 ) ;
#115 = DIRECTION ( 'NONE',  ( -4.465924508724040182E-31, -1.000000000000000000, -1.257045997084647049E-16 ) ) ;
#116 = CARTESIAN_POINT ( 'NONE',  ( 1.815570296198429345E-13, 1.324999999999993960, 52.00000000000000000 ) ) ;
#117 = ORIENTED_EDGE ( 'NONE', *, *, #305, .T. ) ;
#118 = EDGE_CURVE ( 'NONE', #36, #196, #205, .T. ) ;
#119 = CARTESIAN_POINT ( 'NONE',  ( 1.815570296198429345E-13, -6.368163355566237959E-15, 52.00000000000000000 ) ) ;
#120 = VERTEX_POINT ( 'NONE', #146 ) ;
#121 = CARTESIAN_POINT ( 'NONE',  ( 2.112515728529174305E-16, -1.724999999999997868, -2.112515728529189342E-16 ) ) ;
#122 = EDGE_LOOP ( 'NONE', ( #71, #251, #43, #99 ) ) ;
#123 = FACE_OUTER_BOUND ( 'NONE', #209, .T. ) ;
#124 = ORIENTED_EDGE ( 'NONE', *, *, #154, .F. ) ;
#125 = CARTESIAN_POINT ( 'NONE',  ( 1.815570296198429345E-13, -6.368163355566237959E-15, 52.00000000000000000 ) ) ;
#126 = PLANE ( 'NONE',  #188 ) ;
#127 = CONICAL_SURFACE ( 'NONE', #95, 1.325000000000000178, 0.7853981633974512766 ) ;
#128 = CARTESIAN_POINT ( 'NONE',  ( 7.375809244172245670E-31, 1.724999999999997868, 2.112515728529182193E-16 ) ) ;
#129 = EDGE_CURVE ( 'NONE', #248, #120, #131, .T. ) ;
#130 = CARTESIAN_POINT ( 'NONE',  ( 3.618866526551321207E-15, -1.269327508349513081E-16, 1.036484567822549385 ) ) ;
#131 = CIRCLE ( 'NONE', #279, 1.724999999999995648 ) ;
#132 = CALENDAR_DATE ( 2021, 3, 9 ) ;
#133 = DATE_AND_TIME ( #22, #233 ) ;
#134 = MANIFOLD_SOLID_BREP ( 'Corps-Déplacer/Copier1[1]', #242 ) ;
#135 = EDGE_CURVE ( 'NONE', #147, #96, #136, .T. ) ;
#136 = CIRCLE ( 'NONE', #316, 1.325000000000000178 ) ;
#137 = AXIS2_PLACEMENT_3D ( 'NONE', #323, #317, #115 ) ;
#138 = VECTOR ( 'NONE', #276, 1000.000000000000000 ) ;
#139 = EDGE_CURVE ( 'NONE', #326, #143, #321, .T. ) ;
#140 = DIRECTION ( 'NONE',  ( -2.382254525458708792E-15, -0.7071067811865495711, -0.7071067811865455743 ) ) ;
#141 = DIRECTION ( 'NONE',  ( -3.491481338843133355E-15, 1.224646799147353454E-16, -1.000000000000000000 ) ) ;
#142 = DIRECTION ( 'NONE',  ( -4.465924508724040182E-31, -1.000000000000000000, -1.257045997084647049E-16 ) ) ;
#143 = VERTEX_POINT ( 'NONE', #272 ) ;
#144 = EDGE_LOOP ( 'NONE', ( #328, #11 ) ) ;
#145 = PRODUCT_DEFINITION_SHAPE ( 'NONE', 'NONE',  #86 ) ;
#146 = CARTESIAN_POINT ( 'NONE',  ( 1.164775801563291901E-13, -1.724999999999997424, 15.00000000000000000 ) ) ;
#147 = VERTEX_POINT ( 'NONE', #35 ) ;
#148 = EDGE_CURVE ( 'NONE', #147, #196, #243, .T. ) ;
#149 = DIRECTION ( 'NONE',  ( 0.0000000000000000000, 1.000000000000000000, 0.0000000000000000000 ) ) ;
#150 = CARTESIAN_POINT ( 'NONE',  ( 0.0000000000000000000, 0.0000000000000000000, 0.0000000000000000000 ) ) ;
#151 = ORIENTED_EDGE ( 'NONE', *, *, #118, .T. ) ;
#152 =( NAMED_UNIT ( * ) PLANE_ANGLE_UNIT ( ) SI_UNIT ( $, .RADIAN. ) );
#153 = DIRECTION ( 'NONE',  ( -3.491481338843133355E-15, 1.224646799147353454E-16, -1.000000000000000000 ) ) ;
#154 = EDGE_CURVE ( 'NONE', #222, #78, #62, .T. ) ;
#155 = AXIS2_PLACEMENT_3D ( 'NONE', #150, #19, #257 ) ;
#156 = DIRECTION ( 'NONE',  ( -3.491481338843133355E-15, 1.224646799147353454E-16, -1.000000000000000000 ) ) ;
#157 = COORDINATED_UNIVERSAL_TIME_OFFSET ( 1, 0, .AHEAD. ) ;
#158 = CONICAL_SURFACE ( 'NONE', #74, 1.325000000000000178, 0.7853981633974512766 ) ;
#159 = LOCAL_TIME ( 9, 50, 9.000000000000000000, #157 ) ;
#160 = COORDINATED_UNIVERSAL_TIME_OFFSET ( 1, 0, .AHEAD. ) ;
#161 = ADVANCED_FACE ( 'NONE', ( #318 ), #167, .T. ) ;
#162 = COORDINATED_UNIVERSAL_TIME_OFFSET ( 1, 0, .AHEAD. ) ;
#163 = ORGANIZATION ( 'UNSPECIFIED', 'UNSPECIFIED', '' ) ;
#164 = SHAPE_DEFINITION_REPRESENTATION ( #145, #75 ) ;
#165 = DIRECTION ( 'NONE',  ( 1.903218546456022717E-15, 0.8571673007021097801, 0.5150380749100585964 ) ) ;
#166 = AXIS2_PLACEMENT_3D ( 'NONE', #13, #177, #325 ) ;
#167 = CYLINDRICAL_SURFACE ( 'NONE', #212, 1.724999999999997868 ) ;
#168 = DIRECTION ( 'NONE',  ( 3.491481338843133355E-15, -1.224646799147353454E-16, 1.000000000000000000 ) ) ;
#169 = DIRECTION ( 'NONE',  ( 0.0000000000000000000, 1.000000000000000000, 0.0000000000000000000 ) ) ;
#170 = CC_DESIGN_PERSON_AND_ORGANIZATION_ASSIGNMENT ( #259, #335, ( #18 ) ) ;
#171 = EDGE_LOOP ( 'NONE', ( #173, #101 ) ) ;
#172 = CARTESIAN_POINT ( 'NONE',  ( 1.817192953207299314E-13, -1.325000000000006617, 52.00000000000000000 ) ) ;
#173 = ORIENTED_EDGE ( 'NONE', *, *, #129, .T. ) ;
#174 = DIRECTION ( 'NONE',  ( -3.491481338843133355E-15, 1.224646799147353454E-16, -1.000000000000000000 ) ) ;
#175 = ORIENTED_EDGE ( 'NONE', *, *, #135, .F. ) ;
#176 = ORIENTED_EDGE ( 'NONE', *, *, #129, .F. ) ;
#177 = DIRECTION ( 'NONE',  ( -3.491481338843133355E-15, 1.224646799147353454E-16, -1.000000000000000000 ) ) ;
#178 = CONICAL_SURFACE ( 'NONE', #219, 1.724999999999994094, 1.029744258676649649 ) ;
#179 = AXIS2_PLACEMENT_3D ( 'NONE', #223, #195, #228 ) ;
#180 = PERSON_AND_ORGANIZATION ( #208, #163 ) ;
#181 = PERSON_AND_ORGANIZATION ( #208, #163 ) ;
#182 = DATE_AND_TIME ( #108, #159 ) ;
#183 = DATE_TIME_ROLE ( 'classification_date' ) ;
#184 = ADVANCED_FACE ( 'NONE', ( #7 ), #158, .T. ) ;
#185 = CARTESIAN_POINT ( 'NONE',  ( 3.618866526551321207E-15, -1.269327508349513081E-16, 1.036484567822549385 ) ) ;
#186 = DIRECTION ( 'NONE',  ( 0.0000000000000000000, 1.000000000000000000, 0.0000000000000000000 ) ) ;
#187 = DIRECTION ( 'NONE',  ( -3.491481338843133355E-15, 1.224646799147353454E-16, -1.000000000000000000 ) ) ;
#188 = AXIS2_PLACEMENT_3D ( 'NONE', #226, #293, #271 ) ;
#189 = EDGE_CURVE ( 'NONE', #143, #326, #261, .T. ) ;
#190 = AXIS2_PLACEMENT_3D ( 'NONE', #55, #310, #284 ) ;
#191 = VERTEX_POINT ( 'NONE', #250 ) ;
#192 = EDGE_CURVE ( 'NONE', #36, #120, #10, .T. ) ;
#193 = CARTESIAN_POINT ( 'NONE',  ( 1.801604370843056811E-13, 1.724999999999993872, 51.60000000000000142 ) ) ;
#194 = EDGE_LOOP ( 'NONE', ( #124, #254, #277 ) ) ;
#195 = DIRECTION ( 'NONE',  ( -3.491481338843133355E-15, 1.224646799147353454E-16, -1.000000000000000000 ) ) ;
#196 = VERTEX_POINT ( 'NONE', #193 ) ;
#197 = AXIS2_PLACEMENT_3D ( 'NONE', #72, #306, #52 ) ;
#198 = LINE ( 'NONE', #299, #138 ) ;
#199 = CC_DESIGN_APPROVAL ( #21, ( #282 ) ) ;
#200 = PLANE ( 'NONE',  #312 ) ;
#201 = APPLICATION_PROTOCOL_DEFINITION ( 'international standard', 'config_control_design', 1994, #245 ) ;
#202 =( LENGTH_UNIT ( ) NAMED_UNIT ( * ) SI_UNIT ( .MILLI., .METRE. ) );
#203 = CC_DESIGN_DATE_AND_TIME_ASSIGNMENT ( #60, #183, ( #282 ) ) ;
#204 = DIRECTION ( 'NONE',  ( -3.491481338843133355E-15, 1.224646799147353454E-16, -1.000000000000000000 ) ) ;
#205 = CIRCLE ( 'NONE', #88, 1.725000000000000089 ) ;
#206 = CIRCLE ( 'NONE', #213, 1.325000000000000178 ) ;
#207 = MECHANICAL_CONTEXT ( 'NONE', #245, 'mechanical' ) ;
#208 = PERSON ( 'UNSPECIFIED', 'UNSPECIFIED', 'UNSPECIFIED', ('UNSPECIFIED'), ('UNSPECIFIED'), ('UNSPECIFIED') ) ;
#209 = EDGE_LOOP ( 'NONE', ( #211, #151, #117, #44 ) ) ;
#210 = ORIENTED_EDGE ( 'NONE', *, *, #265, .F. ) ;
#211 = ORIENTED_EDGE ( 'NONE', *, *, #192, .F. ) ;
#212 = AXIS2_PLACEMENT_3D ( 'NONE', #270, #38, #267 ) ;
#213 = AXIS2_PLACEMENT_3D ( 'NONE', #125, #153, #327 ) ;
#214 = CARTESIAN_POINT ( 'NONE',  ( 1.801604370843056811E-13, -6.319177483600343742E-15, 51.60000000000000142 ) ) ;
#215 = CARTESIAN_POINT ( 'NONE',  ( 3.830118099404239180E-15, 1.724999999999993872, 1.036484567822549607 ) ) ;
#216 = EDGE_LOOP ( 'NONE', ( #240, #69, #176, #314 ) ) ;
#217 = EDGE_CURVE ( 'NONE', #96, #36, #297, .T. ) ;
#218 = ORIENTED_EDGE ( 'NONE', *, *, #337, .T. ) ;
#219 = AXIS2_PLACEMENT_3D ( 'NONE', #185, #5, #142 ) ;
#220 = LOCAL_TIME ( 9, 50, 9.000000000000000000, #162 ) ;
#221 = DIRECTION ( 'NONE',  ( -3.491481338843133355E-15, 1.224646799147353454E-16, -1.000000000000000000 ) ) ;
#222 = VERTEX_POINT ( 'NONE', #239 ) ;
#223 = CARTESIAN_POINT ( 'NONE',  ( 0.0000000000000000000, 0.0000000000000000000, 0.0000000000000000000 ) ) ;
#224 = CARTESIAN_POINT ( 'NONE',  ( 1.164775801563290639E-13, -1.725000000000006306, 51.60000000000000142 ) ) ;
#225 = CARTESIAN_POINT ( 'NONE',  ( 5.237222008264700033E-14, 1.724999999999993872, 15.00000000000000000 ) ) ;
#226 = CARTESIAN_POINT ( 'NONE',  ( 5.237222008264700033E-14, 1.293542812545846850E-32, 15.00000000000000000 ) ) ;
#227 = CC_DESIGN_APPROVAL ( #53, ( #18 ) ) ;
#228 = DIRECTION ( 'NONE',  ( 4.275831445896959482E-31, 1.000000000000000000, 1.224646799147353454E-16 ) ) ;
#229 = CC_DESIGN_PERSON_AND_ORGANIZATION_ASSIGNMENT ( #181, #83, ( #86 ) ) ;
#230 = DIRECTION ( 'NONE',  ( 4.275831445896959482E-31, 1.000000000000000000, 1.224646799147353454E-16 ) ) ;
#231 = EDGE_CURVE ( 'NONE', #191, #78, #3, .T. ) ;
#232 = PERSON_AND_ORGANIZATION_ROLE ( 'design_owner' ) ;
#233 = LOCAL_TIME ( 9, 50, 9.000000000000000000, #25 ) ;
#234 = APPROVAL_ROLE ( '' ) ;
#235 = PERSON_AND_ORGANIZATION ( #208, #163 ) ;
#236 = ADVANCED_FACE ( 'NONE', ( #48 ), #81, .T. ) ;
#237 = CALENDAR_DATE ( 2021, 3, 9 ) ;
#238 = APPROVAL_PERSON_ORGANIZATION ( #309, #39, #234 ) ;
#239 = CARTESIAN_POINT ( 'NONE',  ( 0.0000000000000000000, 0.0000000000000000000, 0.0000000000000000000 ) ) ;
#240 = ORIENTED_EDGE ( 'NONE', *, *, #287, .T. ) ;
#241 = CARTESIAN_POINT ( 'NONE',  ( 1.810454919889442846E-13, -1.325000000000006617, 52.00000000000000000 ) ) ;
#242 = CLOSED_SHELL ( 'NONE', ( #9, #161, #47, #256, #184, #288 ) ) ;
#243 = LINE ( 'NONE', #116, #23 ) ;
#244 = ORIENTED_EDGE ( 'NONE', *, *, #148, .T. ) ;
#245 = APPLICATION_CONTEXT ( 'configuration controlled 3d designs of mechanical parts and assemblies' ) ;
#246 = PRODUCT ( '54552', '54552', '', ( #207 ) ) ;
#247 = CARTESIAN_POINT ( 'NONE',  ( 3.618866526551320418E-15, -1.724999999999994316, 1.036484567822549163 ) ) ;
#248 = VERTEX_POINT ( 'NONE', #225 ) ;
#249 = EDGE_CURVE ( 'NONE', #120, #248, #104, .T. ) ;
#250 = CARTESIAN_POINT ( 'NONE',  ( 3.618866526551320418E-15, -1.724999999999994316, 1.036484567822549163 ) ) ;
#251 = ORIENTED_EDGE ( 'NONE', *, *, #217, .T. ) ;
#252 = CARTESIAN_POINT ( 'NONE',  ( 2.112515728529170607E-16, -1.724999999999994760, -2.112515728529185398E-16 ) ) ;
#253 = ORIENTED_EDGE ( 'NONE', *, *, #265, .T. ) ;
#254 = ORIENTED_EDGE ( 'NONE', *, *, #111, .T. ) ;
#255 = FACE_OUTER_BOUND ( 'NONE', #87, .T. ) ;
#256 = ADVANCED_FACE ( 'NONE', ( #123 ), #100, .T. ) ;
#257 = DIRECTION ( 'NONE',  ( 4.275831445896959482E-31, 1.000000000000000000, 1.224646799147353454E-16 ) ) ;
#258 = EDGE_CURVE ( 'NONE', #78, #191, #269, .T. ) ;
#259 = PERSON_AND_ORGANIZATION ( #208, #163 ) ;
#260 = APPROVAL_ROLE ( '' ) ;
#261 = CIRCLE ( 'NONE', #61, 1.724999999999995648 ) ;
#262 = PERSON_AND_ORGANIZATION ( #208, #163 ) ;
#263 = CALENDAR_DATE ( 2021, 3, 9 ) ;
#264 = VECTOR ( 'NONE', #165, 999.9999999999998863 ) ;
#265 = EDGE_CURVE ( 'NONE', #96, #147, #206, .T. ) ;
#266 = PRODUCT_RELATED_PRODUCT_CATEGORY ( 'detail', '', ( #246 ) ) ;
#267 = DIRECTION ( 'NONE',  ( 4.275831445896959482E-31, 1.000000000000000000, 1.224646799147353454E-16 ) ) ;
#268 = CARTESIAN_POINT ( 'NONE',  ( 5.237222008264700033E-14, -1.836970198721029983E-15, 15.00000000000000000 ) ) ;
#269 = CIRCLE ( 'NONE', #336, 1.724999999999994094 ) ;
#270 = CARTESIAN_POINT ( 'NONE',  ( 0.0000000000000000000, 0.0000000000000000000, 0.0000000000000000000 ) ) ;
#271 = DIRECTION ( 'NONE',  ( -4.275831445896959482E-31, -1.000000000000000000, -1.224646799147353454E-16 ) ) ;
#272 = CARTESIAN_POINT ( 'NONE',  ( 5.237222008264700033E-14, 1.724999999999993872, 15.00000000000000000 ) ) ;
#273 = ORIENTED_EDGE ( 'NONE', *, *, #278, .T. ) ;
#274 = CARTESIAN_POINT ( 'NONE',  ( 1.801604370843056811E-13, -6.319177483600343742E-15, 51.60000000000000142 ) ) ;
#275 = ORIENTED_EDGE ( 'NONE', *, *, #118, .F. ) ;
#276 = DIRECTION ( 'NONE',  ( -3.491481338843133355E-15, 1.224646799147353454E-16, -1.000000000000000000 ) ) ;
#277 = ORIENTED_EDGE ( 'NONE', *, *, #231, .T. ) ;
#278 = EDGE_CURVE ( 'NONE', #143, #78, #198, .T. ) ;
#279 = AXIS2_PLACEMENT_3D ( 'NONE', #290, #32, #169 ) ;
#280 = CONICAL_SURFACE ( 'NONE', #137, 1.724999999999994094, 1.029744258676649649 ) ;
#281 = DIRECTION ( 'NONE',  ( -3.491481338843133355E-15, 1.224646799147353454E-16, -1.000000000000000000 ) ) ;
#282 = SECURITY_CLASSIFICATION ( '', '', #31 ) ;
#283 = APPROVAL_STATUS ( 'not_yet_approved' ) ;
#284 = DIRECTION ( 'NONE',  ( 1.000000000000000000, 0.0000000000000000000, 0.0000000000000000000 ) ) ;
#285 = APPROVAL_STATUS ( 'not_yet_approved' ) ;
#286 = EDGE_LOOP ( 'NONE', ( #175, #210 ) ) ;
#287 = EDGE_CURVE ( 'NONE', #196, #36, #332, .T. ) ;
#288 = ADVANCED_FACE ( 'NONE', ( #45 ), #79, .F. ) ;
#289 = DIRECTION ( 'NONE',  ( -2.468850131082257455E-15, 0.7071067811865497932, -0.7071067811865453523 ) ) ;
#290 = CARTESIAN_POINT ( 'NONE',  ( 5.237222008264700033E-14, -1.836970198721029983E-15, 15.00000000000000000 ) ) ;
#291 = ADVANCED_FACE ( 'NONE', ( #255 ), #331, .T. ) ;
#292 = LINE ( 'NONE', #247, #50 ) ;
#293 = DIRECTION ( 'NONE',  ( 3.491481338843133355E-15, -1.224646799147353454E-16, 1.000000000000000000 ) ) ;
#294 = APPROVAL_PERSON_ORGANIZATION ( #262, #53, #260 ) ;
#295 = DIRECTION ( 'NONE',  ( -3.491481338843133355E-15, 1.224646799147353454E-16, -1.000000000000000000 ) ) ;
#296 = EDGE_LOOP ( 'NONE', ( #66, #14, #273, #4 ) ) ;
#297 = LINE ( 'NONE', #172, #301 ) ;
#298 = ORIENTED_EDGE ( 'NONE', *, *, #278, .F. ) ;
#299 = CARTESIAN_POINT ( 'NONE',  ( 7.375809244172232533E-31, 1.724999999999994760, 2.112515728529178249E-16 ) ) ;
#300 = ORIENTED_EDGE ( 'NONE', *, *, #189, .T. ) ;
#301 = VECTOR ( 'NONE', #140, 1000.000000000000114 ) ;
#302 = LOCAL_TIME ( 9, 50, 9.000000000000000000, #311 ) ;
#303 = DIRECTION ( 'NONE',  ( -3.491481338843133355E-15, 1.224646799147353454E-16, -1.000000000000000000 ) ) ;
#304 = DIRECTION ( 'NONE',  ( -4.275831445896959482E-31, -1.000000000000000000, -1.224646799147353454E-16 ) ) ;
#305 = EDGE_CURVE ( 'NONE', #196, #248, #107, .T. ) ;
#306 = DIRECTION ( 'NONE',  ( -3.491481338843133355E-15, 1.224646799147353454E-16, -1.000000000000000000 ) ) ;
#307 = VECTOR ( 'NONE', #204, 1000.000000000000000 ) ;
#308 = LINE ( 'NONE', #252, #51 ) ;
#309 = PERSON_AND_ORGANIZATION ( #208, #163 ) ;
#310 = DIRECTION ( 'NONE',  ( 0.0000000000000000000, 0.0000000000000000000, 1.000000000000000000 ) ) ;
#311 = COORDINATED_UNIVERSAL_TIME_OFFSET ( 1, 0, .AHEAD. ) ;
#312 = AXIS2_PLACEMENT_3D ( 'NONE', #320, #168, #304 ) ;
#313 = CC_DESIGN_DATE_AND_TIME_ASSIGNMENT ( #182, #57, ( #86 ) ) ;
#314 = ORIENTED_EDGE ( 'NONE', *, *, #305, .F. ) ;
#315 = DIRECTION ( 'NONE',  ( 1.798245827342160317E-15, -0.8571673007021098911, 0.5150380749100582634 ) ) ;
#316 = AXIS2_PLACEMENT_3D ( 'NONE', #64, #63, #2 ) ;
#317 = DIRECTION ( 'NONE',  ( 3.491481338843133355E-15, -1.224646799147353454E-16, 1.000000000000000000 ) ) ;
#318 = FACE_OUTER_BOUND ( 'NONE', #216, .T. ) ;
#319 = ORIENTED_EDGE ( 'NONE', *, *, #111, .F. ) ;
#320 = CARTESIAN_POINT ( 'NONE',  ( 5.237222008264700033E-14, 1.293542812545846850E-32, 15.00000000000000000 ) ) ;
#321 = CIRCLE ( 'NONE', #29, 1.724999999999995648 ) ;
#322 = CC_DESIGN_PERSON_AND_ORGANIZATION_ASSIGNMENT ( #28, #84, ( #282 ) ) ;
#323 = CARTESIAN_POINT ( 'NONE',  ( 3.618866526551321207E-15, -1.269327508349513081E-16, 1.036484567822549385 ) ) ;
#324 = ORIENTED_EDGE ( 'NONE', *, *, #217, .F. ) ;
#325 = DIRECTION ( 'NONE',  ( 4.275831445896959482E-31, 1.000000000000000000, 1.224646799147353454E-16 ) ) ;
#326 = VERTEX_POINT ( 'NONE', #330 ) ;
#327 = DIRECTION ( 'NONE',  ( 0.0000000000000000000, 1.000000000000000000, 0.0000000000000000000 ) ) ;
#328 = ORIENTED_EDGE ( 'NONE', *, *, #189, .F. ) ;
#329 = DIRECTION ( 'NONE',  ( 0.0000000000000000000, 1.000000000000000000, 0.0000000000000000000 ) ) ;
#330 = CARTESIAN_POINT ( 'NONE',  ( 2.820679487745205192E-14, -1.724999999999997646, 15.00000000000000000 ) ) ;
#331 = CYLINDRICAL_SURFACE ( 'NONE', #155, 1.724999999999994760 ) ;
#332 = CIRCLE ( 'NONE', #76, 1.725000000000000089 ) ;
#333 = APPLICATION_PROTOCOL_DEFINITION ( 'international standard', 'config_control_design', 1994, #17 ) ;
#334 = APPROVAL_DATE_TIME ( #110, #39 ) ;
#335 = PERSON_AND_ORGANIZATION_ROLE ( 'design_supplier' ) ;
#336 = AXIS2_PLACEMENT_3D ( 'NONE', #130, #174, #102 ) ;
#337 = EDGE_CURVE ( 'NONE', #326, #191, #308, .T. ) ;
ENDSEC;
END-ISO-10303-21;
