ISO-10303-21;
HEADER;
FILE_DESCRIPTION (( 'STEP AP203' ),
    '1' );
FILE_NAME ('54551.step',
    '2021-09-03T07:50:06',
    ( '' ),
    ( '' ),
    'SwSTEP 2.0',
    'SolidWorks 2019',
    '' );
FILE_SCHEMA (( 'CONFIG_CONTROL_DESIGN' ));
ENDSEC;

DATA;
#1 = LINE ( 'NONE', #41, #261 ) ;
#2 = CARTESIAN_POINT ( 'NONE',  ( 3.774609141441858044E-15, 1.699999999999993960, 1.021463052346860190 ) ) ;
#3 = APPROVAL_PERSON_ORGANIZATION ( #83, #239, #109 ) ;
#4 = DIRECTION ( 'NONE',  ( 1.000000000000000000, 0.0000000000000000000, 0.0000000000000000000 ) ) ;
#5 = ORIENTED_EDGE ( 'NONE', *, *, #64, .F. ) ;
#6 = ORIENTED_EDGE ( 'NONE', *, *, #202, .F. ) ;
#7 = ORIENTED_EDGE ( 'NONE', *, *, #234, .F. ) ;
#8 = CLOSED_SHELL ( 'NONE', ( #164, #137, #103, #197, #171 ) ) ;
#9 = AXIS2_PLACEMENT_3D ( 'NONE', #305, #222, #63 ) ;
#10 = ORIENTED_EDGE ( 'NONE', *, *, #247, .T. ) ;
#11 = DATE_AND_TIME ( #59, #174 ) ;
#12 = ADVANCED_FACE ( 'NONE', ( #158 ), #87, .T. ) ;
#13 = ORIENTED_EDGE ( 'NONE', *, *, #99, .F. ) ;
#14 = DATE_AND_TIME ( #241, #216 ) ;
#15 = AXIS2_PLACEMENT_3D ( 'NONE', #111, #217, #44 ) ;
#16 = EDGE_CURVE ( 'NONE', #146, #301, #19, .T. ) ;
#17 = CARTESIAN_POINT ( 'NONE',  ( 3.566419185586807819E-15, -1.699999999999994404, 1.021463052346859746 ) ) ;
#18 = DIRECTION ( 'NONE',  ( -3.491481338843133355E-15, 1.224646799147353454E-16, -1.000000000000000000 ) ) ;
#19 = CIRCLE ( 'NONE', #27, 1.699999999999995737 ) ;
#20 = AXIS2_PLACEMENT_3D ( 'NONE', #90, #298, #169 ) ;
#21 = CARTESIAN_POINT ( 'NONE',  ( 3.566419185586808608E-15, -1.250931457503867568E-16, 1.021463052346859968 ) ) ;
#22 = EDGE_LOOP ( 'NONE', ( #181, #187, #224, #53 ) ) ;
#23 = DIRECTION ( 'NONE',  ( -4.531599869146453169E-31, -1.000000000000000000, -1.275531967630009683E-16 ) ) ;
#24 = CC_DESIGN_PERSON_AND_ORGANIZATION_ASSIGNMENT ( #163, #191, ( #209 ) ) ;
#25 = EDGE_LOOP ( 'NONE', ( #82, #251, #267, #101 ) ) ;
#26 = DIRECTION ( 'NONE',  ( -3.491481338843133355E-15, 1.224646799147353454E-16, -1.000000000000000000 ) ) ;
#27 = AXIS2_PLACEMENT_3D ( 'NONE', #33, #128, #233 ) ;
#28 = CARTESIAN_POINT ( 'NONE',  ( 1.815570296198429345E-13, 1.299999999999994049, 52.00000000000000000 ) ) ;
#29 = DIRECTION ( 'NONE',  ( 0.0000000000000000000, 0.0000000000000000000, 1.000000000000000000 ) ) ;
#30 = CALENDAR_DATE ( 2021, 3, 9 ) ;
#31 = EDGE_LOOP ( 'NONE', ( #238, #140, #88, #7 ) ) ;
#32 = ORGANIZATION ( 'UNSPECIFIED', 'UNSPECIFIED', '' ) ;
#33 = CARTESIAN_POINT ( 'NONE',  ( 5.237222008264700033E-14, -1.836970198721029983E-15, 15.00000000000000000 ) ) ;
#34 = VERTEX_POINT ( 'NONE', #314 ) ;
#35 = DATE_TIME_ROLE ( 'classification_date' ) ;
#36 = DIRECTION ( 'NONE',  ( 0.0000000000000000000, 1.000000000000000000, 0.0000000000000000000 ) ) ;
#37 = DIRECTION ( 'NONE',  ( 4.275831445896959482E-31, 1.000000000000000000, 1.224646799147353454E-16 ) ) ;
#38 = DATE_AND_TIME ( #136, #219 ) ;
#39 = SHAPE_DEFINITION_REPRESENTATION ( #107, #307 ) ;
#40 = EDGE_LOOP ( 'NONE', ( #6, #10, #199 ) ) ;
#41 = CARTESIAN_POINT ( 'NONE',  ( 2.081899558550487214E-16, -1.699999999999994849, -2.081899558550501759E-16 ) ) ;
#42 = LINE ( 'NONE', #65, #166 ) ;
#43 = SECURITY_CLASSIFICATION ( '', '', #240 ) ;
#44 = DIRECTION ( 'NONE',  ( 0.0000000000000000000, 1.000000000000000000, 0.0000000000000000000 ) ) ;
#45 = DIRECTION ( 'NONE',  ( -3.491481338843133355E-15, 1.224646799147353454E-16, -1.000000000000000000 ) ) ;
#46 = DIRECTION ( 'NONE',  ( 4.531599869146453169E-31, 1.000000000000000000, 1.275531967630009683E-16 ) ) ;
#47 = CONICAL_SURFACE ( 'NONE', #243, 1.699999999999994182, 1.029744258676649871 ) ;
#48 = DIRECTION ( 'NONE',  ( -3.491481338843133355E-15, 1.224646799147353454E-16, -1.000000000000000000 ) ) ;
#49 = APPROVAL ( #179, 'UNSPECIFIED' ) ;
#50 = FACE_OUTER_BOUND ( 'NONE', #121, .T. ) ;
#51 = LINE ( 'NONE', #230, #184 ) ;
#52 = PERSON_AND_ORGANIZATION_ROLE ( 'design_owner' ) ;
#53 = ORIENTED_EDGE ( 'NONE', *, *, #168, .F. ) ;
#54 = ORIENTED_EDGE ( 'NONE', *, *, #126, .T. ) ;
#55 = CIRCLE ( 'NONE', #92, 1.699999999999995737 ) ;
#56 = DIRECTION ( 'NONE',  ( -3.491481338843133355E-15, 1.224646799147353454E-16, -1.000000000000000000 ) ) ;
#57 = EDGE_LOOP ( 'NONE', ( #13, #178, #259, #5 ) ) ;
#58 = ADVANCED_FACE ( 'NONE', ( #105 ), #320, .F. ) ;
#59 = CALENDAR_DATE ( 2021, 3, 9 ) ;
#60 = EDGE_LOOP ( 'NONE', ( #156, #117, #286, #74 ) ) ;
#61 = AXIS2_PLACEMENT_3D ( 'NONE', #312, #29, #4 ) ;
#62 = APPROVAL_ROLE ( '' ) ;
#63 = DIRECTION ( 'NONE',  ( 0.0000000000000000000, 1.000000000000000000, 0.0000000000000000000 ) ) ;
#64 = EDGE_CURVE ( 'NONE', #332, #91, #215, .T. ) ;
#65 = CARTESIAN_POINT ( 'NONE',  ( 1.815570296198429345E-13, 1.299999999999994049, 52.00000000000000000 ) ) ;
#66 = AXIS2_PLACEMENT_3D ( 'NONE', #289, #204, #283 ) ;
#67 = CARTESIAN_POINT ( 'NONE',  ( 3.566419185586808608E-15, -1.250931457503867568E-16, 1.021463052346859968 ) ) ;
#68 = DIRECTION ( 'NONE',  ( -3.491481338843133355E-15, 1.224646799147353454E-16, -1.000000000000000000 ) ) ;
#69 = ORIENTED_EDGE ( 'NONE', *, *, #288, .T. ) ;
#70 = DIRECTION ( 'NONE',  ( 4.275831445896959482E-31, 1.000000000000000000, 1.224646799147353454E-16 ) ) ;
#71 = CC_DESIGN_PERSON_AND_ORGANIZATION_ASSIGNMENT ( #281, #52, ( #297 ) ) ;
#72 = MECHANICAL_CONTEXT ( 'NONE', #108, 'mechanical' ) ;
#73 = DIRECTION ( 'NONE',  ( 0.0000000000000000000, 1.000000000000000000, 0.0000000000000000000 ) ) ;
#74 = ORIENTED_EDGE ( 'NONE', *, *, #126, .F. ) ;
#75 = CARTESIAN_POINT ( 'NONE',  ( 5.237222008264700033E-14, 1.274795815262573767E-32, 15.00000000000000000 ) ) ;
#76 = LINE ( 'NONE', #291, #260 ) ;
#77 =( NAMED_UNIT ( * ) PLANE_ANGLE_UNIT ( ) SI_UNIT ( $, .RADIAN. ) );
#78 = CARTESIAN_POINT ( 'NONE',  ( 1.815570296198429345E-13, -6.368163355566237959E-15, 52.00000000000000000 ) ) ;
#79 = DIRECTION ( 'NONE',  ( -3.491481338843133355E-15, 1.224646799147353454E-16, -1.000000000000000000 ) ) ;
#80 = CARTESIAN_POINT ( 'NONE',  ( 3.566419185586808608E-15, -1.250931457503867568E-16, 1.021463052346859968 ) ) ;
#81 = CC_DESIGN_PERSON_AND_ORGANIZATION_ASSIGNMENT ( #236, #207, ( #209 ) ) ;
#82 = ORIENTED_EDGE ( 'NONE', *, *, #223, .T. ) ;
#83 = PERSON_AND_ORGANIZATION ( #310, #32 ) ;
#84 = APPROVAL_PERSON_ORGANIZATION ( #85, #290, #62 ) ;
#85 = PERSON_AND_ORGANIZATION ( #310, #32 ) ;
#86 = DIRECTION ( 'NONE',  ( 4.275831445896960358E-31, 1.000000000000000000, 1.224646799147353454E-16 ) ) ;
#87 = CONICAL_SURFACE ( 'NONE', #269, 1.300000000000000266, 0.7853981633974426169 ) ;
#88 = ORIENTED_EDGE ( 'NONE', *, *, #221, .F. ) ;
#89 = CARTESIAN_POINT ( 'NONE',  ( 3.774609141441858044E-15, 1.699999999999993960, 1.021463052346860190 ) ) ;
#90 = CARTESIAN_POINT ( 'NONE',  ( 5.237222008264700033E-14, -1.836970198721029983E-15, 15.00000000000000000 ) ) ;
#91 = VERTEX_POINT ( 'NONE', #157 ) ;
#92 = AXIS2_PLACEMENT_3D ( 'NONE', #173, #220, #326 ) ;
#93 = VERTEX_POINT ( 'NONE', #2 ) ;
#94 = VECTOR ( 'NONE', #96, 1000.000000000000000 ) ;
#95 = DIRECTION ( 'NONE',  ( -2.382254525458730880E-15, -0.7071067811865434649, -0.7071067811865516806 ) ) ;
#96 = DIRECTION ( 'NONE',  ( -3.491481338843133355E-15, 1.224646799147353454E-16, -1.000000000000000000 ) ) ;
#97 = ADVANCED_FACE ( 'NONE', ( #183 ), #122, .T. ) ;
#98 = CARTESIAN_POINT ( 'NONE',  ( 0.0000000000000000000, 0.0000000000000000000, 0.0000000000000000000 ) ) ;
#99 = EDGE_CURVE ( 'NONE', #211, #332, #76, .T. ) ;
#100 = PERSON_AND_ORGANIZATION ( #310, #32 ) ;
#101 = ORIENTED_EDGE ( 'NONE', *, *, #162, .F. ) ;
#102 = AXIS2_PLACEMENT_3D ( 'NONE', #271, #68, #86 ) ;
#103 = ADVANCED_FACE ( 'NONE', ( #265 ), #138, .T. ) ;
#104 = PERSON_AND_ORGANIZATION_ROLE ( 'classification_officer' ) ;
#105 = FACE_OUTER_BOUND ( 'NONE', #263, .T. ) ;
#106 = CALENDAR_DATE ( 2021, 3, 9 ) ;
#107 = PRODUCT_DEFINITION_SHAPE ( 'NONE', 'NONE',  #142 ) ;
#108 = APPLICATION_CONTEXT ( 'configuration controlled 3d designs of mechanical parts and assemblies' ) ;
#109 = APPROVAL_ROLE ( '' ) ;
#110 = DIRECTION ( 'NONE',  ( -4.275831445896959482E-31, -1.000000000000000000, -1.224646799147353454E-16 ) ) ;
#111 = CARTESIAN_POINT ( 'NONE',  ( 5.237222008264700033E-14, -1.836970198721029983E-15, 15.00000000000000000 ) ) ;
#112 = CYLINDRICAL_SURFACE ( 'NONE', #311, 1.699999999999994849 ) ;
#113 = FACE_OUTER_BOUND ( 'NONE', #22, .T. ) ;
#114 = AXIS2_PLACEMENT_3D ( 'NONE', #80, #228, #292 ) ;
#115 = DIRECTION ( 'NONE',  ( 4.275831445896960358E-31, 1.000000000000000000, 1.224646799147353454E-16 ) ) ;
#116 = FACE_OUTER_BOUND ( 'NONE', #333, .T. ) ;
#117 = ORIENTED_EDGE ( 'NONE', *, *, #272, .T. ) ;
#118 = CARTESIAN_POINT ( 'NONE',  ( 3.566419185586807819E-15, -1.699999999999994404, 1.021463052346859746 ) ) ;
#119 = MANIFOLD_SOLID_BREP ( 'Corps-Déplacer/Copier1[1]', #308 ) ;
#120 = EDGE_CURVE ( 'NONE', #256, #211, #335, .T. ) ;
#121 = EDGE_LOOP ( 'NONE', ( #185, #318 ) ) ;
#122 = CYLINDRICAL_SURFACE ( 'NONE', #160, 1.699999999999997957 ) ;
#123 = AXIS2_PLACEMENT_3D ( 'NONE', #75, #235, #110 ) ;
#124 = DIRECTION ( 'NONE',  ( 0.0000000000000000000, 1.000000000000000000, 0.0000000000000000000 ) ) ;
#125 = ORIENTED_EDGE ( 'NONE', *, *, #64, .T. ) ;
#126 = EDGE_CURVE ( 'NONE', #91, #301, #154, .T. ) ;
#127 = MANIFOLD_SOLID_BREP ( 'Corps-Déplacer/Copier1[2]', #8 ) ;
#128 = DIRECTION ( 'NONE',  ( -3.491481338843133355E-15, 1.224646799147353454E-16, -1.000000000000000000 ) ) ;
#129 = ADVANCED_FACE ( 'NONE', ( #172 ), #253, .T. ) ;
#130 = DIRECTION ( 'NONE',  ( 0.0000000000000000000, 1.000000000000000000, 0.0000000000000000000 ) ) ;
#131 = DATE_AND_TIME ( #106, #244 ) ;
#132 = DIRECTION ( 'NONE',  ( 0.0000000000000000000, 1.000000000000000000, 0.0000000000000000000 ) ) ;
#133 = AXIS2_PLACEMENT_3D ( 'NONE', #313, #56, #73 ) ;
#134 =( GEOMETRIC_REPRESENTATION_CONTEXT ( 3 ) GLOBAL_UNCERTAINTY_ASSIGNED_CONTEXT ( ( #254 ) ) GLOBAL_UNIT_ASSIGNED_CONTEXT ( ( #252, #77, #186 ) ) REPRESENTATION_CONTEXT ( 'NONE', 'WORKASPACE' ) );
#135 = DIRECTION ( 'NONE',  ( -3.491481338843133355E-15, 1.224646799147353454E-16, -1.000000000000000000 ) ) ;
#136 = CALENDAR_DATE ( 2021, 3, 9 ) ;
#137 = ADVANCED_FACE ( 'NONE', ( #245 ), #47, .T. ) ;
#138 = CONICAL_SURFACE ( 'NONE', #66, 1.699999999999994182, 1.029744258676649871 ) ;
#139 = CIRCLE ( 'NONE', #15, 1.699999999999995737 ) ;
#140 = ORIENTED_EDGE ( 'NONE', *, *, #99, .T. ) ;
#141 = DESIGN_CONTEXT ( 'detailed design', #203, 'design' ) ;
#142 = PRODUCT_DEFINITION ( 'UNKNOWN', '', #209, #141 ) ;
#143 = DIRECTION ( 'NONE',  ( 1.798245827342159528E-15, -0.8571673007021100021, 0.5150380749100580413 ) ) ;
#144 = VERTEX_POINT ( 'NONE', #165 ) ;
#145 = CARTESIAN_POINT ( 'NONE',  ( 0.0000000000000000000, 0.0000000000000000000, 0.0000000000000000000 ) ) ;
#146 = VERTEX_POINT ( 'NONE', #274 ) ;
#147 = DIRECTION ( 'NONE',  ( -3.491481338843133355E-15, 1.224646799147353454E-16, -1.000000000000000000 ) ) ;
#148 = FACE_OUTER_BOUND ( 'NONE', #31, .T. ) ;
#149 = ORIENTED_EDGE ( 'NONE', *, *, #247, .F. ) ;
#150 = AXIS2_PLACEMENT_3D ( 'NONE', #246, #276, #225 ) ;
#151 = LOCAL_TIME ( 9, 50, 6.000000000000000000, #153 ) ;
#152 = EDGE_CURVE ( 'NONE', #34, #144, #55, .T. ) ;
#153 = COORDINATED_UNIVERSAL_TIME_OFFSET ( 1, 0, .AHEAD. ) ;
#154 = LINE ( 'NONE', #206, #94 ) ;
#155 = DATE_AND_TIME ( #30, #151 ) ;
#156 = ORIENTED_EDGE ( 'NONE', *, *, #221, .T. ) ;
#157 = CARTESIAN_POINT ( 'NONE',  ( 1.801604370843056559E-13, 1.699999999999993960, 51.59999999999999432 ) ) ;
#158 = FACE_OUTER_BOUND ( 'NONE', #57, .T. ) ;
#159 = CARTESIAN_POINT ( 'NONE',  ( 1.815570296198429345E-13, 9.748438587301988238E-33, 52.00000000000000000 ) ) ;
#160 = AXIS2_PLACEMENT_3D ( 'NONE', #98, #79, #315 ) ;
#161 = CIRCLE ( 'NONE', #9, 1.700000000000000400 ) ;
#162 = EDGE_CURVE ( 'NONE', #144, #93, #268, .T. ) ;
#163 = PERSON_AND_ORGANIZATION ( #310, #32 ) ;
#164 = ADVANCED_FACE ( 'NONE', ( #303 ), #330, .T. ) ;
#165 = CARTESIAN_POINT ( 'NONE',  ( 5.237222008264700033E-14, 1.699999999999993960, 15.00000000000000000 ) ) ;
#166 = VECTOR ( 'NONE', #167, 1000.000000000000000 ) ;
#167 = DIRECTION ( 'NONE',  ( -2.468850131082279149E-15, 0.7071067811865435759, -0.7071067811865514585 ) ) ;
#168 = EDGE_CURVE ( 'NONE', #319, #93, #257, .T. ) ;
#169 = DIRECTION ( 'NONE',  ( 0.0000000000000000000, 1.000000000000000000, 0.0000000000000000000 ) ) ;
#170 = PLANE ( 'NONE',  #123 ) ;
#171 = ADVANCED_FACE ( 'NONE', ( #116 ), #331, .T. ) ;
#172 = FACE_OUTER_BOUND ( 'NONE', #328, .T. ) ;
#173 = CARTESIAN_POINT ( 'NONE',  ( 5.237222008264700033E-14, -1.836970198721029983E-15, 15.00000000000000000 ) ) ;
#174 = LOCAL_TIME ( 9, 50, 6.000000000000000000, #210 ) ;
#175 = ORIENTED_EDGE ( 'NONE', *, *, #272, .F. ) ;
#176 = CC_DESIGN_PERSON_AND_ORGANIZATION_ASSIGNMENT ( #100, #104, ( #43 ) ) ;
#177 = EDGE_CURVE ( 'NONE', #301, #146, #139, .T. ) ;
#178 = ORIENTED_EDGE ( 'NONE', *, *, #255, .T. ) ;
#179 = APPROVAL_STATUS ( 'not_yet_approved' ) ;
#180 = CARTESIAN_POINT ( 'NONE',  ( 1.801604370843056559E-13, -6.319177483600343742E-15, 51.59999999999999432 ) ) ;
#181 = ORIENTED_EDGE ( 'NONE', *, *, #325, .F. ) ;
#182 = PERSON_AND_ORGANIZATION ( #310, #32 ) ;
#183 = FACE_OUTER_BOUND ( 'NONE', #60, .T. ) ;
#184 = VECTOR ( 'NONE', #26, 1000.000000000000000 ) ;
#185 = ORIENTED_EDGE ( 'NONE', *, *, #177, .T. ) ;
#186 =( NAMED_UNIT ( * ) SI_UNIT ( $, .STERADIAN. ) SOLID_ANGLE_UNIT ( ) );
#187 = ORIENTED_EDGE ( 'NONE', *, *, #152, .T. ) ;
#188 = APPROVAL_DATE_TIME ( #131, #239 ) ;
#189 = AXIS2_PLACEMENT_3D ( 'NONE', #250, #147, #70 ) ;
#190 = CIRCLE ( 'NONE', #280, 1.300000000000000266 ) ;
#191 = PERSON_AND_ORGANIZATION_ROLE ( 'creator' ) ;
#192 = CARTESIAN_POINT ( 'NONE',  ( 1.810424303719464105E-13, -1.300000000000006706, 52.00000000000000000 ) ) ;
#193 = LINE ( 'NONE', #89, #302 ) ;
#194 = DIRECTION ( 'NONE',  ( -3.491481338843133355E-15, 1.224646799147353454E-16, -1.000000000000000000 ) ) ;
#195 = APPLICATION_PROTOCOL_DEFINITION ( 'international standard', 'config_control_design', 1994, #108 ) ;
#196 = VERTEX_POINT ( 'NONE', #334 ) ;
#197 = ADVANCED_FACE ( 'NONE', ( #113 ), #112, .T. ) ;
#198 = DIRECTION ( 'NONE',  ( -3.491481338843133355E-15, 1.224646799147353454E-16, -1.000000000000000000 ) ) ;
#199 = ORIENTED_EDGE ( 'NONE', *, *, #168, .T. ) ;
#200 = CC_DESIGN_DATE_AND_TIME_ASSIGNMENT ( #38, #322, ( #142 ) ) ;
#201 = CIRCLE ( 'NONE', #20, 1.699999999999995737 ) ;
#202 = EDGE_CURVE ( 'NONE', #196, #93, #193, .T. ) ;
#203 = APPLICATION_CONTEXT ( 'configuration controlled 3d designs of mechanical parts and assemblies' ) ;
#204 = DIRECTION ( 'NONE',  ( 3.491481338843133355E-15, -1.224646799147353454E-16, 1.000000000000000000 ) ) ;
#205 = CARTESIAN_POINT ( 'NONE',  ( 1.815570296198429345E-13, -6.368163355566237959E-15, 52.00000000000000000 ) ) ;
#206 = CARTESIAN_POINT ( 'NONE',  ( 7.268913458024822975E-31, 1.699999999999997957, 2.081899558550498554E-16 ) ) ;
#207 = PERSON_AND_ORGANIZATION_ROLE ( 'design_supplier' ) ;
#208 = ORIENTED_EDGE ( 'NONE', *, *, #223, .F. ) ;
#209 = PRODUCT_DEFINITION_FORMATION_WITH_SPECIFIED_SOURCE ( 'ANY', '', #297, .NOT_KNOWN. ) ;
#210 = COORDINATED_UNIVERSAL_TIME_OFFSET ( 1, 0, .AHEAD. ) ;
#211 = VERTEX_POINT ( 'NONE', #192 ) ;
#212 = CARTESIAN_POINT ( 'NONE',  ( 1.164745185393312150E-13, -1.700000000000006839, 51.59999999999999432 ) ) ;
#213 = APPROVAL_STATUS ( 'not_yet_approved' ) ;
#214 = COORDINATED_UNIVERSAL_TIME_OFFSET ( 1, 0, .AHEAD. ) ;
#215 = CIRCLE ( 'NONE', #279, 1.700000000000000400 ) ;
#216 = LOCAL_TIME ( 9, 50, 6.000000000000000000, #321 ) ;
#217 = DIRECTION ( 'NONE',  ( -3.491481338843133355E-15, 1.224646799147353454E-16, -1.000000000000000000 ) ) ;
#218 = DIRECTION ( 'NONE',  ( 3.491481338843133355E-15, -1.224646799147353454E-16, 1.000000000000000000 ) ) ;
#219 = LOCAL_TIME ( 9, 50, 6.000000000000000000, #214 ) ;
#220 = DIRECTION ( 'NONE',  ( -3.491481338843133355E-15, 1.224646799147353454E-16, -1.000000000000000000 ) ) ;
#221 = EDGE_CURVE ( 'NONE', #91, #332, #161, .T. ) ;
#222 = DIRECTION ( 'NONE',  ( -3.491481338843133355E-15, 1.224646799147353454E-16, -1.000000000000000000 ) ) ;
#223 = EDGE_CURVE ( 'NONE', #144, #34, #201, .T. ) ;
#224 = ORIENTED_EDGE ( 'NONE', *, *, #162, .T. ) ;
#225 = DIRECTION ( 'NONE',  ( -4.275831445896959482E-31, -1.000000000000000000, -1.224646799147353454E-16 ) ) ;
#226 = ORIENTED_EDGE ( 'NONE', *, *, #202, .T. ) ;
#227 = CC_DESIGN_APPROVAL ( #239, ( #43 ) ) ;
#228 = DIRECTION ( 'NONE',  ( -3.491481338843133355E-15, 1.224646799147353454E-16, -1.000000000000000000 ) ) ;
#229 = CC_DESIGN_PERSON_AND_ORGANIZATION_ASSIGNMENT ( #182, #324, ( #142 ) ) ;
#230 = CARTESIAN_POINT ( 'NONE',  ( 2.081899558550490665E-16, -1.699999999999997957, -2.081899558550505457E-16 ) ) ;
#231 = CC_DESIGN_APPROVAL ( #49, ( #142 ) ) ;
#232 = ORIENTED_EDGE ( 'NONE', *, *, #120, .F. ) ;
#233 = DIRECTION ( 'NONE',  ( 0.0000000000000000000, 1.000000000000000000, 0.0000000000000000000 ) ) ;
#234 = EDGE_CURVE ( 'NONE', #256, #91, #42, .T. ) ;
#235 = DIRECTION ( 'NONE',  ( 3.491481338843133355E-15, -1.224646799147353454E-16, 1.000000000000000000 ) ) ;
#236 = PERSON_AND_ORGANIZATION ( #310, #32 ) ;
#237 = DIRECTION ( 'NONE',  ( -3.491481338843133355E-15, 1.224646799147353454E-16, -1.000000000000000000 ) ) ;
#238 = ORIENTED_EDGE ( 'NONE', *, *, #120, .T. ) ;
#239 = APPROVAL ( #294, 'UNSPECIFIED' ) ;
#240 = SECURITY_CLASSIFICATION_LEVEL ( 'unclassified' ) ;
#241 = CALENDAR_DATE ( 2021, 3, 9 ) ;
#242 = APPROVAL_DATE_TIME ( #11, #290 ) ;
#243 = AXIS2_PLACEMENT_3D ( 'NONE', #21, #218, #23 ) ;
#244 = LOCAL_TIME ( 9, 50, 6.000000000000000000, #296 ) ;
#245 = FACE_OUTER_BOUND ( 'NONE', #337, .T. ) ;
#246 = CARTESIAN_POINT ( 'NONE',  ( 5.237222008264700033E-14, 1.274795815262573767E-32, 15.00000000000000000 ) ) ;
#247 = EDGE_CURVE ( 'NONE', #196, #319, #273, .T. ) ;
#248 = CARTESIAN_POINT ( 'NONE',  ( 1.815570296198429345E-13, -6.368163355566237959E-15, 52.00000000000000000 ) ) ;
#249 = CC_DESIGN_SECURITY_CLASSIFICATION ( #43, ( #209 ) ) ;
#250 = CARTESIAN_POINT ( 'NONE',  ( 0.0000000000000000000, 0.0000000000000000000, 0.0000000000000000000 ) ) ;
#251 = ORIENTED_EDGE ( 'NONE', *, *, #325, .T. ) ;
#252 =( LENGTH_UNIT ( ) NAMED_UNIT ( * ) SI_UNIT ( .MILLI., .METRE. ) );
#253 = CYLINDRICAL_SURFACE ( 'NONE', #189, 1.699999999999997957 ) ;
#254 = UNCERTAINTY_MEASURE_WITH_UNIT (LENGTH_MEASURE( 1.000000000000000082E-05 ), #252, 'distance_accuracy_value', 'NONE');
#255 = EDGE_CURVE ( 'NONE', #211, #256, #190, .T. ) ;
#256 = VERTEX_POINT ( 'NONE', #28 ) ;
#257 = CIRCLE ( 'NONE', #300, 1.699999999999994182 ) ;
#258 = PERSON_AND_ORGANIZATION ( #310, #32 ) ;
#259 = ORIENTED_EDGE ( 'NONE', *, *, #234, .T. ) ;
#260 = VECTOR ( 'NONE', #95, 999.9999999999998863 ) ;
#261 = VECTOR ( 'NONE', #45, 1000.000000000000000 ) ;
#262 = APPROVAL_DATE_TIME ( #155, #49 ) ;
#263 = EDGE_LOOP ( 'NONE', ( #232, #277 ) ) ;
#264 = ORIENTED_EDGE ( 'NONE', *, *, #152, .F. ) ;
#265 = FACE_OUTER_BOUND ( 'NONE', #40, .T. ) ;
#266 = DIRECTION ( 'NONE',  ( -3.491481338843133355E-15, 1.224646799147353454E-16, -1.000000000000000000 ) ) ;
#267 = ORIENTED_EDGE ( 'NONE', *, *, #288, .F. ) ;
#268 = LINE ( 'NONE', #306, #287 ) ;
#269 = AXIS2_PLACEMENT_3D ( 'NONE', #205, #237, #36 ) ;
#270 = CC_DESIGN_APPROVAL ( #290, ( #209 ) ) ;
#271 = CARTESIAN_POINT ( 'NONE',  ( 0.0000000000000000000, 0.0000000000000000000, 0.0000000000000000000 ) ) ;
#272 = EDGE_CURVE ( 'NONE', #332, #146, #51, .T. ) ;
#273 = LINE ( 'NONE', #17, #323 ) ;
#274 = CARTESIAN_POINT ( 'NONE',  ( 1.164745185393313413E-13, -1.699999999999997513, 15.00000000000000000 ) ) ;
#275 = AXIS2_PLACEMENT_3D ( 'NONE', #78, #278, #130 ) ;
#276 = DIRECTION ( 'NONE',  ( 3.491481338843133355E-15, -1.224646799147353454E-16, 1.000000000000000000 ) ) ;
#277 = ORIENTED_EDGE ( 'NONE', *, *, #255, .F. ) ;
#278 = DIRECTION ( 'NONE',  ( -3.491481338843133355E-15, 1.224646799147353454E-16, -1.000000000000000000 ) ) ;
#279 = AXIS2_PLACEMENT_3D ( 'NONE', #180, #135, #132 ) ;
#280 = AXIS2_PLACEMENT_3D ( 'NONE', #248, #18, #124 ) ;
#281 = PERSON_AND_ORGANIZATION ( #310, #32 ) ;
#282 = APPROVAL_ROLE ( '' ) ;
#283 = DIRECTION ( 'NONE',  ( -4.531599869146453169E-31, -1.000000000000000000, -1.275531967630009683E-16 ) ) ;
#284 = ADVANCED_FACE ( 'NONE', ( #148 ), #317, .T. ) ;
#285 = APPLICATION_PROTOCOL_DEFINITION ( 'international standard', 'config_control_design', 1994, #203 ) ;
#286 = ORIENTED_EDGE ( 'NONE', *, *, #177, .F. ) ;
#287 = VECTOR ( 'NONE', #194, 1000.000000000000000 ) ;
#288 = EDGE_CURVE ( 'NONE', #93, #319, #336, .T. ) ;
#289 = CARTESIAN_POINT ( 'NONE',  ( 3.566419185586808608E-15, -1.250931457503867568E-16, 1.021463052346859968 ) ) ;
#290 = APPROVAL ( #213, 'UNSPECIFIED' ) ;
#291 = CARTESIAN_POINT ( 'NONE',  ( 1.817162337037320826E-13, -1.300000000000006706, 52.00000000000000000 ) ) ;
#292 = DIRECTION ( 'NONE',  ( 4.531599869146453169E-31, 1.000000000000000000, 1.275531967630009683E-16 ) ) ;
#293 = ORIENTED_EDGE ( 'NONE', *, *, #16, .F. ) ;
#294 = APPROVAL_STATUS ( 'not_yet_approved' ) ;
#295 = AXIS2_PLACEMENT_3D ( 'NONE', #159, #266, #37 ) ;
#296 = COORDINATED_UNIVERSAL_TIME_OFFSET ( 1, 0, .AHEAD. ) ;
#297 = PRODUCT ( '54551', '54551', '', ( #72 ) ) ;
#298 = DIRECTION ( 'NONE',  ( -3.491481338843133355E-15, 1.224646799147353454E-16, -1.000000000000000000 ) ) ;
#299 = DIRECTION ( 'NONE',  ( 1.903218546456021928E-15, 0.8571673007021098911, 0.5150380749100583744 ) ) ;
#300 = AXIS2_PLACEMENT_3D ( 'NONE', #67, #198, #46 ) ;
#301 = VERTEX_POINT ( 'NONE', #309 ) ;
#302 = VECTOR ( 'NONE', #299, 1000.000000000000114 ) ;
#303 = FACE_OUTER_BOUND ( 'NONE', #25, .T. ) ;
#304 = CC_DESIGN_DATE_AND_TIME_ASSIGNMENT ( #14, #35, ( #43 ) ) ;
#305 = CARTESIAN_POINT ( 'NONE',  ( 1.801604370843056559E-13, -6.319177483600343742E-15, 51.59999999999999432 ) ) ;
#306 = CARTESIAN_POINT ( 'NONE',  ( 7.268913458024809838E-31, 1.699999999999994849, 2.081899558550494610E-16 ) ) ;
#307 = ADVANCED_BREP_SHAPE_REPRESENTATION ( '54551', ( #119, #127, #61 ), #134 ) ;
#308 = CLOSED_SHELL ( 'NONE', ( #284, #97, #327, #129, #12, #58 ) ) ;
#309 = CARTESIAN_POINT ( 'NONE',  ( 5.237222008264700033E-14, 1.699999999999993960, 15.00000000000000000 ) ) ;
#310 = PERSON ( 'UNSPECIFIED', 'UNSPECIFIED', 'UNSPECIFIED', ('UNSPECIFIED'), ('UNSPECIFIED'), ('UNSPECIFIED') ) ;
#311 = AXIS2_PLACEMENT_3D ( 'NONE', #145, #48, #115 ) ;
#312 = CARTESIAN_POINT ( 'NONE',  ( 0.0000000000000000000, 0.0000000000000000000, 0.0000000000000000000 ) ) ;
#313 = CARTESIAN_POINT ( 'NONE',  ( 1.815570296198429345E-13, -6.368163355566237959E-15, 52.00000000000000000 ) ) ;
#314 = CARTESIAN_POINT ( 'NONE',  ( 2.817750958997191801E-14, -1.699999999999997735, 15.00000000000000000 ) ) ;
#315 = DIRECTION ( 'NONE',  ( 4.275831445896959482E-31, 1.000000000000000000, 1.224646799147353454E-16 ) ) ;
#316 = PRODUCT_RELATED_PRODUCT_CATEGORY ( 'detail', '', ( #297 ) ) ;
#317 = CONICAL_SURFACE ( 'NONE', #275, 1.300000000000000266, 0.7853981633974426169 ) ;
#318 = ORIENTED_EDGE ( 'NONE', *, *, #16, .T. ) ;
#319 = VERTEX_POINT ( 'NONE', #118 ) ;
#320 = PLANE ( 'NONE',  #295 ) ;
#321 = COORDINATED_UNIVERSAL_TIME_OFFSET ( 1, 0, .AHEAD. ) ;
#322 = DATE_TIME_ROLE ( 'creation_date' ) ;
#323 = VECTOR ( 'NONE', #143, 1000.000000000000000 ) ;
#324 = PERSON_AND_ORGANIZATION_ROLE ( 'creator' ) ;
#325 = EDGE_CURVE ( 'NONE', #34, #319, #1, .T. ) ;
#326 = DIRECTION ( 'NONE',  ( 0.0000000000000000000, 1.000000000000000000, 0.0000000000000000000 ) ) ;
#327 = ADVANCED_FACE ( 'NONE', ( #50 ), #170, .F. ) ;
#328 = EDGE_LOOP ( 'NONE', ( #175, #125, #54, #293 ) ) ;
#329 = APPROVAL_PERSON_ORGANIZATION ( #258, #49, #282 ) ;
#330 = CYLINDRICAL_SURFACE ( 'NONE', #102, 1.699999999999994849 ) ;
#331 = PLANE ( 'NONE',  #150 ) ;
#332 = VERTEX_POINT ( 'NONE', #212 ) ;
#333 = EDGE_LOOP ( 'NONE', ( #208, #264 ) ) ;
#334 = CARTESIAN_POINT ( 'NONE',  ( 0.0000000000000000000, 0.0000000000000000000, 0.0000000000000000000 ) ) ;
#335 = CIRCLE ( 'NONE', #133, 1.300000000000000266 ) ;
#336 = CIRCLE ( 'NONE', #114, 1.699999999999994182 ) ;
#337 = EDGE_LOOP ( 'NONE', ( #149, #226, #69 ) ) ;
ENDSEC;
END-ISO-10303-21;
