ISO-10303-21;
HEADER;
FILE_DESCRIPTION (( 'STEP AP203' ),
    '1' );
FILE_NAME ('54550.step',
    '2021-09-03T07:50:03',
    ( '' ),
    ( '' ),
    'SwSTEP 2.0',
    'SolidWorks 2019',
    '' );
FILE_SCHEMA (( 'CONFIG_CONTROL_DESIGN' ));
ENDSEC;

DATA;
#1 = DATE_AND_TIME ( #112, #153 ) ;
#2 = CIRCLE ( 'NONE', #174, 1.674999999999994493 ) ;
#3 = DIRECTION ( 'NONE',  ( 0.0000000000000000000, 1.000000000000000000, 0.0000000000000000000 ) ) ;
#4 = EDGE_CURVE ( 'NONE', #49, #61, #298, .T. ) ;
#5 = DIRECTION ( 'NONE',  ( 3.491481338843133355E-15, -1.224646799147353207E-16, 1.000000000000000000 ) ) ;
#6 = ORIENTED_EDGE ( 'NONE', *, *, #138, .T. ) ;
#7 = ORIENTED_EDGE ( 'NONE', *, *, #149, .F. ) ;
#8 = LINE ( 'NONE', #211, #164 ) ;
#9 = EDGE_LOOP ( 'NONE', ( #212, #6, #69, #313 ) ) ;
#10 = CIRCLE ( 'NONE', #248, 1.675000000000000044 ) ;
#11 = ORIENTED_EDGE ( 'NONE', *, *, #325, .T. ) ;
#12 = CC_DESIGN_APPROVAL ( #286, ( #162 ) ) ;
#13 = CYLINDRICAL_SURFACE ( 'NONE', #304, 1.674999999999995159 ) ;
#14 = ADVANCED_FACE ( 'NONE', ( #288 ), #270, .T. ) ;
#15 = DIRECTION ( 'NONE',  ( 4.275831445896958607E-31, 1.000000000000000000, 1.224646799147353207E-16 ) ) ;
#16 = AXIS2_PLACEMENT_3D ( 'NONE', #38, #152, #85 ) ;
#17 = APPROVAL_PERSON_ORGANIZATION ( #257, #140, #200 ) ;
#18 = CARTESIAN_POINT ( 'NONE',  ( 3.513971844622296403E-15, -1.232535406658222301E-16, 1.006441536871170772 ) ) ;
#19 = EDGE_CURVE ( 'NONE', #318, #132, #2, .T. ) ;
#20 = EDGE_LOOP ( 'NONE', ( #194, #327, #219 ) ) ;
#21 = EDGE_LOOP ( 'NONE', ( #192, #11, #48, #158 ) ) ;
#22 = AXIS2_PLACEMENT_3D ( 'NONE', #32, #180, #264 ) ;
#23 = DIRECTION ( 'NONE',  ( 1.000000000000000000, 0.0000000000000000000, 0.0000000000000000000 ) ) ;
#24 = CALENDAR_DATE ( 2021, 3, 9 ) ;
#25 = LINE ( 'NONE', #227, #168 ) ;
#26 = CARTESIAN_POINT ( 'NONE',  ( 1.094884942446472257E-13, -1.674999999999997602, 14.00000000000000000 ) ) ;
#27 = ADVANCED_BREP_SHAPE_REPRESENTATION ( '54550', ( #122, #236, #119 ), #284 ) ;
#28 = CC_DESIGN_DATE_AND_TIME_ASSIGNMENT ( #317, #83, ( #183 ) ) ;
#29 = COORDINATED_UNIVERSAL_TIME_OFFSET ( 1, 0, .AHEAD. ) ;
#30 = CALENDAR_DATE ( 2021, 3, 9 ) ;
#31 = EDGE_CURVE ( 'NONE', #132, #318, #39, .T. ) ;
#32 = CARTESIAN_POINT ( 'NONE',  ( 1.710825856033135470E-13, -6.000769315822030937E-15, 49.00000000000000000 ) ) ;
#33 = CC_DESIGN_SECURITY_CLASSIFICATION ( #183, ( #229 ) ) ;
#34 = CARTESIAN_POINT ( 'NONE',  ( 1.696859930677762937E-13, 1.674999999999994271, 48.60000000000000142 ) ) ;
#35 = DIRECTION ( 'NONE',  ( -3.491481338843133355E-15, 1.224646799147353207E-16, -1.000000000000000000 ) ) ;
#36 = VERTEX_POINT ( 'NONE', #196 ) ;
#37 = PRODUCT ( '54550', '54550', '', ( #142 ) ) ;
#38 = CARTESIAN_POINT ( 'NONE',  ( 4.888073874380386697E-14, -1.714505518806294638E-15, 14.00000000000000000 ) ) ;
#39 = CIRCLE ( 'NONE', #93, 1.674999999999994493 ) ;
#40 = CIRCLE ( 'NONE', #54, 1.675000000000000044 ) ;
#41 = CIRCLE ( 'NONE', #326, 1.674999999999995826 ) ;
#42 = CARTESIAN_POINT ( 'NONE',  ( 1.710825856033135470E-13, -6.000769315822030937E-15, 49.00000000000000000 ) ) ;
#43 = DIRECTION ( 'NONE',  ( 3.491481338843133355E-15, -1.224646799147353207E-16, 1.000000000000000000 ) ) ;
#44 = ADVANCED_FACE ( 'NONE', ( #305 ), #76, .F. ) ;
#45 = EDGE_LOOP ( 'NONE', ( #197, #156, #333, #282 ) ) ;
#46 = AXIS2_PLACEMENT_3D ( 'NONE', #182, #63, #289 ) ;
#47 = DIRECTION ( 'NONE',  ( 4.599235688088936577E-31, 1.000000000000000000, 1.294569758191651346E-16 ) ) ;
#48 = ORIENTED_EDGE ( 'NONE', *, *, #19, .F. ) ;
#49 = VERTEX_POINT ( 'NONE', #26 ) ;
#50 = CARTESIAN_POINT ( 'NONE',  ( 0.0000000000000000000, 0.0000000000000000000, 0.0000000000000000000 ) ) ;
#51 = APPLICATION_PROTOCOL_DEFINITION ( 'international standard', 'config_control_design', 1994, #334 ) ;
#52 = PERSON_AND_ORGANIZATION ( #111, #277 ) ;
#53 = ADVANCED_FACE ( 'NONE', ( #144 ), #125, .T. ) ;
#54 = AXIS2_PLACEMENT_3D ( 'NONE', #250, #77, #68 ) ;
#55 = APPROVAL_DATE_TIME ( #231, #302 ) ;
#56 = ADVANCED_FACE ( 'NONE', ( #146 ), #104, .T. ) ;
#57 = CARTESIAN_POINT ( 'NONE',  ( 0.0000000000000000000, 0.0000000000000000000, 0.0000000000000000000 ) ) ;
#58 = COORDINATED_UNIVERSAL_TIME_OFFSET ( 1, 0, .AHEAD. ) ;
#59 = DIRECTION ( 'NONE',  ( 4.275831445896958607E-31, 1.000000000000000000, 1.224646799147353207E-16 ) ) ;
#60 = APPROVAL_STATUS ( 'not_yet_approved' ) ;
#61 = VERTEX_POINT ( 'NONE', #130 ) ;
#62 = APPROVAL_ROLE ( '' ) ;
#63 = DIRECTION ( 'NONE',  ( -3.491481338843133355E-15, 1.224646799147353207E-16, -1.000000000000000000 ) ) ;
#64 = CARTESIAN_POINT ( 'NONE',  ( 3.513971844622296009E-15, -1.674999999999994715, 1.006441536871170550 ) ) ;
#65 = AXIS2_PLACEMENT_3D ( 'NONE', #215, #247, #171 ) ;
#66 = FACE_OUTER_BOUND ( 'NONE', #96, .T. ) ;
#67 = EDGE_CURVE ( 'NONE', #329, #318, #283, .T. ) ;
#68 = DIRECTION ( 'NONE',  ( 0.0000000000000000000, 1.000000000000000000, 0.0000000000000000000 ) ) ;
#69 = ORIENTED_EDGE ( 'NONE', *, *, #189, .T. ) ;
#70 = ORIENTED_EDGE ( 'NONE', *, *, #291, .F. ) ;
#71 = VECTOR ( 'NONE', #337, 1000.000000000000114 ) ;
#72 = EDGE_LOOP ( 'NONE', ( #7, #225 ) ) ;
#73 = EDGE_CURVE ( 'NONE', #177, #49, #25, .T. ) ;
#74 =( LENGTH_UNIT ( ) NAMED_UNIT ( * ) SI_UNIT ( .MILLI., .METRE. ) );
#75 = APPROVAL_STATUS ( 'not_yet_approved' ) ;
#76 = PLANE ( 'NONE',  #221 ) ;
#77 = DIRECTION ( 'NONE',  ( -3.491481338843133355E-15, 1.224646799147353207E-16, -1.000000000000000000 ) ) ;
#78 = EDGE_CURVE ( 'NONE', #242, #274, #103, .T. ) ;
#79 = PRODUCT_DEFINITION_SHAPE ( 'NONE', 'NONE',  #162 ) ;
#80 = AXIS2_PLACEMENT_3D ( 'NONE', #230, #141, #322 ) ;
#81 = PERSON_AND_ORGANIZATION_ROLE ( 'creator' ) ;
#82 = DIRECTION ( 'NONE',  ( -3.491481338843133355E-15, 1.224646799147353207E-16, -1.000000000000000000 ) ) ;
#83 = DATE_TIME_ROLE ( 'classification_date' ) ;
#84 = DIRECTION ( 'NONE',  ( -3.491481338843133355E-15, 1.224646799147353207E-16, -1.000000000000000000 ) ) ;
#85 = DIRECTION ( 'NONE',  ( 0.0000000000000000000, 1.000000000000000000, 0.0000000000000000000 ) ) ;
#86 = PERSON_AND_ORGANIZATION ( #111, #277 ) ;
#87 = DIRECTION ( 'NONE',  ( -3.491481338843133355E-15, 1.224646799147353207E-16, -1.000000000000000000 ) ) ;
#88 = LOCAL_TIME ( 9, 50, 3.000000000000000000, #287 ) ;
#89 = CC_DESIGN_PERSON_AND_ORGANIZATION_ASSIGNMENT ( #86, #311, ( #183 ) ) ;
#90 = PLANE ( 'NONE',  #210 ) ;
#91 = DIRECTION ( 'NONE',  ( 0.0000000000000000000, 1.000000000000000000, 0.0000000000000000000 ) ) ;
#92 = FACE_OUTER_BOUND ( 'NONE', #72, .T. ) ;
#93 = AXIS2_PLACEMENT_3D ( 'NONE', #18, #275, #47 ) ;
#94 = VECTOR ( 'NONE', #320, 1000.000000000000000 ) ;
#95 = ORIENTED_EDGE ( 'NONE', *, *, #203, .F. ) ;
#96 = EDGE_LOOP ( 'NONE', ( #95, #165, #133, #321 ) ) ;
#97 = CIRCLE ( 'NONE', #181, 1.275000000000000355 ) ;
#98 = EDGE_CURVE ( 'NONE', #274, #61, #172, .T. ) ;
#99 = EDGE_LOOP ( 'NONE', ( #234, #295 ) ) ;
#100 = DIRECTION ( 'NONE',  ( -4.275831445896958607E-31, -1.000000000000000000, -1.224646799147353207E-16 ) ) ;
#101 = PERSON_AND_ORGANIZATION ( #111, #277 ) ;
#102 = EDGE_CURVE ( 'NONE', #177, #274, #10, .T. ) ;
#103 = LINE ( 'NONE', #256, #276 ) ;
#104 = CYLINDRICAL_SURFACE ( 'NONE', #303, 1.674999999999998046 ) ;
#105 = DATE_TIME_ROLE ( 'creation_date' ) ;
#106 = ORIENTED_EDGE ( 'NONE', *, *, #149, .T. ) ;
#107 = FACE_OUTER_BOUND ( 'NONE', #21, .T. ) ;
#108 = CALENDAR_DATE ( 2021, 3, 9 ) ;
#109 = EDGE_LOOP ( 'NONE', ( #290, #120 ) ) ;
#110 = CYLINDRICAL_SURFACE ( 'NONE', #46, 1.674999999999995159 ) ;
#111 = PERSON ( 'UNSPECIFIED', 'UNSPECIFIED', 'UNSPECIFIED', ('UNSPECIFIED'), ('UNSPECIFIED'), ('UNSPECIFIED') ) ;
#112 = CALENDAR_DATE ( 2021, 3, 9 ) ;
#113 = CARTESIAN_POINT ( 'NONE',  ( 1.710825856033135470E-13, 1.274999999999994138, 49.00000000000000000 ) ) ;
#114 = ORIENTED_EDGE ( 'NONE', *, *, #279, .F. ) ;
#115 = DIRECTION ( 'NONE',  ( -3.491481338843133355E-15, 1.224646799147353207E-16, -1.000000000000000000 ) ) ;
#116 = ADVANCED_FACE ( 'NONE', ( #262 ), #90, .T. ) ;
#117 = DIRECTION ( 'NONE',  ( -3.491481338843133355E-15, 1.224646799147353207E-16, -1.000000000000000000 ) ) ;
#118 = AXIS2_PLACEMENT_3D ( 'NONE', #266, #213, #131 ) ;
#119 = AXIS2_PLACEMENT_3D ( 'NONE', #251, #255, #23 ) ;
#120 = ORIENTED_EDGE ( 'NONE', *, *, #4, .T. ) ;
#121 =( NAMED_UNIT ( * ) PLANE_ANGLE_UNIT ( ) SI_UNIT ( $, .RADIAN. ) );
#122 = MANIFOLD_SOLID_BREP ( 'Corps-Déplacer/Copier1[1]', #280 ) ;
#123 = ADVANCED_FACE ( 'NONE', ( #92 ), #137, .F. ) ;
#124 = DATE_AND_TIME ( #24, #202 ) ;
#125 = CYLINDRICAL_SURFACE ( 'NONE', #80, 1.674999999999998046 ) ;
#126 = APPROVAL_PERSON_ORGANIZATION ( #184, #302, #62 ) ;
#127 = ORIENTED_EDGE ( 'NONE', *, *, #98, .F. ) ;
#128 = ADVANCED_FACE ( 'NONE', ( #66 ), #261, .T. ) ;
#129 = APPROVAL_STATUS ( 'not_yet_approved' ) ;
#130 = CARTESIAN_POINT ( 'NONE',  ( 4.888073874380386697E-14, 1.674999999999994271, 14.00000000000000000 ) ) ;
#131 = DIRECTION ( 'NONE',  ( 0.0000000000000000000, 1.000000000000000000, 0.0000000000000000000 ) ) ;
#132 = VERTEX_POINT ( 'NONE', #190 ) ;
#133 = ORIENTED_EDGE ( 'NONE', *, *, #78, .T. ) ;
#134 = DIRECTION ( 'NONE',  ( -4.599235688088936577E-31, -1.000000000000000000, -1.294569758191651346E-16 ) ) ;
#135 = ORIENTED_EDGE ( 'NONE', *, *, #78, .F. ) ;
#136 = CARTESIAN_POINT ( 'NONE',  ( 1.696859930677762937E-13, -5.951783443856137509E-15, 48.60000000000000142 ) ) ;
#137 = PLANE ( 'NONE',  #193 ) ;
#138 = EDGE_CURVE ( 'NONE', #258, #187, #243, .T. ) ;
#139 = LINE ( 'NONE', #178, #94 ) ;
#140 = APPROVAL ( #129, 'UNSPECIFIED' ) ;
#141 = DIRECTION ( 'NONE',  ( -3.491481338843133355E-15, 1.224646799147353207E-16, -1.000000000000000000 ) ) ;
#142 = MECHANICAL_CONTEXT ( 'NONE', #334, 'mechanical' ) ;
#143 = EDGE_CURVE ( 'NONE', #187, #258, #151, .T. ) ;
#144 = FACE_OUTER_BOUND ( 'NONE', #45, .T. ) ;
#145 = CARTESIAN_POINT ( 'NONE',  ( 2.051283388571803575E-16, -1.674999999999995159, -2.051283388571817627E-16 ) ) ;
#146 = FACE_OUTER_BOUND ( 'NONE', #166, .T. ) ;
#147 = PERSON_AND_ORGANIZATION_ROLE ( 'design_owner' ) ;
#148 = DIRECTION ( 'NONE',  ( -3.491481338843133355E-15, 1.224646799147353207E-16, -1.000000000000000000 ) ) ;
#149 = EDGE_CURVE ( 'NONE', #242, #36, #97, .T. ) ;
#150 = CC_DESIGN_PERSON_AND_ORGANIZATION_ASSIGNMENT ( #179, #260, ( #229 ) ) ;
#151 = CIRCLE ( 'NONE', #16, 1.674999999999995826 ) ;
#152 = DIRECTION ( 'NONE',  ( -3.491481338843133355E-15, 1.224646799147353207E-16, -1.000000000000000000 ) ) ;
#153 = LOCAL_TIME ( 9, 50, 3.000000000000000000, #206 ) ;
#154 = CARTESIAN_POINT ( 'NONE',  ( 4.888073874380386697E-14, -1.714505518806294638E-15, 14.00000000000000000 ) ) ;
#155 = DATE_AND_TIME ( #108, #222 ) ;
#156 = ORIENTED_EDGE ( 'NONE', *, *, #102, .T. ) ;
#157 = DIRECTION ( 'NONE',  ( 0.0000000000000000000, 1.000000000000000000, 0.0000000000000000000 ) ) ;
#158 = ORIENTED_EDGE ( 'NONE', *, *, #189, .F. ) ;
#159 = DIRECTION ( 'NONE',  ( 1.798245827342159528E-15, -0.8571673007021100021, 0.5150380749100580413 ) ) ;
#160 = VECTOR ( 'NONE', #306, 1000.000000000000000 ) ;
#161 = DIRECTION ( 'NONE',  ( -3.491481338843133355E-15, 1.224646799147353207E-16, -1.000000000000000000 ) ) ;
#162 = PRODUCT_DEFINITION ( 'UNKNOWN', '', #229, #310 ) ;
#163 = ORIENTED_EDGE ( 'NONE', *, *, #281, .F. ) ;
#164 = VECTOR ( 'NONE', #82, 1000.000000000000000 ) ;
#165 = ORIENTED_EDGE ( 'NONE', *, *, #253, .T. ) ;
#166 = EDGE_LOOP ( 'NONE', ( #239, #220, #114, #127 ) ) ;
#167 = ADVANCED_FACE ( 'NONE', ( #237 ), #309, .T. ) ;
#168 = VECTOR ( 'NONE', #336, 1000.000000000000000 ) ;
#169 = APPROVAL_ROLE ( '' ) ;
#170 = VECTOR ( 'NONE', #159, 1000.000000000000000 ) ;
#171 = DIRECTION ( 'NONE',  ( -4.599235688088936577E-31, -1.000000000000000000, -1.294569758191651346E-16 ) ) ;
#172 = LINE ( 'NONE', #300, #191 ) ;
#173 = PERSON_AND_ORGANIZATION ( #111, #277 ) ;
#174 = AXIS2_PLACEMENT_3D ( 'NONE', #208, #87, #293 ) ;
#175 = AXIS2_PLACEMENT_3D ( 'NONE', #294, #271, #3 ) ;
#176 = CARTESIAN_POINT ( 'NONE',  ( 3.719100183479478486E-15, 1.674999999999994271, 1.006441536871170994 ) ) ;
#177 = VERTEX_POINT ( 'NONE', #214 ) ;
#178 = CARTESIAN_POINT ( 'NONE',  ( 1.712387280702048211E-13, -1.275000000000006350, 49.00000000000000000 ) ) ;
#179 = PERSON_AND_ORGANIZATION ( #111, #277 ) ;
#180 = DIRECTION ( 'NONE',  ( -3.491481338843133355E-15, 1.224646799147353207E-16, -1.000000000000000000 ) ) ;
#181 = AXIS2_PLACEMENT_3D ( 'NONE', #42, #35, #323 ) ;
#182 = CARTESIAN_POINT ( 'NONE',  ( 0.0000000000000000000, 0.0000000000000000000, 0.0000000000000000000 ) ) ;
#183 = SECURITY_CLASSIFICATION ( '', '', #315 ) ;
#184 = PERSON_AND_ORGANIZATION ( #111, #277 ) ;
#185 = ORIENTED_EDGE ( 'NONE', *, *, #203, .T. ) ;
#186 = DIRECTION ( 'NONE',  ( -3.491481338843133355E-15, 1.224646799147353207E-16, -1.000000000000000000 ) ) ;
#187 = VERTEX_POINT ( 'NONE', #324 ) ;
#188 = DIRECTION ( 'NONE',  ( -3.491481338843133355E-15, 1.224646799147353207E-16, -1.000000000000000000 ) ) ;
#189 = EDGE_CURVE ( 'NONE', #187, #318, #8, .T. ) ;
#190 = CARTESIAN_POINT ( 'NONE',  ( 3.513971844622296009E-15, -1.674999999999994715, 1.006441536871170550 ) ) ;
#191 = VECTOR ( 'NONE', #117, 1000.000000000000000 ) ;
#192 = ORIENTED_EDGE ( 'NONE', *, *, #143, .T. ) ;
#193 = AXIS2_PLACEMENT_3D ( 'NONE', #314, #246, #15 ) ;
#194 = ORIENTED_EDGE ( 'NONE', *, *, #67, .F. ) ;
#195 = APPLICATION_PROTOCOL_DEFINITION ( 'international standard', 'config_control_design', 1994, #296 ) ;
#196 = CARTESIAN_POINT ( 'NONE',  ( 1.705649247384191490E-13, -1.275000000000006350, 49.00000000000000000 ) ) ;
#197 = ORIENTED_EDGE ( 'NONE', *, *, #73, .F. ) ;
#198 = LOCAL_TIME ( 9, 50, 3.000000000000000000, #29 ) ;
#199 = DIRECTION ( 'NONE',  ( -2.468850131082258244E-15, 0.7071067811865495711, -0.7071067811865454633 ) ) ;
#200 = APPROVAL_ROLE ( '' ) ;
#201 = DIRECTION ( 'NONE',  ( 0.0000000000000000000, 1.000000000000000000, 0.0000000000000000000 ) ) ;
#202 = LOCAL_TIME ( 9, 50, 3.000000000000000000, #252 ) ;
#203 = EDGE_CURVE ( 'NONE', #36, #177, #139, .T. ) ;
#204 = PERSON_AND_ORGANIZATION ( #111, #277 ) ;
#205 = CARTESIAN_POINT ( 'NONE',  ( 0.0000000000000000000, 0.0000000000000000000, 0.0000000000000000000 ) ) ;
#206 = COORDINATED_UNIVERSAL_TIME_OFFSET ( 1, 0, .AHEAD. ) ;
#207 = CARTESIAN_POINT ( 'NONE',  ( 4.888073874380386697E-14, -1.714505518806294638E-15, 14.00000000000000000 ) ) ;
#208 = CARTESIAN_POINT ( 'NONE',  ( 3.513971844622296403E-15, -1.232535406658222301E-16, 1.006441536871170772 ) ) ;
#209 = ORIENTED_EDGE ( 'NONE', *, *, #67, .T. ) ;
#210 = AXIS2_PLACEMENT_3D ( 'NONE', #272, #5, #269 ) ;
#211 = CARTESIAN_POINT ( 'NONE',  ( 7.162017671877384515E-31, 1.674999999999995159, 2.051283388571810724E-16 ) ) ;
#212 = ORIENTED_EDGE ( 'NONE', *, *, #325, .F. ) ;
#213 = DIRECTION ( 'NONE',  ( -3.491481338843133355E-15, 1.224646799147353207E-16, -1.000000000000000000 ) ) ;
#214 = CARTESIAN_POINT ( 'NONE',  ( 1.094884942446471248E-13, -1.675000000000005596, 48.60000000000000142 ) ) ;
#215 = CARTESIAN_POINT ( 'NONE',  ( 3.513971844622296403E-15, -1.232535406658222301E-16, 1.006441536871170772 ) ) ;
#216 = AXIS2_PLACEMENT_3D ( 'NONE', #154, #115, #240 ) ;
#217 = CC_DESIGN_PERSON_AND_ORGANIZATION_ASSIGNMENT ( #173, #81, ( #229 ) ) ;
#218 = CONICAL_SURFACE ( 'NONE', #65, 1.674999999999994493, 1.029744258676649871 ) ;
#219 = ORIENTED_EDGE ( 'NONE', *, *, #31, .T. ) ;
#220 = ORIENTED_EDGE ( 'NONE', *, *, #73, .T. ) ;
#221 = AXIS2_PLACEMENT_3D ( 'NONE', #335, #332, #100 ) ;
#222 = LOCAL_TIME ( 9, 50, 3.000000000000000000, #58 ) ;
#223 = FACE_OUTER_BOUND ( 'NONE', #20, .T. ) ;
#224 = LINE ( 'NONE', #145, #160 ) ;
#225 = ORIENTED_EDGE ( 'NONE', *, *, #253, .F. ) ;
#226 = UNCERTAINTY_MEASURE_WITH_UNIT (LENGTH_MEASURE( 1.000000000000000082E-05 ), #74, 'distance_accuracy_value', 'NONE');
#227 = CARTESIAN_POINT ( 'NONE',  ( 2.051283388571807273E-16, -1.674999999999998046, -2.051283388571821324E-16 ) ) ;
#228 = CC_DESIGN_PERSON_AND_ORGANIZATION_ASSIGNMENT ( #52, #147, ( #37 ) ) ;
#229 = PRODUCT_DEFINITION_FORMATION_WITH_SPECIFIED_SOURCE ( 'ANY', '', #37, .NOT_KNOWN. ) ;
#230 = CARTESIAN_POINT ( 'NONE',  ( 0.0000000000000000000, 0.0000000000000000000, 0.0000000000000000000 ) ) ;
#231 = DATE_AND_TIME ( #30, #198 ) ;
#232 = APPROVAL_DATE_TIME ( #124, #286 ) ;
#233 = CARTESIAN_POINT ( 'NONE',  ( 4.888073874380386697E-14, -1.714505518806294638E-15, 14.00000000000000000 ) ) ;
#234 = ORIENTED_EDGE ( 'NONE', *, *, #143, .F. ) ;
#235 = AXIS2_PLACEMENT_3D ( 'NONE', #244, #43, #134 ) ;
#236 = MANIFOLD_SOLID_BREP ( 'Corps-Déplacer/Copier1[2]', #330 ) ;
#237 = FACE_OUTER_BOUND ( 'NONE', #265, .T. ) ;
#238 = CALENDAR_DATE ( 2021, 3, 9 ) ;
#239 = ORIENTED_EDGE ( 'NONE', *, *, #291, .T. ) ;
#240 = DIRECTION ( 'NONE',  ( 0.0000000000000000000, 1.000000000000000000, 0.0000000000000000000 ) ) ;
#241 = PRODUCT_RELATED_PRODUCT_CATEGORY ( 'detail', '', ( #37 ) ) ;
#242 = VERTEX_POINT ( 'NONE', #113 ) ;
#243 = CIRCLE ( 'NONE', #216, 1.674999999999995826 ) ;
#244 = CARTESIAN_POINT ( 'NONE',  ( 3.513971844622296403E-15, -1.232535406658222301E-16, 1.006441536871170772 ) ) ;
#245 = CC_DESIGN_APPROVAL ( #302, ( #183 ) ) ;
#246 = DIRECTION ( 'NONE',  ( -3.491481338843133355E-15, 1.224646799147353207E-16, -1.000000000000000000 ) ) ;
#247 = DIRECTION ( 'NONE',  ( 3.491481338843133355E-15, -1.224646799147353207E-16, 1.000000000000000000 ) ) ;
#248 = AXIS2_PLACEMENT_3D ( 'NONE', #136, #161, #91 ) ;
#249 = APPROVAL_PERSON_ORGANIZATION ( #101, #286, #169 ) ;
#250 = CARTESIAN_POINT ( 'NONE',  ( 1.696859930677762937E-13, -5.951783443856137509E-15, 48.60000000000000142 ) ) ;
#251 = CARTESIAN_POINT ( 'NONE',  ( 0.0000000000000000000, 0.0000000000000000000, 0.0000000000000000000 ) ) ;
#252 = COORDINATED_UNIVERSAL_TIME_OFFSET ( 1, 0, .AHEAD. ) ;
#253 = EDGE_CURVE ( 'NONE', #36, #242, #331, .T. ) ;
#254 = DIRECTION ( 'NONE',  ( 4.275831445896958607E-31, 1.000000000000000000, 1.224646799147353207E-16 ) ) ;
#255 = DIRECTION ( 'NONE',  ( 0.0000000000000000000, 0.0000000000000000000, 1.000000000000000000 ) ) ;
#256 = CARTESIAN_POINT ( 'NONE',  ( 1.710825856033135470E-13, 1.274999999999994138, 49.00000000000000000 ) ) ;
#257 = PERSON_AND_ORGANIZATION ( #111, #277 ) ;
#258 = VERTEX_POINT ( 'NONE', #292 ) ;
#259 = ADVANCED_FACE ( 'NONE', ( #107 ), #13, .T. ) ;
#260 = PERSON_AND_ORGANIZATION_ROLE ( 'design_supplier' ) ;
#261 = CONICAL_SURFACE ( 'NONE', #118, 1.275000000000000355, 0.7853981633974510546 ) ;
#262 = FACE_OUTER_BOUND ( 'NONE', #99, .T. ) ;
#263 = PERSON_AND_ORGANIZATION_ROLE ( 'creator' ) ;
#264 = DIRECTION ( 'NONE',  ( 0.0000000000000000000, 1.000000000000000000, 0.0000000000000000000 ) ) ;
#265 = EDGE_LOOP ( 'NONE', ( #163, #209, #278 ) ) ;
#266 = CARTESIAN_POINT ( 'NONE',  ( 1.710825856033135470E-13, -6.000769315822030937E-15, 49.00000000000000000 ) ) ;
#267 = ADVANCED_FACE ( 'NONE', ( #316 ), #110, .T. ) ;
#268 = SHAPE_DEFINITION_REPRESENTATION ( #79, #27 ) ;
#269 = DIRECTION ( 'NONE',  ( -4.275831445896958607E-31, -1.000000000000000000, -1.224646799147353207E-16 ) ) ;
#270 = CONICAL_SURFACE ( 'NONE', #22, 1.275000000000000355, 0.7853981633974510546 ) ;
#271 = DIRECTION ( 'NONE',  ( -3.491481338843133355E-15, 1.224646799147353207E-16, -1.000000000000000000 ) ) ;
#272 = CARTESIAN_POINT ( 'NONE',  ( 4.888073874380386697E-14, 1.256048817979299862E-32, 14.00000000000000000 ) ) ;
#273 = CARTESIAN_POINT ( 'NONE',  ( 3.719100183479478486E-15, 1.674999999999994271, 1.006441536871170994 ) ) ;
#274 = VERTEX_POINT ( 'NONE', #34 ) ;
#275 = DIRECTION ( 'NONE',  ( -3.491481338843133355E-15, 1.224646799147353207E-16, -1.000000000000000000 ) ) ;
#276 = VECTOR ( 'NONE', #199, 1000.000000000000000 ) ;
#277 = ORGANIZATION ( 'UNSPECIFIED', 'UNSPECIFIED', '' ) ;
#278 = ORIENTED_EDGE ( 'NONE', *, *, #19, .T. ) ;
#279 = EDGE_CURVE ( 'NONE', #61, #49, #41, .T. ) ;
#280 = CLOSED_SHELL ( 'NONE', ( #14, #56, #44, #53, #128, #123 ) ) ;
#281 = EDGE_CURVE ( 'NONE', #329, #132, #297, .T. ) ;
#282 = ORIENTED_EDGE ( 'NONE', *, *, #4, .F. ) ;
#283 = LINE ( 'NONE', #176, #71 ) ;
#284 =( GEOMETRIC_REPRESENTATION_CONTEXT ( 3 ) GLOBAL_UNCERTAINTY_ASSIGNED_CONTEXT ( ( #226 ) ) GLOBAL_UNIT_ASSIGNED_CONTEXT ( ( #74, #121, #308 ) ) REPRESENTATION_CONTEXT ( 'NONE', 'WORKASPACE' ) );
#285 = APPROVAL_DATE_TIME ( #155, #140 ) ;
#286 = APPROVAL ( #75, 'UNSPECIFIED' ) ;
#287 = COORDINATED_UNIVERSAL_TIME_OFFSET ( 1, 0, .AHEAD. ) ;
#288 = FACE_OUTER_BOUND ( 'NONE', #301, .T. ) ;
#289 = DIRECTION ( 'NONE',  ( 4.275831445896958607E-31, 1.000000000000000000, 1.224646799147353207E-16 ) ) ;
#290 = ORIENTED_EDGE ( 'NONE', *, *, #279, .T. ) ;
#291 = EDGE_CURVE ( 'NONE', #274, #177, #40, .T. ) ;
#292 = CARTESIAN_POINT ( 'NONE',  ( 2.640248363307023951E-14, -1.674999999999997824, 14.00000000000000000 ) ) ;
#293 = DIRECTION ( 'NONE',  ( 4.599235688088936577E-31, 1.000000000000000000, 1.294569758191651346E-16 ) ) ;
#294 = CARTESIAN_POINT ( 'NONE',  ( 1.710825856033135470E-13, -6.000769315822030937E-15, 49.00000000000000000 ) ) ;
#295 = ORIENTED_EDGE ( 'NONE', *, *, #138, .F. ) ;
#296 = APPLICATION_CONTEXT ( 'configuration controlled 3d designs of mechanical parts and assemblies' ) ;
#297 = LINE ( 'NONE', #64, #170 ) ;
#298 = CIRCLE ( 'NONE', #319, 1.674999999999995826 ) ;
#299 = CC_DESIGN_APPROVAL ( #140, ( #229 ) ) ;
#300 = CARTESIAN_POINT ( 'NONE',  ( 7.162017671877397652E-31, 1.674999999999998046, 2.051283388571814175E-16 ) ) ;
#301 = EDGE_LOOP ( 'NONE', ( #106, #185, #70, #135 ) ) ;
#302 = APPROVAL ( #60, 'UNSPECIFIED' ) ;
#303 = AXIS2_PLACEMENT_3D ( 'NONE', #57, #148, #254 ) ;
#304 = AXIS2_PLACEMENT_3D ( 'NONE', #205, #186, #59 ) ;
#305 = FACE_OUTER_BOUND ( 'NONE', #109, .T. ) ;
#306 = DIRECTION ( 'NONE',  ( -3.491481338843133355E-15, 1.224646799147353207E-16, -1.000000000000000000 ) ) ;
#307 = CC_DESIGN_PERSON_AND_ORGANIZATION_ASSIGNMENT ( #204, #263, ( #162 ) ) ;
#308 =( NAMED_UNIT ( * ) SI_UNIT ( $, .STERADIAN. ) SOLID_ANGLE_UNIT ( ) );
#309 = CONICAL_SURFACE ( 'NONE', #235, 1.674999999999994493, 1.029744258676649871 ) ;
#310 = DESIGN_CONTEXT ( 'detailed design', #296, 'design' ) ;
#311 = PERSON_AND_ORGANIZATION_ROLE ( 'classification_officer' ) ;
#312 = ADVANCED_FACE ( 'NONE', ( #223 ), #218, .T. ) ;
#313 = ORIENTED_EDGE ( 'NONE', *, *, #31, .F. ) ;
#314 = CARTESIAN_POINT ( 'NONE',  ( 1.710825856033135470E-13, 9.560968614469254669E-33, 49.00000000000000000 ) ) ;
#315 = SECURITY_CLASSIFICATION_LEVEL ( 'unclassified' ) ;
#316 = FACE_OUTER_BOUND ( 'NONE', #9, .T. ) ;
#317 = DATE_AND_TIME ( #238, #88 ) ;
#318 = VERTEX_POINT ( 'NONE', #273 ) ;
#319 = AXIS2_PLACEMENT_3D ( 'NONE', #233, #84, #201 ) ;
#320 = DIRECTION ( 'NONE',  ( -2.382254525458709186E-15, -0.7071067811865493491, -0.7071067811865456854 ) ) ;
#321 = ORIENTED_EDGE ( 'NONE', *, *, #102, .F. ) ;
#322 = DIRECTION ( 'NONE',  ( 4.275831445896958607E-31, 1.000000000000000000, 1.224646799147353207E-16 ) ) ;
#323 = DIRECTION ( 'NONE',  ( 0.0000000000000000000, 1.000000000000000000, 0.0000000000000000000 ) ) ;
#324 = CARTESIAN_POINT ( 'NONE',  ( 4.888073874380386697E-14, 1.674999999999994271, 14.00000000000000000 ) ) ;
#325 = EDGE_CURVE ( 'NONE', #258, #132, #224, .T. ) ;
#326 = AXIS2_PLACEMENT_3D ( 'NONE', #207, #188, #157 ) ;
#327 = ORIENTED_EDGE ( 'NONE', *, *, #281, .T. ) ;
#328 = CC_DESIGN_DATE_AND_TIME_ASSIGNMENT ( #1, #105, ( #162 ) ) ;
#329 = VERTEX_POINT ( 'NONE', #50 ) ;
#330 = CLOSED_SHELL ( 'NONE', ( #259, #167, #312, #267, #116 ) ) ;
#331 = CIRCLE ( 'NONE', #175, 1.275000000000000355 ) ;
#332 = DIRECTION ( 'NONE',  ( 3.491481338843133355E-15, -1.224646799147353207E-16, 1.000000000000000000 ) ) ;
#333 = ORIENTED_EDGE ( 'NONE', *, *, #98, .T. ) ;
#334 = APPLICATION_CONTEXT ( 'configuration controlled 3d designs of mechanical parts and assemblies' ) ;
#335 = CARTESIAN_POINT ( 'NONE',  ( 4.888073874380386697E-14, 1.256048817979299862E-32, 14.00000000000000000 ) ) ;
#336 = DIRECTION ( 'NONE',  ( -3.491481338843133355E-15, 1.224646799147353207E-16, -1.000000000000000000 ) ) ;
#337 = DIRECTION ( 'NONE',  ( 1.903218546456021928E-15, 0.8571673007021098911, 0.5150380749100583744 ) ) ;
ENDSEC;
END-ISO-10303-21;
