ISO-10303-21;
HEADER;
FILE_DESCRIPTION (( 'STEP AP203' ),
    '1' );
FILE_NAME ('54549.step',
    '2021-09-03T07:50:01',
    ( '' ),
    ( '' ),
    'SwSTEP 2.0',
    'SolidWorks 2019',
    '' );
FILE_SCHEMA (( 'CONFIG_CONTROL_DESIGN' ));
ENDSEC;

DATA;
#1 = DATE_AND_TIME ( #33, #96 ) ;
#2 = EDGE_CURVE ( 'NONE', #197, #219, #67, .T. ) ;
#3 = CARTESIAN_POINT ( 'NONE',  ( 0.0000000000000000000, 0.0000000000000000000, 0.0000000000000000000 ) ) ;
#4 = MANIFOLD_SOLID_BREP ( 'Corps-Déplacer/Copier1[2]', #142 ) ;
#5 =( GEOMETRIC_REPRESENTATION_CONTEXT ( 3 ) GLOBAL_UNCERTAINTY_ASSIGNED_CONTEXT ( ( #75 ) ) GLOBAL_UNIT_ASSIGNED_CONTEXT ( ( #182, #83, #56 ) ) REPRESENTATION_CONTEXT ( 'NONE', 'WORKASPACE' ) );
#6 = PERSON_AND_ORGANIZATION ( #112, #196 ) ;
#7 = VECTOR ( 'NONE', #68, 1000.000000000000000 ) ;
#8 = ORIENTED_EDGE ( 'NONE', *, *, #269, .F. ) ;
#9 = APPROVAL_STATUS ( 'not_yet_approved' ) ;
#10 = PRODUCT ( '54549', '54549', '', ( #312 ) ) ;
#11 = DIRECTION ( 'NONE',  ( 0.0000000000000000000, 1.000000000000000000, 0.0000000000000000000 ) ) ;
#12 = DIRECTION ( 'NONE',  ( 1.798245827342160317E-15, -0.8571673007021098911, 0.5150380749100582634 ) ) ;
#13 = CARTESIAN_POINT ( 'NONE',  ( 2.020667218593123141E-16, -1.649999999999997913, -2.020667218593137192E-16 ) ) ;
#14 = CARTESIAN_POINT ( 'NONE',  ( 1.696859930677762937E-13, 1.649999999999994138, 48.60000000000000142 ) ) ;
#15 = DIRECTION ( 'NONE',  ( -3.491481338843133355E-15, 1.224646799147353207E-16, -1.000000000000000000 ) ) ;
#16 = VECTOR ( 'NONE', #178, 1000.000000000000000 ) ;
#17 = EDGE_CURVE ( 'NONE', #158, #219, #117, .T. ) ;
#18 = CARTESIAN_POINT ( 'NONE',  ( 0.0000000000000000000, 0.0000000000000000000, 0.0000000000000000000 ) ) ;
#19 = CC_DESIGN_PERSON_AND_ORGANIZATION_ASSIGNMENT ( #53, #103, ( #304 ) ) ;
#20 = DIRECTION ( 'NONE',  ( 3.491481338843133355E-15, -1.224646799147353207E-16, 1.000000000000000000 ) ) ;
#21 = CARTESIAN_POINT ( 'NONE',  ( 1.712356664532069470E-13, -1.250000000000006217, 49.00000000000000000 ) ) ;
#22 = CYLINDRICAL_SURFACE ( 'NONE', #122, 1.649999999999997913 ) ;
#23 = CC_DESIGN_PERSON_AND_ORGANIZATION_ASSIGNMENT ( #25, #282, ( #10 ) ) ;
#24 = DIRECTION ( 'NONE',  ( -3.491481338843133355E-15, 1.224646799147353207E-16, -1.000000000000000000 ) ) ;
#25 = PERSON_AND_ORGANIZATION ( #112, #196 ) ;
#26 = AXIS2_PLACEMENT_3D ( 'NONE', #302, #24, #309 ) ;
#27 = DIRECTION ( 'NONE',  ( -3.491481338843133355E-15, 1.224646799147353207E-16, -1.000000000000000000 ) ) ;
#28 = CYLINDRICAL_SURFACE ( 'NONE', #256, 1.649999999999997913 ) ;
#29 = ORIENTED_EDGE ( 'NONE', *, *, #152, .T. ) ;
#30 = APPLICATION_PROTOCOL_DEFINITION ( 'international standard', 'config_control_design', 1994, #296 ) ;
#31 = ORIENTED_EDGE ( 'NONE', *, *, #105, .F. ) ;
#32 = EDGE_CURVE ( 'NONE', #270, #215, #88, .T. ) ;
#33 = CALENDAR_DATE ( 2021, 3, 9 ) ;
#34 = AXIS2_PLACEMENT_3D ( 'NONE', #250, #49, #275 ) ;
#35 = PERSON_AND_ORGANIZATION_ROLE ( 'design_supplier' ) ;
#36 = ORIENTED_EDGE ( 'NONE', *, *, #78, .T. ) ;
#37 = EDGE_CURVE ( 'NONE', #219, #197, #168, .T. ) ;
#38 = DIRECTION ( 'NONE',  ( 0.0000000000000000000, 1.000000000000000000, 0.0000000000000000000 ) ) ;
#39 = AXIS2_PLACEMENT_3D ( 'NONE', #3, #27, #286 ) ;
#40 = CYLINDRICAL_SURFACE ( 'NONE', #181, 1.649999999999995248 ) ;
#41 = VECTOR ( 'NONE', #306, 1000.000000000000000 ) ;
#42 = ORIENTED_EDGE ( 'NONE', *, *, #37, .T. ) ;
#43 = ORIENTED_EDGE ( 'NONE', *, *, #207, .F. ) ;
#44 = FACE_OUTER_BOUND ( 'NONE', #192, .T. ) ;
#45 = CC_DESIGN_APPROVAL ( #97, ( #224 ) ) ;
#46 = LINE ( 'NONE', #252, #51 ) ;
#47 = CALENDAR_DATE ( 2021, 3, 9 ) ;
#48 = DIRECTION ( 'NONE',  ( -4.275831445896958607E-31, -1.000000000000000000, -1.224646799147353207E-16 ) ) ;
#49 = DIRECTION ( 'NONE',  ( -3.491481338843133355E-15, 1.224646799147353207E-16, -1.000000000000000000 ) ) ;
#50 = ADVANCED_FACE ( 'NONE', ( #324 ), #40, .T. ) ;
#51 = VECTOR ( 'NONE', #145, 1000.000000000000000 ) ;
#52 = DIRECTION ( 'NONE',  ( -4.275831445896958607E-31, -1.000000000000000000, -1.224646799147353207E-16 ) ) ;
#53 = PERSON_AND_ORGANIZATION ( #112, #196 ) ;
#54 = CYLINDRICAL_SURFACE ( 'NONE', #39, 1.649999999999995248 ) ;
#55 = CIRCLE ( 'NONE', #321, 1.649999999999995914 ) ;
#56 =( NAMED_UNIT ( * ) SI_UNIT ( $, .STERADIAN. ) SOLID_ANGLE_UNIT ( ) );
#57 = VERTEX_POINT ( 'NONE', #114 ) ;
#58 = DIRECTION ( 'NONE',  ( 1.000000000000000000, 0.0000000000000000000, 0.0000000000000000000 ) ) ;
#59 = APPROVAL_STATUS ( 'not_yet_approved' ) ;
#60 = APPROVAL ( #59, 'UNSPECIFIED' ) ;
#61 = PERSON_AND_ORGANIZATION ( #112, #196 ) ;
#62 = VECTOR ( 'NONE', #12, 1000.000000000000000 ) ;
#63 = LINE ( 'NONE', #193, #81 ) ;
#64 = VERTEX_POINT ( 'NONE', #246 ) ;
#65 = DIRECTION ( 'NONE',  ( 3.491481338843133355E-15, -1.224646799147353207E-16, 1.000000000000000000 ) ) ;
#66 = ORIENTED_EDGE ( 'NONE', *, *, #230, .T. ) ;
#67 = CIRCLE ( 'NONE', #320, 1.649999999999994360 ) ;
#68 = DIRECTION ( 'NONE',  ( -3.491481338843133355E-15, 1.224646799147353207E-16, -1.000000000000000000 ) ) ;
#69 = CARTESIAN_POINT ( 'NONE',  ( 1.710825856033135470E-13, 1.249999999999994227, 49.00000000000000000 ) ) ;
#70 = DIRECTION ( 'NONE',  ( 3.491481338843133355E-15, -1.224646799147353207E-16, 1.000000000000000000 ) ) ;
#71 = LOCAL_TIME ( 9, 50, 1.000000000000000000, #205 ) ;
#72 = CIRCLE ( 'NONE', #118, 1.649999999999995914 ) ;
#73 = DIRECTION ( 'NONE',  ( 0.0000000000000000000, 1.000000000000000000, 0.0000000000000000000 ) ) ;
#74 = CARTESIAN_POINT ( 'NONE',  ( 1.710825856033135470E-13, -6.000769315822030937E-15, 49.00000000000000000 ) ) ;
#75 = UNCERTAINTY_MEASURE_WITH_UNIT (LENGTH_MEASURE( 1.000000000000000082E-05 ), #182, 'distance_accuracy_value', 'NONE');
#76 = CARTESIAN_POINT ( 'NONE',  ( 1.710825856033135470E-13, -6.000769315822030937E-15, 49.00000000000000000 ) ) ;
#77 = APPROVAL_DATE_TIME ( #1, #60 ) ;
#78 = EDGE_CURVE ( 'NONE', #82, #322, #63, .T. ) ;
#79 = PERSON_AND_ORGANIZATION ( #112, #196 ) ;
#80 = CC_DESIGN_PERSON_AND_ORGANIZATION_ASSIGNMENT ( #288, #337, ( #224 ) ) ;
#81 = VECTOR ( 'NONE', #15, 1000.000000000000000 ) ;
#82 = VERTEX_POINT ( 'NONE', #14 ) ;
#83 =( NAMED_UNIT ( * ) PLANE_ANGLE_UNIT ( ) SI_UNIT ( $, .RADIAN. ) );
#84 = PERSON_AND_ORGANIZATION_ROLE ( 'classification_officer' ) ;
#85 = ORIENTED_EDGE ( 'NONE', *, *, #17, .F. ) ;
#86 = VECTOR ( 'NONE', #164, 999.9999999999998863 ) ;
#87 = DIRECTION ( 'NONE',  ( -3.491481338843133355E-15, 1.224646799147353207E-16, -1.000000000000000000 ) ) ;
#88 = LINE ( 'NONE', #13, #7 ) ;
#89 = FACE_OUTER_BOUND ( 'NONE', #239, .T. ) ;
#90 = ORIENTED_EDGE ( 'NONE', *, *, #269, .T. ) ;
#91 = CONICAL_SURFACE ( 'NONE', #155, 1.250000000000000222, 0.7853981633974510546 ) ;
#92 = EDGE_LOOP ( 'NONE', ( #43, #185 ) ) ;
#93 = DIRECTION ( 'NONE',  ( -3.491481338843133355E-15, 1.224646799147353207E-16, -1.000000000000000000 ) ) ;
#94 = EDGE_CURVE ( 'NONE', #158, #197, #268, .T. ) ;
#95 = LINE ( 'NONE', #21, #113 ) ;
#96 = LOCAL_TIME ( 9, 50, 1.000000000000000000, #257 ) ;
#97 = APPROVAL ( #107, 'UNSPECIFIED' ) ;
#98 = CARTESIAN_POINT ( 'NONE',  ( 4.888073874380386697E-14, 1.649999999999994138, 14.00000000000000000 ) ) ;
#99 = CARTESIAN_POINT ( 'NONE',  ( 1.094854326276493391E-13, -1.649999999999997691, 14.00000000000000000 ) ) ;
#100 = PERSON_AND_ORGANIZATION ( #112, #196 ) ;
#101 = CONICAL_SURFACE ( 'NONE', #305, 1.649999999999994360, 1.029744258676649649 ) ;
#102 = DATE_TIME_ROLE ( 'creation_date' ) ;
#103 = PERSON_AND_ORGANIZATION_ROLE ( 'creator' ) ;
#104 = ORIENTED_EDGE ( 'NONE', *, *, #152, .F. ) ;
#105 = EDGE_CURVE ( 'NONE', #270, #82, #293, .T. ) ;
#106 = CARTESIAN_POINT ( 'NONE',  ( 0.0000000000000000000, 0.0000000000000000000, 0.0000000000000000000 ) ) ;
#107 = APPROVAL_STATUS ( 'not_yet_approved' ) ;
#108 = DATE_TIME_ROLE ( 'classification_date' ) ;
#109 = ORIENTED_EDGE ( 'NONE', *, *, #162, .T. ) ;
#110 = DIRECTION ( 'NONE',  ( 4.275831445896958607E-31, 1.000000000000000000, 1.224646799147353207E-16 ) ) ;
#111 = APPROVAL_PERSON_ORGANIZATION ( #263, #300, #214 ) ;
#112 = PERSON ( 'UNSPECIFIED', 'UNSPECIFIED', 'UNSPECIFIED', ('UNSPECIFIED'), ('UNSPECIFIED'), ('UNSPECIFIED') ) ;
#113 = VECTOR ( 'NONE', #121, 1000.000000000000000 ) ;
#114 = CARTESIAN_POINT ( 'NONE',  ( 2.637319834559012138E-14, -1.649999999999997691, 14.00000000000000000 ) ) ;
#115 = FACE_OUTER_BOUND ( 'NONE', #134, .T. ) ;
#116 = ORIENTED_EDGE ( 'NONE', *, *, #124, .T. ) ;
#117 = LINE ( 'NONE', #291, #62 ) ;
#118 = AXIS2_PLACEMENT_3D ( 'NONE', #179, #151, #254 ) ;
#119 = CARTESIAN_POINT ( 'NONE',  ( 4.888073874380386697E-14, 1.237301820696026779E-32, 14.00000000000000000 ) ) ;
#120 = PLANE ( 'NONE',  #26 ) ;
#121 = DIRECTION ( 'NONE',  ( -2.382254525458709186E-15, -0.7071067811865493491, -0.7071067811865456854 ) ) ;
#122 = AXIS2_PLACEMENT_3D ( 'NONE', #18, #93, #199 ) ;
#123 = FACE_OUTER_BOUND ( 'NONE', #92, .T. ) ;
#124 = EDGE_CURVE ( 'NONE', #82, #270, #212, .T. ) ;
#125 = DIRECTION ( 'NONE',  ( 0.0000000000000000000, 1.000000000000000000, 0.0000000000000000000 ) ) ;
#126 = CIRCLE ( 'NONE', #150, 1.250000000000000222 ) ;
#127 = LOCAL_TIME ( 9, 50, 1.000000000000000000, #129 ) ;
#128 = CARTESIAN_POINT ( 'NONE',  ( 0.0000000000000000000, 0.0000000000000000000, 0.0000000000000000000 ) ) ;
#129 = COORDINATED_UNIVERSAL_TIME_OFFSET ( 1, 0, .AHEAD. ) ;
#130 = AXIS2_PLACEMENT_3D ( 'NONE', #279, #70, #52 ) ;
#131 = DATE_AND_TIME ( #163, #211 ) ;
#132 = ORIENTED_EDGE ( 'NONE', *, *, #32, .F. ) ;
#133 = ADVANCED_FACE ( 'NONE', ( #115 ), #336, .T. ) ;
#134 = EDGE_LOOP ( 'NONE', ( #203, #334, #42 ) ) ;
#135 = AXIS2_PLACEMENT_3D ( 'NONE', #264, #242, #11 ) ;
#136 = ORIENTED_EDGE ( 'NONE', *, *, #32, .T. ) ;
#137 = ADVANCED_FACE ( 'NONE', ( #89 ), #330, .T. ) ;
#138 = ORIENTED_EDGE ( 'NONE', *, *, #105, .T. ) ;
#139 = ADVANCED_FACE ( 'NONE', ( #171 ), #22, .T. ) ;
#140 = ORIENTED_EDGE ( 'NONE', *, *, #230, .F. ) ;
#141 = CARTESIAN_POINT ( 'NONE',  ( 4.888073874380386697E-14, -1.714505518806294638E-15, 14.00000000000000000 ) ) ;
#142 = CLOSED_SHELL ( 'NONE', ( #297, #260, #133, #50, #149 ) ) ;
#143 = AXIS2_PLACEMENT_3D ( 'NONE', #319, #247, #266 ) ;
#144 = VERTEX_POINT ( 'NONE', #331 ) ;
#145 = DIRECTION ( 'NONE',  ( -3.491481338843133355E-15, 1.224646799147353207E-16, -1.000000000000000000 ) ) ;
#146 = LINE ( 'NONE', #69, #16 ) ;
#147 = CARTESIAN_POINT ( 'NONE',  ( 1.094854326276492381E-13, -1.650000000000005906, 48.60000000000000142 ) ) ;
#148 = AXIS2_PLACEMENT_3D ( 'NONE', #128, #183, #58 ) ;
#149 = ADVANCED_FACE ( 'NONE', ( #303 ), #228, .T. ) ;
#150 = AXIS2_PLACEMENT_3D ( 'NONE', #76, #231, #125 ) ;
#151 = DIRECTION ( 'NONE',  ( -3.491481338843133355E-15, 1.224646799147353207E-16, -1.000000000000000000 ) ) ;
#152 = EDGE_CURVE ( 'NONE', #159, #57, #299, .T. ) ;
#153 = ORIENTED_EDGE ( 'NONE', *, *, #172, .T. ) ;
#154 = DIRECTION ( 'NONE',  ( 4.275831445896958607E-31, 1.000000000000000000, 1.224646799147353207E-16 ) ) ;
#155 = AXIS2_PLACEMENT_3D ( 'NONE', #74, #335, #328 ) ;
#156 = ADVANCED_FACE ( 'NONE', ( #225 ), #333, .F. ) ;
#157 = DATE_AND_TIME ( #237, #71 ) ;
#158 = VERTEX_POINT ( 'NONE', #232 ) ;
#159 = VERTEX_POINT ( 'NONE', #98 ) ;
#160 = APPROVAL_ROLE ( '' ) ;
#161 = ORIENTED_EDGE ( 'NONE', *, *, #162, .F. ) ;
#162 = EDGE_CURVE ( 'NONE', #159, #197, #173, .T. ) ;
#163 = CALENDAR_DATE ( 2021, 3, 9 ) ;
#164 = DIRECTION ( 'NONE',  ( 1.903218546456022717E-15, 0.8571673007021097801, 0.5150380749100585964 ) ) ;
#165 = CC_DESIGN_DATE_AND_TIME_ASSIGNMENT ( #157, #102, ( #224 ) ) ;
#166 = CARTESIAN_POINT ( 'NONE',  ( 1.696859930677762937E-13, -5.951783443856137509E-15, 48.60000000000000142 ) ) ;
#167 = CARTESIAN_POINT ( 'NONE',  ( 1.710825856033135470E-13, -6.000769315822030937E-15, 49.00000000000000000 ) ) ;
#168 = CIRCLE ( 'NONE', #143, 1.649999999999994360 ) ;
#169 = EDGE_LOOP ( 'NONE', ( #116, #136, #287, #208 ) ) ;
#170 = ORIENTED_EDGE ( 'NONE', *, *, #2, .F. ) ;
#171 = FACE_OUTER_BOUND ( 'NONE', #262, .T. ) ;
#172 = EDGE_CURVE ( 'NONE', #144, #64, #229, .T. ) ;
#173 = LINE ( 'NONE', #253, #41 ) ;
#174 = AXIS2_PLACEMENT_3D ( 'NONE', #119, #202, #48 ) ;
#175 = APPROVAL_PERSON_ORGANIZATION ( #79, #60, #160 ) ;
#176 = DIRECTION ( 'NONE',  ( -3.491481338843133355E-15, 1.224646799147353207E-16, -1.000000000000000000 ) ) ;
#177 = APPROVAL_DATE_TIME ( #308, #300 ) ;
#178 = DIRECTION ( 'NONE',  ( -2.468850131082258244E-15, 0.7071067811865495711, -0.7071067811865454633 ) ) ;
#179 = CARTESIAN_POINT ( 'NONE',  ( 4.888073874380386697E-14, -1.714505518806294638E-15, 14.00000000000000000 ) ) ;
#180 = PRODUCT_RELATED_PRODUCT_CATEGORY ( 'detail', '', ( #10 ) ) ;
#181 = AXIS2_PLACEMENT_3D ( 'NONE', #294, #87, #110 ) ;
#182 =( LENGTH_UNIT ( ) NAMED_UNIT ( * ) SI_UNIT ( .MILLI., .METRE. ) );
#183 = DIRECTION ( 'NONE',  ( 0.0000000000000000000, 0.0000000000000000000, 1.000000000000000000 ) ) ;
#184 = AXIS2_PLACEMENT_3D ( 'NONE', #295, #65, #220 ) ;
#185 = ORIENTED_EDGE ( 'NONE', *, *, #172, .F. ) ;
#186 = APPROVAL_DATE_TIME ( #240, #97 ) ;
#187 = EDGE_LOOP ( 'NONE', ( #29, #66, #170, #161 ) ) ;
#188 = COORDINATED_UNIVERSAL_TIME_OFFSET ( 1, 0, .AHEAD. ) ;
#189 = ORIENTED_EDGE ( 'NONE', *, *, #94, .T. ) ;
#190 = AXIS2_PLACEMENT_3D ( 'NONE', #167, #327, #73 ) ;
#191 = ORIENTED_EDGE ( 'NONE', *, *, #124, .F. ) ;
#192 = EDGE_LOOP ( 'NONE', ( #85, #189, #323 ) ) ;
#193 = CARTESIAN_POINT ( 'NONE',  ( 7.055121885729972330E-31, 1.649999999999997913, 2.020667218593130043E-16 ) ) ;
#194 = ORIENTED_EDGE ( 'NONE', *, *, #249, .F. ) ;
#195 = PRODUCT_DEFINITION_SHAPE ( 'NONE', 'NONE',  #224 ) ;
#196 = ORGANIZATION ( 'UNSPECIFIED', 'UNSPECIFIED', '' ) ;
#197 = VERTEX_POINT ( 'NONE', #272 ) ;
#198 = DIRECTION ( 'NONE',  ( 0.0000000000000000000, 1.000000000000000000, 0.0000000000000000000 ) ) ;
#199 = DIRECTION ( 'NONE',  ( 4.275831445896958607E-31, 1.000000000000000000, 1.224646799147353207E-16 ) ) ;
#200 = ORIENTED_EDGE ( 'NONE', *, *, #292, .F. ) ;
#201 = DIRECTION ( 'NONE',  ( 0.0000000000000000000, 1.000000000000000000, 0.0000000000000000000 ) ) ;
#202 = DIRECTION ( 'NONE',  ( 3.491481338843133355E-15, -1.224646799147353207E-16, 1.000000000000000000 ) ) ;
#203 = ORIENTED_EDGE ( 'NONE', *, *, #94, .F. ) ;
#204 = CARTESIAN_POINT ( 'NONE',  ( 3.461524503657784593E-15, -1.649999999999994582, 0.9914200213954817986 ) ) ;
#205 = COORDINATED_UNIVERSAL_TIME_OFFSET ( 1, 0, .AHEAD. ) ;
#206 = APPLICATION_PROTOCOL_DEFINITION ( 'international standard', 'config_control_design', 1994, #276 ) ;
#207 = EDGE_CURVE ( 'NONE', #64, #144, #126, .T. ) ;
#208 = ORIENTED_EDGE ( 'NONE', *, *, #78, .F. ) ;
#209 = CARTESIAN_POINT ( 'NONE',  ( 4.888073874380386697E-14, 1.649999999999994138, 14.00000000000000000 ) ) ;
#210 = CC_DESIGN_DATE_AND_TIME_ASSIGNMENT ( #131, #108, ( #236 ) ) ;
#211 = LOCAL_TIME ( 9, 50, 1.000000000000000000, #290 ) ;
#212 = CIRCLE ( 'NONE', #218, 1.649999999999999911 ) ;
#213 = CALENDAR_DATE ( 2021, 3, 9 ) ;
#214 = APPROVAL_ROLE ( '' ) ;
#215 = VERTEX_POINT ( 'NONE', #99 ) ;
#216 = CARTESIAN_POINT ( 'NONE',  ( 3.461524503657785382E-15, -1.214139355812577526E-16, 0.9914200213954820207 ) ) ;
#217 = LOCAL_TIME ( 9, 50, 1.000000000000000000, #188 ) ;
#218 = AXIS2_PLACEMENT_3D ( 'NONE', #166, #265, #38 ) ;
#219 = VERTEX_POINT ( 'NONE', #204 ) ;
#220 = DIRECTION ( 'NONE',  ( -4.668921077302406163E-31, -1.000000000000000000, -1.314184451497585696E-16 ) ) ;
#221 = CARTESIAN_POINT ( 'NONE',  ( 3.663591225517098929E-15, 1.649999999999994138, 0.9914200213954822427 ) ) ;
#222 = ADVANCED_FACE ( 'NONE', ( #274 ), #91, .T. ) ;
#223 = EDGE_LOOP ( 'NONE', ( #104, #194 ) ) ;
#224 = PRODUCT_DEFINITION ( 'UNKNOWN', '', #304, #278 ) ;
#225 = FACE_OUTER_BOUND ( 'NONE', #289, .T. ) ;
#226 = DIRECTION ( 'NONE',  ( -4.668921077302406163E-31, -1.000000000000000000, -1.314184451497585696E-16 ) ) ;
#227 = CC_DESIGN_SECURITY_CLASSIFICATION ( #236, ( #304 ) ) ;
#228 = PLANE ( 'NONE',  #174 ) ;
#229 = CIRCLE ( 'NONE', #273, 1.250000000000000222 ) ;
#230 = EDGE_CURVE ( 'NONE', #57, #219, #46, .T. ) ;
#231 = DIRECTION ( 'NONE',  ( -3.491481338843133355E-15, 1.224646799147353207E-16, -1.000000000000000000 ) ) ;
#232 = CARTESIAN_POINT ( 'NONE',  ( 0.0000000000000000000, 0.0000000000000000000, 0.0000000000000000000 ) ) ;
#233 = MANIFOLD_SOLID_BREP ( 'Corps-Déplacer/Copier1[1]', #314 ) ;
#234 = EDGE_CURVE ( 'NONE', #322, #215, #280, .T. ) ;
#235 = AXIS2_PLACEMENT_3D ( 'NONE', #141, #248, #201 ) ;
#236 = SECURITY_CLASSIFICATION ( '', '', #317 ) ;
#237 = CALENDAR_DATE ( 2021, 3, 9 ) ;
#238 = CC_DESIGN_PERSON_AND_ORGANIZATION_ASSIGNMENT ( #100, #35, ( #304 ) ) ;
#239 = EDGE_LOOP ( 'NONE', ( #8, #153, #259, #31 ) ) ;
#240 = DATE_AND_TIME ( #213, #127 ) ;
#241 = APPROVAL_ROLE ( '' ) ;
#242 = DIRECTION ( 'NONE',  ( -3.491481338843133355E-15, 1.224646799147353207E-16, -1.000000000000000000 ) ) ;
#243 = ADVANCED_FACE ( 'NONE', ( #123 ), #120, .F. ) ;
#244 = ORIENTED_EDGE ( 'NONE', *, *, #292, .T. ) ;
#245 = DIRECTION ( 'NONE',  ( 4.668921077302406163E-31, 1.000000000000000000, 1.314184451497585696E-16 ) ) ;
#246 = CARTESIAN_POINT ( 'NONE',  ( 1.710825856033135470E-13, 1.249999999999994227, 49.00000000000000000 ) ) ;
#247 = DIRECTION ( 'NONE',  ( -3.491481338843133355E-15, 1.224646799147353207E-16, -1.000000000000000000 ) ) ;
#248 = DIRECTION ( 'NONE',  ( -3.491481338843133355E-15, 1.224646799147353207E-16, -1.000000000000000000 ) ) ;
#249 = EDGE_CURVE ( 'NONE', #57, #159, #72, .T. ) ;
#250 = CARTESIAN_POINT ( 'NONE',  ( 4.888073874380386697E-14, -1.714505518806294638E-15, 14.00000000000000000 ) ) ;
#251 = EDGE_LOOP ( 'NONE', ( #140, #285, #109, #326 ) ) ;
#252 = CARTESIAN_POINT ( 'NONE',  ( 2.020667218593119936E-16, -1.649999999999995248, -2.020667218593133741E-16 ) ) ;
#253 = CARTESIAN_POINT ( 'NONE',  ( 7.055121885729961820E-31, 1.649999999999995248, 2.020667218593127085E-16 ) ) ;
#254 = DIRECTION ( 'NONE',  ( 0.0000000000000000000, 1.000000000000000000, 0.0000000000000000000 ) ) ;
#255 = EDGE_CURVE ( 'NONE', #64, #82, #146, .T. ) ;
#256 = AXIS2_PLACEMENT_3D ( 'NONE', #106, #261, #154 ) ;
#257 = COORDINATED_UNIVERSAL_TIME_OFFSET ( 1, 0, .AHEAD. ) ;
#258 = DIRECTION ( 'NONE',  ( -3.491481338843133355E-15, 1.224646799147353207E-16, -1.000000000000000000 ) ) ;
#259 = ORIENTED_EDGE ( 'NONE', *, *, #255, .T. ) ;
#260 = ADVANCED_FACE ( 'NONE', ( #44 ), #101, .T. ) ;
#261 = DIRECTION ( 'NONE',  ( -3.491481338843133355E-15, 1.224646799147353207E-16, -1.000000000000000000 ) ) ;
#262 = EDGE_LOOP ( 'NONE', ( #132, #138, #36, #200 ) ) ;
#263 = PERSON_AND_ORGANIZATION ( #112, #196 ) ;
#264 = CARTESIAN_POINT ( 'NONE',  ( 1.696859930677762937E-13, -5.951783443856137509E-15, 48.60000000000000142 ) ) ;
#265 = DIRECTION ( 'NONE',  ( -3.491481338843133355E-15, 1.224646799147353207E-16, -1.000000000000000000 ) ) ;
#266 = DIRECTION ( 'NONE',  ( 4.668921077302406163E-31, 1.000000000000000000, 1.314184451497585696E-16 ) ) ;
#267 = CC_DESIGN_APPROVAL ( #60, ( #304 ) ) ;
#268 = LINE ( 'NONE', #221, #86 ) ;
#269 = EDGE_CURVE ( 'NONE', #144, #270, #95, .T. ) ;
#270 = VERTEX_POINT ( 'NONE', #147 ) ;
#271 = CC_DESIGN_PERSON_AND_ORGANIZATION_ASSIGNMENT ( #61, #84, ( #236 ) ) ;
#272 = CARTESIAN_POINT ( 'NONE',  ( 3.663591225517098929E-15, 1.649999999999994138, 0.9914200213954822427 ) ) ;
#273 = AXIS2_PLACEMENT_3D ( 'NONE', #307, #176, #198 ) ;
#274 = FACE_OUTER_BOUND ( 'NONE', #325, .T. ) ;
#275 = DIRECTION ( 'NONE',  ( 0.0000000000000000000, 1.000000000000000000, 0.0000000000000000000 ) ) ;
#276 = APPLICATION_CONTEXT ( 'configuration controlled 3d designs of mechanical parts and assemblies' ) ;
#277 = CARTESIAN_POINT ( 'NONE',  ( 3.461524503657785382E-15, -1.214139355812577526E-16, 0.9914200213954820207 ) ) ;
#278 = DESIGN_CONTEXT ( 'detailed design', #296, 'design' ) ;
#279 = CARTESIAN_POINT ( 'NONE',  ( 4.888073874380386697E-14, 1.237301820696026779E-32, 14.00000000000000000 ) ) ;
#280 = CIRCLE ( 'NONE', #34, 1.649999999999995914 ) ;
#281 = ORIENTED_EDGE ( 'NONE', *, *, #207, .T. ) ;
#282 = PERSON_AND_ORGANIZATION_ROLE ( 'design_owner' ) ;
#283 = ADVANCED_BREP_SHAPE_REPRESENTATION ( '54549', ( #233, #4, #148 ), #5 ) ;
#284 = CARTESIAN_POINT ( 'NONE',  ( 4.888073874380386697E-14, -1.714505518806294638E-15, 14.00000000000000000 ) ) ;
#285 = ORIENTED_EDGE ( 'NONE', *, *, #249, .T. ) ;
#286 = DIRECTION ( 'NONE',  ( 4.275831445896958607E-31, 1.000000000000000000, 1.224646799147353207E-16 ) ) ;
#287 = ORIENTED_EDGE ( 'NONE', *, *, #234, .F. ) ;
#288 = PERSON_AND_ORGANIZATION ( #112, #196 ) ;
#289 = EDGE_LOOP ( 'NONE', ( #315, #244 ) ) ;
#290 = COORDINATED_UNIVERSAL_TIME_OFFSET ( 1, 0, .AHEAD. ) ;
#291 = CARTESIAN_POINT ( 'NONE',  ( 3.461524503657784593E-15, -1.649999999999994582, 0.9914200213954817986 ) ) ;
#292 = EDGE_CURVE ( 'NONE', #215, #322, #55, .T. ) ;
#293 = CIRCLE ( 'NONE', #135, 1.649999999999999911 ) ;
#294 = CARTESIAN_POINT ( 'NONE',  ( 0.0000000000000000000, 0.0000000000000000000, 0.0000000000000000000 ) ) ;
#295 = CARTESIAN_POINT ( 'NONE',  ( 3.461524503657785382E-15, -1.214139355812577526E-16, 0.9914200213954820207 ) ) ;
#296 = APPLICATION_CONTEXT ( 'configuration controlled 3d designs of mechanical parts and assemblies' ) ;
#297 = ADVANCED_FACE ( 'NONE', ( #313 ), #54, .T. ) ;
#298 = DIRECTION ( 'NONE',  ( -3.491481338843133355E-15, 1.224646799147353207E-16, -1.000000000000000000 ) ) ;
#299 = CIRCLE ( 'NONE', #235, 1.649999999999995914 ) ;
#300 = APPROVAL ( #9, 'UNSPECIFIED' ) ;
#301 = ORIENTED_EDGE ( 'NONE', *, *, #255, .F. ) ;
#302 = CARTESIAN_POINT ( 'NONE',  ( 1.710825856033135470E-13, 9.373498641636522468E-33, 49.00000000000000000 ) ) ;
#303 = FACE_OUTER_BOUND ( 'NONE', #223, .T. ) ;
#304 = PRODUCT_DEFINITION_FORMATION_WITH_SPECIFIED_SOURCE ( 'ANY', '', #10, .NOT_KNOWN. ) ;
#305 = AXIS2_PLACEMENT_3D ( 'NONE', #277, #20, #226 ) ;
#306 = DIRECTION ( 'NONE',  ( -3.491481338843133355E-15, 1.224646799147353207E-16, -1.000000000000000000 ) ) ;
#307 = CARTESIAN_POINT ( 'NONE',  ( 1.710825856033135470E-13, -6.000769315822030937E-15, 49.00000000000000000 ) ) ;
#308 = DATE_AND_TIME ( #47, #217 ) ;
#309 = DIRECTION ( 'NONE',  ( 4.275831445896958607E-31, 1.000000000000000000, 1.224646799147353207E-16 ) ) ;
#310 = SHAPE_DEFINITION_REPRESENTATION ( #195, #283 ) ;
#311 = DIRECTION ( 'NONE',  ( 0.0000000000000000000, 1.000000000000000000, 0.0000000000000000000 ) ) ;
#312 = MECHANICAL_CONTEXT ( 'NONE', #276, 'mechanical' ) ;
#313 = FACE_OUTER_BOUND ( 'NONE', #187, .T. ) ;
#314 = CLOSED_SHELL ( 'NONE', ( #222, #332, #156, #139, #137, #243 ) ) ;
#315 = ORIENTED_EDGE ( 'NONE', *, *, #234, .T. ) ;
#316 = FACE_OUTER_BOUND ( 'NONE', #169, .T. ) ;
#317 = SECURITY_CLASSIFICATION_LEVEL ( 'unclassified' ) ;
#318 = APPROVAL_PERSON_ORGANIZATION ( #6, #97, #241 ) ;
#319 = CARTESIAN_POINT ( 'NONE',  ( 3.461524503657785382E-15, -1.214139355812577526E-16, 0.9914200213954820207 ) ) ;
#320 = AXIS2_PLACEMENT_3D ( 'NONE', #216, #298, #245 ) ;
#321 = AXIS2_PLACEMENT_3D ( 'NONE', #284, #258, #311 ) ;
#322 = VERTEX_POINT ( 'NONE', #209 ) ;
#323 = ORIENTED_EDGE ( 'NONE', *, *, #2, .T. ) ;
#324 = FACE_OUTER_BOUND ( 'NONE', #251, .T. ) ;
#325 = EDGE_LOOP ( 'NONE', ( #281, #90, #191, #301 ) ) ;
#326 = ORIENTED_EDGE ( 'NONE', *, *, #37, .F. ) ;
#327 = DIRECTION ( 'NONE',  ( -3.491481338843133355E-15, 1.224646799147353207E-16, -1.000000000000000000 ) ) ;
#328 = DIRECTION ( 'NONE',  ( 0.0000000000000000000, 1.000000000000000000, 0.0000000000000000000 ) ) ;
#329 = CC_DESIGN_APPROVAL ( #300, ( #236 ) ) ;
#330 = CONICAL_SURFACE ( 'NONE', #190, 1.250000000000000222, 0.7853981633974510546 ) ;
#331 = CARTESIAN_POINT ( 'NONE',  ( 1.705618631214212750E-13, -1.250000000000006217, 49.00000000000000000 ) ) ;
#332 = ADVANCED_FACE ( 'NONE', ( #316 ), #28, .T. ) ;
#333 = PLANE ( 'NONE',  #130 ) ;
#334 = ORIENTED_EDGE ( 'NONE', *, *, #17, .T. ) ;
#335 = DIRECTION ( 'NONE',  ( -3.491481338843133355E-15, 1.224646799147353207E-16, -1.000000000000000000 ) ) ;
#336 = CONICAL_SURFACE ( 'NONE', #184, 1.649999999999994360, 1.029744258676649649 ) ;
#337 = PERSON_AND_ORGANIZATION_ROLE ( 'creator' ) ;
ENDSEC;
END-ISO-10303-21;
