ISO-10303-21;
HEADER;
FILE_DESCRIPTION (( 'STEP AP203' ),
    '1' );
FILE_NAME ('54547.step',
    '2021-09-03T07:49:54',
    ( '' ),
    ( '' ),
    'SwSTEP 2.0',
    'SolidWorks 2019',
    '' );
FILE_SCHEMA (( 'CONFIG_CONTROL_DESIGN' ));
ENDSEC;

DATA;
#1 = CARTESIAN_POINT ( 'NONE',  ( 3.552573309592337052E-15, 1.599999999999994316, 0.9613769904441038516 ) ) ;
#2 = VERTEX_POINT ( 'NONE', #247 ) ;
#3 = LINE ( 'NONE', #177, #91 ) ;
#4 = CIRCLE ( 'NONE', #226, 1.200000000000000400 ) ;
#5 = DIRECTION ( 'NONE',  ( -3.491481338843133355E-15, 1.224646799147353207E-16, -1.000000000000000000 ) ) ;
#6 = PERSON_AND_ORGANIZATION ( #95, #249 ) ;
#7 = DATE_AND_TIME ( #262, #80 ) ;
#8 = AXIS2_PLACEMENT_3D ( 'NONE', #89, #244, #322 ) ;
#9 = EDGE_CURVE ( 'NONE', #13, #319, #140, .T. ) ;
#10 = PRODUCT ( '54547', '54547', '', ( #84 ) ) ;
#11 = ORIENTED_EDGE ( 'NONE', *, *, #331, .F. ) ;
#12 = CARTESIAN_POINT ( 'NONE',  ( 1.696859930677762937E-13, -5.951783443856137509E-15, 48.60000000000000142 ) ) ;
#13 = VERTEX_POINT ( 'NONE', #327 ) ;
#14 = EDGE_LOOP ( 'NONE', ( #59, #280, #118, #87 ) ) ;
#15 = VERTEX_POINT ( 'NONE', #94 ) ;
#16 = AXIS2_PLACEMENT_3D ( 'NONE', #210, #126, #106 ) ;
#17 = CARTESIAN_POINT ( 'NONE',  ( 4.888073874380386697E-14, -1.714505518806294638E-15, 14.00000000000000000 ) ) ;
#18 = CARTESIAN_POINT ( 'NONE',  ( 1.710825856033135470E-13, -6.000769315822030937E-15, 49.00000000000000000 ) ) ;
#19 = CARTESIAN_POINT ( 'NONE',  ( 1.710825856033135470E-13, -6.000769315822030937E-15, 49.00000000000000000 ) ) ;
#20 = CARTESIAN_POINT ( 'NONE',  ( 1.959434878635752411E-16, -1.599999999999994982, -1.959434878635765723E-16 ) ) ;
#21 = CIRCLE ( 'NONE', #66, 1.600000000000000089 ) ;
#22 = DIRECTION ( 'NONE',  ( -3.491481338843133355E-15, 1.224646799147353207E-16, -1.000000000000000000 ) ) ;
#23 = EDGE_CURVE ( 'NONE', #186, #68, #199, .T. ) ;
#24 = ADVANCED_FACE ( 'NONE', ( #308 ), #200, .T. ) ;
#25 = CARTESIAN_POINT ( 'NONE',  ( 1.696859930677762937E-13, -5.951783443856137509E-15, 48.60000000000000142 ) ) ;
#26 = EDGE_CURVE ( 'NONE', #265, #186, #21, .T. ) ;
#27 = ORIENTED_EDGE ( 'NONE', *, *, #270, .T. ) ;
#28 = CIRCLE ( 'NONE', #49, 1.600000000000000089 ) ;
#29 = APPROVAL_STATUS ( 'not_yet_approved' ) ;
#30 = PERSON_AND_ORGANIZATION ( #95, #249 ) ;
#31 = EDGE_LOOP ( 'NONE', ( #198, #107, #278, #130 ) ) ;
#32 = CARTESIAN_POINT ( 'NONE',  ( 3.356629821728760973E-15, -1.177347254121286992E-16, 0.9613769904441036296 ) ) ;
#33 = CIRCLE ( 'NONE', #207, 1.599999999999995870 ) ;
#34 = PERSON_AND_ORGANIZATION ( #95, #249 ) ;
#35 =( GEOMETRIC_REPRESENTATION_CONTEXT ( 3 ) GLOBAL_UNCERTAINTY_ASSIGNED_CONTEXT ( ( #321 ) ) GLOBAL_UNIT_ASSIGNED_CONTEXT ( ( #268, #114, #164 ) ) REPRESENTATION_CONTEXT ( 'NONE', 'WORKASPACE' ) );
#36 = SECURITY_CLASSIFICATION_LEVEL ( 'unclassified' ) ;
#37 = ORIENTED_EDGE ( 'NONE', *, *, #9, .F. ) ;
#38 = APPROVAL ( #165, 'UNSPECIFIED' ) ;
#39 = LINE ( 'NONE', #222, #147 ) ;
#40 = VERTEX_POINT ( 'NONE', #42 ) ;
#41 = CC_DESIGN_DATE_AND_TIME_ASSIGNMENT ( #187, #238, ( #330 ) ) ;
#42 = CARTESIAN_POINT ( 'NONE',  ( 0.0000000000000000000, 0.0000000000000000000, 0.0000000000000000000 ) ) ;
#43 = CARTESIAN_POINT ( 'NONE',  ( 1.094793093936536036E-13, -1.599999999999997646, 14.00000000000000000 ) ) ;
#44 = DIRECTION ( 'NONE',  ( 0.0000000000000000000, 1.000000000000000000, 0.0000000000000000000 ) ) ;
#45 = AXIS2_PLACEMENT_3D ( 'NONE', #51, #212, #312 ) ;
#46 = DIRECTION ( 'NONE',  ( -3.491481338843133355E-15, 1.224646799147353207E-16, -1.000000000000000000 ) ) ;
#47 = DIRECTION ( 'NONE',  ( 4.275831445896958607E-31, 1.000000000000000000, 1.224646799147353207E-16 ) ) ;
#48 = DIRECTION ( 'NONE',  ( -3.491481338843133355E-15, 1.224646799147353207E-16, -1.000000000000000000 ) ) ;
#49 = AXIS2_PLACEMENT_3D ( 'NONE', #25, #5, #62 ) ;
#50 = EDGE_CURVE ( 'NONE', #68, #15, #260, .T. ) ;
#51 = CARTESIAN_POINT ( 'NONE',  ( 3.356629821728760973E-15, -1.177347254121286992E-16, 0.9613769904441036296 ) ) ;
#52 = PRODUCT_RELATED_PRODUCT_CATEGORY ( 'detail', '', ( #10 ) ) ;
#53 = APPLICATION_PROTOCOL_DEFINITION ( 'international standard', 'config_control_design', 1994, #241 ) ;
#54 = ORIENTED_EDGE ( 'NONE', *, *, #23, .T. ) ;
#55 = CONICAL_SURFACE ( 'NONE', #45, 1.599999999999994538, 1.029744258676649649 ) ;
#56 = COORDINATED_UNIVERSAL_TIME_OFFSET ( 1, 0, .AHEAD. ) ;
#57 = FACE_OUTER_BOUND ( 'NONE', #31, .T. ) ;
#58 = AXIS2_PLACEMENT_3D ( 'NONE', #67, #223, #203 ) ;
#59 = ORIENTED_EDGE ( 'NONE', *, *, #275, .F. ) ;
#60 = CARTESIAN_POINT ( 'NONE',  ( 0.0000000000000000000, 0.0000000000000000000, 0.0000000000000000000 ) ) ;
#61 = EDGE_CURVE ( 'NONE', #2, #265, #306, .T. ) ;
#62 = DIRECTION ( 'NONE',  ( 0.0000000000000000000, 1.000000000000000000, 0.0000000000000000000 ) ) ;
#63 = CONICAL_SURFACE ( 'NONE', #109, 1.200000000000000400, 0.7853981633974510546 ) ;
#64 = PERSON_AND_ORGANIZATION ( #95, #249 ) ;
#65 = CC_DESIGN_APPROVAL ( #38, ( #259 ) ) ;
#66 = AXIS2_PLACEMENT_3D ( 'NONE', #12, #69, #122 ) ;
#67 = CARTESIAN_POINT ( 'NONE',  ( 3.356629821728760973E-15, -1.177347254121286992E-16, 0.9613769904441036296 ) ) ;
#68 = VERTEX_POINT ( 'NONE', #43 ) ;
#69 = DIRECTION ( 'NONE',  ( -3.491481338843133355E-15, 1.224646799147353207E-16, -1.000000000000000000 ) ) ;
#70 = AXIS2_PLACEMENT_3D ( 'NONE', #252, #169, #303 ) ;
#71 = CARTESIAN_POINT ( 'NONE',  ( 1.710825856033135470E-13, 1.199999999999994182, 49.00000000000000000 ) ) ;
#72 = DIRECTION ( 'NONE',  ( -3.491481338843133355E-15, 1.224646799147353207E-16, -1.000000000000000000 ) ) ;
#73 = DIRECTION ( 'NONE',  ( -3.491481338843133355E-15, 1.224646799147353207E-16, -1.000000000000000000 ) ) ;
#74 = AXIS2_PLACEMENT_3D ( 'NONE', #60, #112, #317 ) ;
#75 = PLANE ( 'NONE',  #304 ) ;
#76 = EDGE_CURVE ( 'NONE', #277, #2, #153, .T. ) ;
#77 = DIRECTION ( 'NONE',  ( 4.275831445896958607E-31, 1.000000000000000000, 1.224646799147353454E-16 ) ) ;
#78 = EDGE_CURVE ( 'NONE', #215, #13, #39, .T. ) ;
#79 = CYLINDRICAL_SURFACE ( 'NONE', #281, 1.599999999999994982 ) ;
#80 = LOCAL_TIME ( 9, 49, 54.00000000000000000, #243 ) ;
#81 = EDGE_CURVE ( 'NONE', #319, #13, #181, .T. ) ;
#82 = DIRECTION ( 'NONE',  ( -4.275831445896958607E-31, -1.000000000000000000, -1.224646799147353207E-16 ) ) ;
#83 = ORIENTED_EDGE ( 'NONE', *, *, #61, .T. ) ;
#84 = MECHANICAL_CONTEXT ( 'NONE', #241, 'mechanical' ) ;
#85 = ORIENTED_EDGE ( 'NONE', *, *, #202, .F. ) ;
#86 = DATE_AND_TIME ( #323, #253 ) ;
#87 = ORIENTED_EDGE ( 'NONE', *, *, #81, .F. ) ;
#88 = FACE_OUTER_BOUND ( 'NONE', #192, .T. ) ;
#89 = CARTESIAN_POINT ( 'NONE',  ( 1.710825856033135470E-13, -6.000769315822030937E-15, 49.00000000000000000 ) ) ;
#90 = ADVANCED_FACE ( 'NONE', ( #120 ), #314, .T. ) ;
#91 = VECTOR ( 'NONE', #48, 1000.000000000000000 ) ;
#92 = ORIENTED_EDGE ( 'NONE', *, *, #50, .F. ) ;
#93 = ORIENTED_EDGE ( 'NONE', *, *, #214, .T. ) ;
#94 = CARTESIAN_POINT ( 'NONE',  ( 4.888073874380386697E-14, 1.599999999999994316, 14.00000000000000000 ) ) ;
#95 = PERSON ( 'UNSPECIFIED', 'UNSPECIFIED', 'UNSPECIFIED', ('UNSPECIFIED'), ('UNSPECIFIED'), ('UNSPECIFIED') ) ;
#96 = AXIS2_PLACEMENT_3D ( 'NONE', #32, #267, #191 ) ;
#97 = DIRECTION ( 'NONE',  ( -3.491481338843133355E-15, 1.224646799147353207E-16, -1.000000000000000000 ) ) ;
#98 = DIRECTION ( 'NONE',  ( 0.0000000000000000000, 1.000000000000000000, 0.0000000000000000000 ) ) ;
#99 = CC_DESIGN_DATE_AND_TIME_ASSIGNMENT ( #7, #292, ( #259 ) ) ;
#100 = CARTESIAN_POINT ( 'NONE',  ( 0.0000000000000000000, 0.0000000000000000000, 0.0000000000000000000 ) ) ;
#101 = FACE_OUTER_BOUND ( 'NONE', #124, .T. ) ;
#102 = CONICAL_SURFACE ( 'NONE', #8, 1.200000000000000400, 0.7853981633974510546 ) ;
#103 = VECTOR ( 'NONE', #328, 1000.000000000000000 ) ;
#104 = CARTESIAN_POINT ( 'NONE',  ( 4.888073874380386697E-14, -1.714505518806294638E-15, 14.00000000000000000 ) ) ;
#105 = ADVANCED_FACE ( 'NONE', ( #261 ), #229, .F. ) ;
#106 = DIRECTION ( 'NONE',  ( 4.275831445896958607E-31, 1.000000000000000000, 1.224646799147353454E-16 ) ) ;
#107 = ORIENTED_EDGE ( 'NONE', *, *, #318, .T. ) ;
#108 = CARTESIAN_POINT ( 'NONE',  ( 4.888073874380386697E-14, -1.714505518806294638E-15, 14.00000000000000000 ) ) ;
#109 = AXIS2_PLACEMENT_3D ( 'NONE', #18, #22, #179 ) ;
#110 = ORIENTED_EDGE ( 'NONE', *, *, #26, .T. ) ;
#111 = LINE ( 'NONE', #240, #316 ) ;
#112 = DIRECTION ( 'NONE',  ( 0.0000000000000000000, 0.0000000000000000000, 1.000000000000000000 ) ) ;
#113 = APPROVAL_PERSON_ORGANIZATION ( #162, #320, #158 ) ;
#114 =( NAMED_UNIT ( * ) PLANE_ANGLE_UNIT ( ) SI_UNIT ( $, .RADIAN. ) );
#115 = EDGE_CURVE ( 'NONE', #40, #13, #155, .T. ) ;
#116 = EDGE_CURVE ( 'NONE', #2, #277, #4, .T. ) ;
#117 = CALENDAR_DATE ( 2021, 3, 9 ) ;
#118 = ORIENTED_EDGE ( 'NONE', *, *, #78, .T. ) ;
#119 = AXIS2_PLACEMENT_3D ( 'NONE', #248, #72, #141 ) ;
#120 = FACE_OUTER_BOUND ( 'NONE', #136, .T. ) ;
#121 = ORIENTED_EDGE ( 'NONE', *, *, #76, .T. ) ;
#122 = DIRECTION ( 'NONE',  ( 0.0000000000000000000, 1.000000000000000000, 0.0000000000000000000 ) ) ;
#123 = CC_DESIGN_SECURITY_CLASSIFICATION ( #330, ( #285 ) ) ;
#124 = EDGE_LOOP ( 'NONE', ( #171, #174, #301 ) ) ;
#125 = CC_DESIGN_PERSON_AND_ORGANIZATION_ASSIGNMENT ( #220, #132, ( #259 ) ) ;
#126 = DIRECTION ( 'NONE',  ( -3.491481338843133355E-15, 1.224646799147353207E-16, -1.000000000000000000 ) ) ;
#127 = DIRECTION ( 'NONE',  ( -3.491481338843133355E-15, 1.224646799147353207E-16, -1.000000000000000000 ) ) ;
#128 = FACE_OUTER_BOUND ( 'NONE', #242, .T. ) ;
#129 = DIRECTION ( 'NONE',  ( -3.491481338843133355E-15, 1.224646799147353207E-16, -1.000000000000000000 ) ) ;
#130 = ORIENTED_EDGE ( 'NONE', *, *, #61, .F. ) ;
#131 = CYLINDRICAL_SURFACE ( 'NONE', #16, 1.599999999999994982 ) ;
#132 = PERSON_AND_ORGANIZATION_ROLE ( 'creator' ) ;
#133 = CIRCLE ( 'NONE', #143, 1.599999999999995870 ) ;
#134 = CC_DESIGN_PERSON_AND_ORGANIZATION_ASSIGNMENT ( #6, #291, ( #330 ) ) ;
#135 = DIRECTION ( 'NONE',  ( 3.491481338843133355E-15, -1.224646799147353207E-16, 1.000000000000000000 ) ) ;
#136 = EDGE_LOOP ( 'NONE', ( #221, #205, #27, #92 ) ) ;
#137 = CARTESIAN_POINT ( 'NONE',  ( 2.631462777062986619E-14, -1.599999999999997646, 14.00000000000000000 ) ) ;
#138 = PERSON_AND_ORGANIZATION_ROLE ( 'design_owner' ) ;
#139 = AXIS2_PLACEMENT_3D ( 'NONE', #146, #276, #98 ) ;
#140 = CIRCLE ( 'NONE', #58, 1.599999999999994538 ) ;
#141 = DIRECTION ( 'NONE',  ( 4.814824860968106273E-31, 1.000000000000000000, 1.355252715606885226E-16 ) ) ;
#142 = DIRECTION ( 'NONE',  ( -3.491481338843133355E-15, 1.224646799147353207E-16, -1.000000000000000000 ) ) ;
#143 = AXIS2_PLACEMENT_3D ( 'NONE', #108, #254, #182 ) ;
#144 = ORIENTED_EDGE ( 'NONE', *, *, #270, .F. ) ;
#145 = ORIENTED_EDGE ( 'NONE', *, *, #318, .F. ) ;
#146 = CARTESIAN_POINT ( 'NONE',  ( 1.710825856033135470E-13, -6.000769315822030937E-15, 49.00000000000000000 ) ) ;
#147 = VECTOR ( 'NONE', #142, 1000.000000000000000 ) ;
#148 = FACE_OUTER_BOUND ( 'NONE', #232, .T. ) ;
#149 = ADVANCED_FACE ( 'NONE', ( #148 ), #151, .F. ) ;
#150 = DIRECTION ( 'NONE',  ( 1.903218546456022717E-15, 0.8571673007021097801, 0.5150380749100585964 ) ) ;
#151 = PLANE ( 'NONE',  #160 ) ;
#152 = CARTESIAN_POINT ( 'NONE',  ( 0.0000000000000000000, 0.0000000000000000000, 0.0000000000000000000 ) ) ;
#153 = CIRCLE ( 'NONE', #139, 1.200000000000000400 ) ;
#154 = DATE_AND_TIME ( #294, #329 ) ;
#155 = LINE ( 'NONE', #1, #176 ) ;
#156 = ORIENTED_EDGE ( 'NONE', *, *, #214, .F. ) ;
#157 = DATE_AND_TIME ( #117, #213 ) ;
#158 = APPROVAL_ROLE ( '' ) ;
#159 = APPROVAL_ROLE ( '' ) ;
#160 = AXIS2_PLACEMENT_3D ( 'NONE', #336, #282, #82 ) ;
#161 = ORIENTED_EDGE ( 'NONE', *, *, #9, .T. ) ;
#162 = PERSON_AND_ORGANIZATION ( #95, #249 ) ;
#163 = ADVANCED_FACE ( 'NONE', ( #233 ), #131, .T. ) ;
#164 =( NAMED_UNIT ( * ) SI_UNIT ( $, .STERADIAN. ) SOLID_ANGLE_UNIT ( ) );
#165 = APPROVAL_STATUS ( 'not_yet_approved' ) ;
#166 = VECTOR ( 'NONE', #206, 1000.000000000000000 ) ;
#167 = PERSON_AND_ORGANIZATION_ROLE ( 'creator' ) ;
#168 = ORIENTED_EDGE ( 'NONE', *, *, #116, .F. ) ;
#169 = DIRECTION ( 'NONE',  ( -3.491481338843133355E-15, 1.224646799147353207E-16, -1.000000000000000000 ) ) ;
#170 = ADVANCED_FACE ( 'NONE', ( #256 ), #79, .T. ) ;
#171 = ORIENTED_EDGE ( 'NONE', *, *, #115, .F. ) ;
#172 = EDGE_LOOP ( 'NONE', ( #110, #54, #85, #144 ) ) ;
#173 = CLOSED_SHELL ( 'NONE', ( #163, #307, #286, #170, #295 ) ) ;
#174 = ORIENTED_EDGE ( 'NONE', *, *, #204, .T. ) ;
#175 = ORIENTED_EDGE ( 'NONE', *, *, #78, .F. ) ;
#176 = VECTOR ( 'NONE', #150, 999.9999999999998863 ) ;
#177 = CARTESIAN_POINT ( 'NONE',  ( 6.841330313435125188E-31, 1.599999999999998090, 1.959434878635762765E-16 ) ) ;
#178 = CARTESIAN_POINT ( 'NONE',  ( 4.888073874380386697E-14, 1.199807826129480476E-32, 14.00000000000000000 ) ) ;
#179 = DIRECTION ( 'NONE',  ( 0.0000000000000000000, 1.000000000000000000, 0.0000000000000000000 ) ) ;
#180 = SHAPE_DEFINITION_REPRESENTATION ( #300, #266 ) ;
#181 = CIRCLE ( 'NONE', #119, 1.599999999999994538 ) ;
#182 = DIRECTION ( 'NONE',  ( 0.0000000000000000000, 1.000000000000000000, 0.0000000000000000000 ) ) ;
#183 = LOCAL_TIME ( 9, 49, 54.00000000000000000, #190 ) ;
#184 = DIRECTION ( 'NONE',  ( 0.0000000000000000000, 1.000000000000000000, 0.0000000000000000000 ) ) ;
#185 = APPROVAL ( #289, 'UNSPECIFIED' ) ;
#186 = VERTEX_POINT ( 'NONE', #228 ) ;
#187 = DATE_AND_TIME ( #193, #183 ) ;
#188 = APPROVAL_ROLE ( '' ) ;
#189 = ORIENTED_EDGE ( 'NONE', *, *, #234, .F. ) ;
#190 = COORDINATED_UNIVERSAL_TIME_OFFSET ( 1, 0, .AHEAD. ) ;
#191 = DIRECTION ( 'NONE',  ( -4.814824860968106273E-31, -1.000000000000000000, -1.355252715606885226E-16 ) ) ;
#192 = EDGE_LOOP ( 'NONE', ( #250, #274, #161 ) ) ;
#193 = CALENDAR_DATE ( 2021, 3, 9 ) ;
#194 = DESIGN_CONTEXT ( 'detailed design', #269, 'design' ) ;
#195 = DIRECTION ( 'NONE',  ( -2.382254525458709186E-15, -0.7071067811865493491, -0.7071067811865456854 ) ) ;
#196 = APPROVAL_DATE_TIME ( #86, #185 ) ;
#197 = VECTOR ( 'NONE', #127, 1000.000000000000000 ) ;
#198 = ORIENTED_EDGE ( 'NONE', *, *, #116, .T. ) ;
#199 = LINE ( 'NONE', #279, #103 ) ;
#200 = CYLINDRICAL_SURFACE ( 'NONE', #70, 1.599999999999998090 ) ;
#201 = APPROVAL_PERSON_ORGANIZATION ( #30, #38, #188 ) ;
#202 = EDGE_CURVE ( 'NONE', #15, #68, #133, .T. ) ;
#203 = DIRECTION ( 'NONE',  ( 4.814824860968106273E-31, 1.000000000000000000, 1.355252715606885226E-16 ) ) ;
#204 = EDGE_CURVE ( 'NONE', #40, #319, #257, .T. ) ;
#205 = ORIENTED_EDGE ( 'NONE', *, *, #331, .T. ) ;
#206 = DIRECTION ( 'NONE',  ( 1.798245827342160317E-15, -0.8571673007021098911, 0.5150380749100582634 ) ) ;
#207 = AXIS2_PLACEMENT_3D ( 'NONE', #104, #46, #44 ) ;
#208 = CLOSED_SHELL ( 'NONE', ( #309, #24, #149, #90, #211, #105 ) ) ;
#209 = DIRECTION ( 'NONE',  ( -3.491481338843133355E-15, 1.224646799147353207E-16, -1.000000000000000000 ) ) ;
#210 = CARTESIAN_POINT ( 'NONE',  ( 0.0000000000000000000, 0.0000000000000000000, 0.0000000000000000000 ) ) ;
#211 = ADVANCED_FACE ( 'NONE', ( #128 ), #63, .T. ) ;
#212 = DIRECTION ( 'NONE',  ( 3.491481338843133355E-15, -1.224646799147353207E-16, 1.000000000000000000 ) ) ;
#213 = LOCAL_TIME ( 9, 49, 54.00000000000000000, #245 ) ;
#214 = EDGE_CURVE ( 'NONE', #215, #337, #272, .T. ) ;
#215 = VERTEX_POINT ( 'NONE', #287 ) ;
#216 = APPROVAL_DATE_TIME ( #157, #38 ) ;
#217 = APPROVAL_DATE_TIME ( #154, #320 ) ;
#218 = PERSON_AND_ORGANIZATION ( #95, #249 ) ;
#219 = APPLICATION_PROTOCOL_DEFINITION ( 'international standard', 'config_control_design', 1994, #269 ) ;
#220 = PERSON_AND_ORGANIZATION ( #95, #249 ) ;
#221 = ORIENTED_EDGE ( 'NONE', *, *, #23, .F. ) ;
#222 = CARTESIAN_POINT ( 'NONE',  ( 6.841330313435112926E-31, 1.599999999999994982, 1.959434878635759314E-16 ) ) ;
#223 = DIRECTION ( 'NONE',  ( -3.491481338843133355E-15, 1.224646799147353207E-16, -1.000000000000000000 ) ) ;
#224 = CARTESIAN_POINT ( 'NONE',  ( 4.888073874380386697E-14, -1.714505518806294638E-15, 14.00000000000000000 ) ) ;
#225 = CONICAL_SURFACE ( 'NONE', #96, 1.599999999999994538, 1.029744258676649649 ) ;
#226 = AXIS2_PLACEMENT_3D ( 'NONE', #19, #209, #283 ) ;
#227 = DIRECTION ( 'NONE',  ( 0.0000000000000000000, 1.000000000000000000, 0.0000000000000000000 ) ) ;
#228 = CARTESIAN_POINT ( 'NONE',  ( 1.094793093936535026E-13, -1.600000000000005862, 48.60000000000000142 ) ) ;
#229 = PLANE ( 'NONE',  #311 ) ;
#230 = DIRECTION ( 'NONE',  ( 4.275831445896958607E-31, 1.000000000000000000, 1.224646799147353207E-16 ) ) ;
#231 = AXIS2_PLACEMENT_3D ( 'NONE', #224, #97, #227 ) ;
#232 = EDGE_LOOP ( 'NONE', ( #302, #237 ) ) ;
#233 = FACE_OUTER_BOUND ( 'NONE', #235, .T. ) ;
#234 = EDGE_CURVE ( 'NONE', #337, #215, #33, .T. ) ;
#235 = EDGE_LOOP ( 'NONE', ( #93, #251, #37, #175 ) ) ;
#236 = CARTESIAN_POINT ( 'NONE',  ( 3.356629821728760184E-15, -1.599999999999994760, 0.9613769904441034075 ) ) ;
#237 = ORIENTED_EDGE ( 'NONE', *, *, #50, .T. ) ;
#238 = DATE_TIME_ROLE ( 'classification_date' ) ;
#239 = DIRECTION ( 'NONE',  ( -4.275831445896958607E-31, -1.000000000000000000, -1.224646799147353207E-16 ) ) ;
#240 = CARTESIAN_POINT ( 'NONE',  ( 1.712295432192112242E-13, -1.200000000000006395, 49.00000000000000000 ) ) ;
#241 = APPLICATION_CONTEXT ( 'configuration controlled 3d designs of mechanical parts and assemblies' ) ;
#242 = EDGE_LOOP ( 'NONE', ( #145, #121, #83, #11 ) ) ;
#243 = COORDINATED_UNIVERSAL_TIME_OFFSET ( 1, 0, .AHEAD. ) ;
#244 = DIRECTION ( 'NONE',  ( -3.491481338843133355E-15, 1.224646799147353207E-16, -1.000000000000000000 ) ) ;
#245 = COORDINATED_UNIVERSAL_TIME_OFFSET ( 1, 0, .AHEAD. ) ;
#246 = CC_DESIGN_PERSON_AND_ORGANIZATION_ASSIGNMENT ( #34, #138, ( #10 ) ) ;
#247 = CARTESIAN_POINT ( 'NONE',  ( 1.710825856033135470E-13, 1.199999999999994182, 49.00000000000000000 ) ) ;
#248 = CARTESIAN_POINT ( 'NONE',  ( 3.356629821728760973E-15, -1.177347254121286992E-16, 0.9613769904441036296 ) ) ;
#249 = ORGANIZATION ( 'UNSPECIFIED', 'UNSPECIFIED', '' ) ;
#250 = ORIENTED_EDGE ( 'NONE', *, *, #204, .F. ) ;
#251 = ORIENTED_EDGE ( 'NONE', *, *, #275, .T. ) ;
#252 = CARTESIAN_POINT ( 'NONE',  ( 0.0000000000000000000, 0.0000000000000000000, 0.0000000000000000000 ) ) ;
#253 = LOCAL_TIME ( 9, 49, 54.00000000000000000, #264 ) ;
#254 = DIRECTION ( 'NONE',  ( -3.491481338843133355E-15, 1.224646799147353207E-16, -1.000000000000000000 ) ) ;
#255 = CC_DESIGN_PERSON_AND_ORGANIZATION_ASSIGNMENT ( #64, #167, ( #285 ) ) ;
#256 = FACE_OUTER_BOUND ( 'NONE', #14, .T. ) ;
#257 = LINE ( 'NONE', #236, #166 ) ;
#258 = LINE ( 'NONE', #20, #197 ) ;
#259 = PRODUCT_DEFINITION ( 'UNKNOWN', '', #285, #194 ) ;
#260 = CIRCLE ( 'NONE', #231, 1.599999999999995870 ) ;
#261 = FACE_OUTER_BOUND ( 'NONE', #325, .T. ) ;
#262 = CALENDAR_DATE ( 2021, 3, 9 ) ;
#263 = AXIS2_PLACEMENT_3D ( 'NONE', #152, #313, #47 ) ;
#264 = COORDINATED_UNIVERSAL_TIME_OFFSET ( 1, 0, .AHEAD. ) ;
#265 = VERTEX_POINT ( 'NONE', #284 ) ;
#266 = ADVANCED_BREP_SHAPE_REPRESENTATION ( '54547', ( #326, #332, #74 ), #35 ) ;
#267 = DIRECTION ( 'NONE',  ( 3.491481338843133355E-15, -1.224646799147353207E-16, 1.000000000000000000 ) ) ;
#268 =( LENGTH_UNIT ( ) NAMED_UNIT ( * ) SI_UNIT ( .MILLI., .METRE. ) );
#269 = APPLICATION_CONTEXT ( 'configuration controlled 3d designs of mechanical parts and assemblies' ) ;
#270 = EDGE_CURVE ( 'NONE', #265, #15, #3, .T. ) ;
#271 = CC_DESIGN_APPROVAL ( #320, ( #330 ) ) ;
#272 = CIRCLE ( 'NONE', #299, 1.599999999999995870 ) ;
#273 = PERSON_AND_ORGANIZATION_ROLE ( 'design_supplier' ) ;
#274 = ORIENTED_EDGE ( 'NONE', *, *, #115, .T. ) ;
#275 = EDGE_CURVE ( 'NONE', #337, #319, #258, .T. ) ;
#276 = DIRECTION ( 'NONE',  ( -3.491481338843133355E-15, 1.224646799147353207E-16, -1.000000000000000000 ) ) ;
#277 = VERTEX_POINT ( 'NONE', #335 ) ;
#278 = ORIENTED_EDGE ( 'NONE', *, *, #26, .F. ) ;
#279 = CARTESIAN_POINT ( 'NONE',  ( 1.959434878635756109E-16, -1.599999999999998090, -1.959434878635769667E-16 ) ) ;
#280 = ORIENTED_EDGE ( 'NONE', *, *, #234, .T. ) ;
#281 = AXIS2_PLACEMENT_3D ( 'NONE', #100, #129, #77 ) ;
#282 = DIRECTION ( 'NONE',  ( 3.491481338843133355E-15, -1.224646799147353207E-16, 1.000000000000000000 ) ) ;
#283 = DIRECTION ( 'NONE',  ( 0.0000000000000000000, 1.000000000000000000, 0.0000000000000000000 ) ) ;
#284 = CARTESIAN_POINT ( 'NONE',  ( 1.696859930677762937E-13, 1.599999999999994316, 48.60000000000000142 ) ) ;
#285 = PRODUCT_DEFINITION_FORMATION_WITH_SPECIFIED_SOURCE ( 'ANY', '', #10, .NOT_KNOWN. ) ;
#286 = ADVANCED_FACE ( 'NONE', ( #101 ), #55, .T. ) ;
#287 = CARTESIAN_POINT ( 'NONE',  ( 4.888073874380386697E-14, 1.599999999999994316, 14.00000000000000000 ) ) ;
#288 = APPROVAL_PERSON_ORGANIZATION ( #218, #185, #159 ) ;
#289 = APPROVAL_STATUS ( 'not_yet_approved' ) ;
#290 = EDGE_LOOP ( 'NONE', ( #156, #189 ) ) ;
#291 = PERSON_AND_ORGANIZATION_ROLE ( 'classification_officer' ) ;
#292 = DATE_TIME_ROLE ( 'creation_date' ) ;
#293 = CC_DESIGN_APPROVAL ( #185, ( #285 ) ) ;
#294 = CALENDAR_DATE ( 2021, 3, 9 ) ;
#295 = ADVANCED_FACE ( 'NONE', ( #315 ), #75, .T. ) ;
#296 = CC_DESIGN_PERSON_AND_ORGANIZATION_ASSIGNMENT ( #298, #273, ( #285 ) ) ;
#297 = CARTESIAN_POINT ( 'NONE',  ( 3.356629821728760184E-15, -1.599999999999994760, 0.9613769904441034075 ) ) ;
#298 = PERSON_AND_ORGANIZATION ( #95, #249 ) ;
#299 = AXIS2_PLACEMENT_3D ( 'NONE', #17, #310, #184 ) ;
#300 = PRODUCT_DEFINITION_SHAPE ( 'NONE', 'NONE',  #259 ) ;
#301 = ORIENTED_EDGE ( 'NONE', *, *, #81, .T. ) ;
#302 = ORIENTED_EDGE ( 'NONE', *, *, #202, .T. ) ;
#303 = DIRECTION ( 'NONE',  ( 4.275831445896958607E-31, 1.000000000000000000, 1.224646799147353207E-16 ) ) ;
#304 = AXIS2_PLACEMENT_3D ( 'NONE', #178, #135, #239 ) ;
#305 = VECTOR ( 'NONE', #333, 1000.000000000000000 ) ;
#306 = LINE ( 'NONE', #71, #305 ) ;
#307 = ADVANCED_FACE ( 'NONE', ( #88 ), #225, .T. ) ;
#308 = FACE_OUTER_BOUND ( 'NONE', #172, .T. ) ;
#309 = ADVANCED_FACE ( 'NONE', ( #57 ), #102, .T. ) ;
#310 = DIRECTION ( 'NONE',  ( -3.491481338843133355E-15, 1.224646799147353207E-16, -1.000000000000000000 ) ) ;
#311 = AXIS2_PLACEMENT_3D ( 'NONE', #334, #73, #230 ) ;
#312 = DIRECTION ( 'NONE',  ( -4.814824860968106273E-31, -1.000000000000000000, -1.355252715606885226E-16 ) ) ;
#313 = DIRECTION ( 'NONE',  ( -3.491481338843133355E-15, 1.224646799147353207E-16, -1.000000000000000000 ) ) ;
#314 = CYLINDRICAL_SURFACE ( 'NONE', #263, 1.599999999999998090 ) ;
#315 = FACE_OUTER_BOUND ( 'NONE', #290, .T. ) ;
#316 = VECTOR ( 'NONE', #195, 1000.000000000000000 ) ;
#317 = DIRECTION ( 'NONE',  ( 1.000000000000000000, 0.0000000000000000000, 0.0000000000000000000 ) ) ;
#318 = EDGE_CURVE ( 'NONE', #277, #186, #111, .T. ) ;
#319 = VERTEX_POINT ( 'NONE', #297 ) ;
#320 = APPROVAL ( #29, 'UNSPECIFIED' ) ;
#321 = UNCERTAINTY_MEASURE_WITH_UNIT (LENGTH_MEASURE( 1.000000000000000082E-05 ), #268, 'distance_accuracy_value', 'NONE');
#322 = DIRECTION ( 'NONE',  ( 0.0000000000000000000, 1.000000000000000000, 0.0000000000000000000 ) ) ;
#323 = CALENDAR_DATE ( 2021, 3, 9 ) ;
#324 = ORIENTED_EDGE ( 'NONE', *, *, #76, .F. ) ;
#325 = EDGE_LOOP ( 'NONE', ( #168, #324 ) ) ;
#326 = MANIFOLD_SOLID_BREP ( 'Corps-Déplacer/Copier1[1]', #208 ) ;
#327 = CARTESIAN_POINT ( 'NONE',  ( 3.552573309592337052E-15, 1.599999999999994316, 0.9613769904441038516 ) ) ;
#328 = DIRECTION ( 'NONE',  ( -3.491481338843133355E-15, 1.224646799147353207E-16, -1.000000000000000000 ) ) ;
#329 = LOCAL_TIME ( 9, 49, 54.00000000000000000, #56 ) ;
#330 = SECURITY_CLASSIFICATION ( '', '', #36 ) ;
#331 = EDGE_CURVE ( 'NONE', #186, #265, #28, .T. ) ;
#332 = MANIFOLD_SOLID_BREP ( 'Corps-Déplacer/Copier1[2]', #173 ) ;
#333 = DIRECTION ( 'NONE',  ( -2.468850131082258244E-15, 0.7071067811865495711, -0.7071067811865454633 ) ) ;
#334 = CARTESIAN_POINT ( 'NONE',  ( 1.710825856033135470E-13, 8.998558695971058066E-33, 49.00000000000000000 ) ) ;
#335 = CARTESIAN_POINT ( 'NONE',  ( 1.705557398874255268E-13, -1.200000000000006395, 49.00000000000000000 ) ) ;
#336 = CARTESIAN_POINT ( 'NONE',  ( 4.888073874380386697E-14, 1.199807826129480476E-32, 14.00000000000000000 ) ) ;
#337 = VERTEX_POINT ( 'NONE', #137 ) ;
ENDSEC;
END-ISO-10303-21;
