ISO-10303-21;
HEADER;
FILE_DESCRIPTION (( 'STEP AP203' ),
    '1' );
FILE_NAME ('54546.step',
    '2021-09-03T07:49:51',
    ( '' ),
    ( '' ),
    'SwSTEP 2.0',
    'SolidWorks 2019',
    '' );
FILE_SCHEMA (( 'CONFIG_CONTROL_DESIGN' ));
ENDSEC;

DATA;
#1 = ADVANCED_FACE ( 'NONE', ( #118 ), #264, .T. ) ;
#2 = LOCAL_TIME ( 9, 49, 51.00000000000000000, #120 ) ;
#3 = LINE ( 'NONE', #55, #113 ) ;
#4 = CLOSED_SHELL ( 'NONE', ( #104, #64, #1, #234, #75 ) ) ;
#5 = AXIS2_PLACEMENT_3D ( 'NONE', #283, #157, #333 ) ;
#6 = CYLINDRICAL_SURFACE ( 'NONE', #8, 1.574999999999997735 ) ;
#7 = APPROVAL_PERSON_ORGANIZATION ( #116, #288, #11 ) ;
#8 = AXIS2_PLACEMENT_3D ( 'NONE', #54, #286, #194 ) ;
#9 =( NAMED_UNIT ( * ) PLANE_ANGLE_UNIT ( ) SI_UNIT ( $, .RADIAN. ) );
#10 = MECHANICAL_CONTEXT ( 'NONE', #310, 'mechanical' ) ;
#11 = APPROVAL_ROLE ( '' ) ;
#12 = ORIENTED_EDGE ( 'NONE', *, *, #289, .F. ) ;
#13 = DATE_TIME_ROLE ( 'classification_date' ) ;
#14 = ORIENTED_EDGE ( 'NONE', *, *, #202, .T. ) ;
#15 = PERSON_AND_ORGANIZATION ( #164, #110 ) ;
#16 = EDGE_LOOP ( 'NONE', ( #144, #62, #43 ) ) ;
#17 = ORIENTED_EDGE ( 'NONE', *, *, #86, .F. ) ;
#18 = ORIENTED_EDGE ( 'NONE', *, *, #211, .F. ) ;
#19 = PLANE ( 'NONE',  #79 ) ;
#20 = DIRECTION ( 'NONE',  ( -4.275831445896958607E-31, -1.000000000000000000, -1.224646799147353207E-16 ) ) ;
#21 = LOCAL_TIME ( 9, 49, 51.00000000000000000, #225 ) ;
#22 = FACE_OUTER_BOUND ( 'NONE', #94, .T. ) ;
#23 = DIRECTION ( 'NONE',  ( -3.491481338843133355E-15, 1.224646799147353207E-16, -1.000000000000000000 ) ) ;
#24 = CC_DESIGN_PERSON_AND_ORGANIZATION_ASSIGNMENT ( #296, #67, ( #207 ) ) ;
#25 = DIRECTION ( 'NONE',  ( 0.0000000000000000000, 1.000000000000000000, 0.0000000000000000000 ) ) ;
#26 = CARTESIAN_POINT ( 'NONE',  ( 6.734434527287689355E-31, 1.574999999999995293, 1.928818708657075428E-16 ) ) ;
#27 = CLOSED_SHELL ( 'NONE', ( #191, #259, #175, #309, #56, #329 ) ) ;
#28 = DIRECTION ( 'NONE',  ( -3.491481338843133355E-15, 1.224646799147353207E-16, -1.000000000000000000 ) ) ;
#29 =( LENGTH_UNIT ( ) NAMED_UNIT ( * ) SI_UNIT ( .MILLI., .METRE. ) );
#30 = LOCAL_TIME ( 9, 49, 51.00000000000000000, #145 ) ;
#31 = FACE_OUTER_BOUND ( 'NONE', #178, .T. ) ;
#32 = CONICAL_SURFACE ( 'NONE', #219, 1.175000000000000266, 0.7853981633974510546 ) ;
#33 = PERSON_AND_ORGANIZATION_ROLE ( 'design_supplier' ) ;
#34 = PERSON_AND_ORGANIZATION ( #164, #110 ) ;
#35 = ORIENTED_EDGE ( 'NONE', *, *, #114, .T. ) ;
#36 = DATE_AND_TIME ( #143, #132 ) ;
#37 = VERTEX_POINT ( 'NONE', #170 ) ;
#38 = SECURITY_CLASSIFICATION ( '', '', #302 ) ;
#39 = DATE_AND_TIME ( #117, #30 ) ;
#40 = DIRECTION ( 'NONE',  ( -4.891250652412045219E-31, -1.000000000000000000, -1.376764663473661394E-16 ) ) ;
#41 = APPROVAL_DATE_TIME ( #148, #187 ) ;
#42 = ORIENTED_EDGE ( 'NONE', *, *, #289, .T. ) ;
#43 = ORIENTED_EDGE ( 'NONE', *, *, #243, .T. ) ;
#44 = CARTESIAN_POINT ( 'NONE',  ( 1.705526782704276780E-13, -1.175000000000006262, 49.00000000000000000 ) ) ;
#45 = DIRECTION ( 'NONE',  ( 1.798245827342159528E-15, -0.8571673007021100021, 0.5150380749100580413 ) ) ;
#46 = LOCAL_TIME ( 9, 49, 51.00000000000000000, #124 ) ;
#47 = DIRECTION ( 'NONE',  ( -3.491481338843133355E-15, 1.224646799147353207E-16, -1.000000000000000000 ) ) ;
#48 = VECTOR ( 'NONE', #238, 1000.000000000000000 ) ;
#49 = CIRCLE ( 'NONE', #119, 1.574999999999999956 ) ;
#50 = CARTESIAN_POINT ( 'NONE',  ( 0.0000000000000000000, 0.0000000000000000000, 0.0000000000000000000 ) ) ;
#51 = EDGE_CURVE ( 'NONE', #223, #279, #49, .T. ) ;
#52 = DIRECTION ( 'NONE',  ( 0.0000000000000000000, 1.000000000000000000, 0.0000000000000000000 ) ) ;
#53 = APPLICATION_PROTOCOL_DEFINITION ( 'international standard', 'config_control_design', 1994, #310 ) ;
#54 = CARTESIAN_POINT ( 'NONE',  ( 0.0000000000000000000, 0.0000000000000000000, 0.0000000000000000000 ) ) ;
#55 = CARTESIAN_POINT ( 'NONE',  ( 3.497064351629956311E-15, 1.574999999999994182, 0.9463554749684145451 ) ) ;
#56 = ADVANCED_FACE ( 'NONE', ( #180 ), #32, .T. ) ;
#57 = AXIS2_PLACEMENT_3D ( 'NONE', #236, #138, #190 ) ;
#58 = CIRCLE ( 'NONE', #5, 1.574999999999994404 ) ;
#59 = APPROVAL_STATUS ( 'not_yet_approved' ) ;
#60 = ORIENTED_EDGE ( 'NONE', *, *, #202, .F. ) ;
#61 = CALENDAR_DATE ( 2021, 3, 9 ) ;
#62 = ORIENTED_EDGE ( 'NONE', *, *, #270, .T. ) ;
#63 = APPROVAL ( #321, 'UNSPECIFIED' ) ;
#64 = ADVANCED_FACE ( 'NONE', ( #182 ), #166, .T. ) ;
#65 = ORIENTED_EDGE ( 'NONE', *, *, #51, .T. ) ;
#66 = VECTOR ( 'NONE', #193, 1000.000000000000000 ) ;
#67 = PERSON_AND_ORGANIZATION_ROLE ( 'creator' ) ;
#68 = AXIS2_PLACEMENT_3D ( 'NONE', #50, #133, #186 ) ;
#69 = VERTEX_POINT ( 'NONE', #44 ) ;
#70 = VERTEX_POINT ( 'NONE', #209 ) ;
#71 = DIRECTION ( 'NONE',  ( 0.0000000000000000000, 1.000000000000000000, 0.0000000000000000000 ) ) ;
#72 = DIRECTION ( 'NONE',  ( 0.0000000000000000000, 1.000000000000000000, 0.0000000000000000000 ) ) ;
#73 = CYLINDRICAL_SURFACE ( 'NONE', #68, 1.574999999999995293 ) ;
#74 = PRODUCT_DEFINITION ( 'UNKNOWN', '', #207, #177 ) ;
#75 = ADVANCED_FACE ( 'NONE', ( #229 ), #19, .T. ) ;
#76 = FACE_OUTER_BOUND ( 'NONE', #328, .T. ) ;
#77 = AXIS2_PLACEMENT_3D ( 'NONE', #319, #217, #25 ) ;
#78 = CARTESIAN_POINT ( 'NONE',  ( 1.710825856033135470E-13, -6.000769315822030937E-15, 49.00000000000000000 ) ) ;
#79 = AXIS2_PLACEMENT_3D ( 'NONE', #208, #313, #20 ) ;
#80 = PLANE ( 'NONE',  #262 ) ;
#81 = APPROVAL_PERSON_ORGANIZATION ( #298, #63, #195 ) ;
#82 = CARTESIAN_POINT ( 'NONE',  ( 0.0000000000000000000, 0.0000000000000000000, 0.0000000000000000000 ) ) ;
#83 = CIRCLE ( 'NONE', #134, 1.574999999999995959 ) ;
#84 = LINE ( 'NONE', #26, #66 ) ;
#85 = EDGE_CURVE ( 'NONE', #279, #223, #147, .T. ) ;
#86 = EDGE_CURVE ( 'NONE', #91, #69, #192, .T. ) ;
#87 = CARTESIAN_POINT ( 'NONE',  ( 4.888073874380386697E-14, -1.714505518806294638E-15, 14.00000000000000000 ) ) ;
#88 = APPROVAL_DATE_TIME ( #248, #63 ) ;
#89 = EDGE_LOOP ( 'NONE', ( #125, #65, #97, #326 ) ) ;
#90 = CIRCLE ( 'NONE', #197, 1.574999999999995959 ) ;
#91 = VERTEX_POINT ( 'NONE', #311 ) ;
#92 = PERSON_AND_ORGANIZATION_ROLE ( 'design_owner' ) ;
#93 = MANIFOLD_SOLID_BREP ( 'Corps-Déplacer/Copier1[1]', #27 ) ;
#94 = EDGE_LOOP ( 'NONE', ( #153, #221, #275, #146 ) ) ;
#95 = CC_DESIGN_APPROVAL ( #288, ( #74 ) ) ;
#96 = PERSON_AND_ORGANIZATION_ROLE ( 'creator' ) ;
#97 = ORIENTED_EDGE ( 'NONE', *, *, #301, .T. ) ;
#98 = AXIS2_PLACEMENT_3D ( 'NONE', #222, #198, #40 ) ;
#99 = AXIS2_PLACEMENT_3D ( 'NONE', #155, #130, #72 ) ;
#100 = ORIENTED_EDGE ( 'NONE', *, *, #201, .T. ) ;
#101 = DIRECTION ( 'NONE',  ( 0.0000000000000000000, 1.000000000000000000, 0.0000000000000000000 ) ) ;
#102 = DIRECTION ( 'NONE',  ( -3.491481338843133355E-15, 1.224646799147353207E-16, -1.000000000000000000 ) ) ;
#103 = DIRECTION ( 'NONE',  ( 0.0000000000000000000, 1.000000000000000000, 0.0000000000000000000 ) ) ;
#104 = ADVANCED_FACE ( 'NONE', ( #22 ), #73, .T. ) ;
#105 = CARTESIAN_POINT ( 'NONE',  ( 4.888073874380386697E-14, 1.574999999999994182, 14.00000000000000000 ) ) ;
#106 = LINE ( 'NONE', #213, #237 ) ;
#107 = DIRECTION ( 'NONE',  ( -3.491481338843133355E-15, 1.224646799147353207E-16, -1.000000000000000000 ) ) ;
#108 = VECTOR ( 'NONE', #285, 1000.000000000000000 ) ;
#109 = DIRECTION ( 'NONE',  ( 0.0000000000000000000, 1.000000000000000000, 0.0000000000000000000 ) ) ;
#110 = ORGANIZATION ( 'UNSPECIFIED', 'UNSPECIFIED', '' ) ;
#111 = DIRECTION ( 'NONE',  ( -3.491481338843133355E-15, 1.224646799147353207E-16, -1.000000000000000000 ) ) ;
#112 = CARTESIAN_POINT ( 'NONE',  ( 1.710825856033135470E-13, -6.000769315822030937E-15, 49.00000000000000000 ) ) ;
#113 = VECTOR ( 'NONE', #165, 1000.000000000000114 ) ;
#114 = EDGE_CURVE ( 'NONE', #37, #171, #58, .T. ) ;
#115 = FACE_OUTER_BOUND ( 'NONE', #322, .T. ) ;
#116 = PERSON_AND_ORGANIZATION ( #164, #110 ) ;
#117 = CALENDAR_DATE ( 2021, 3, 9 ) ;
#118 = FACE_OUTER_BOUND ( 'NONE', #293, .T. ) ;
#119 = AXIS2_PLACEMENT_3D ( 'NONE', #128, #232, #103 ) ;
#120 = COORDINATED_UNIVERSAL_TIME_OFFSET ( 1, 0, .AHEAD. ) ;
#121 = EDGE_LOOP ( 'NONE', ( #196, #42, #251, #60 ) ) ;
#122 = PERSON_AND_ORGANIZATION ( #164, #110 ) ;
#123 = VERTEX_POINT ( 'NONE', #308 ) ;
#124 = COORDINATED_UNIVERSAL_TIME_OFFSET ( 1, 0, .AHEAD. ) ;
#125 = ORIENTED_EDGE ( 'NONE', *, *, #152, .F. ) ;
#126 = UNCERTAINTY_MEASURE_WITH_UNIT (LENGTH_MEASURE( 1.000000000000000082E-05 ), #29, 'distance_accuracy_value', 'NONE');
#127 = LINE ( 'NONE', #256, #108 ) ;
#128 = CARTESIAN_POINT ( 'NONE',  ( 1.696859930677762937E-13, -5.951783443856137509E-15, 48.60000000000000142 ) ) ;
#129 = CC_DESIGN_PERSON_AND_ORGANIZATION_ASSIGNMENT ( #122, #92, ( #307 ) ) ;
#130 = DIRECTION ( 'NONE',  ( -3.491481338843133355E-15, 1.224646799147353207E-16, -1.000000000000000000 ) ) ;
#131 = CC_DESIGN_DATE_AND_TIME_ASSIGNMENT ( #36, #13, ( #38 ) ) ;
#132 = LOCAL_TIME ( 9, 49, 51.00000000000000000, #292 ) ;
#133 = DIRECTION ( 'NONE',  ( -3.491481338843133355E-15, 1.224646799147353207E-16, -1.000000000000000000 ) ) ;
#134 = AXIS2_PLACEMENT_3D ( 'NONE', #135, #102, #337 ) ;
#135 = CARTESIAN_POINT ( 'NONE',  ( 4.888073874380386697E-14, -1.714505518806294638E-15, 14.00000000000000000 ) ) ;
#136 = CYLINDRICAL_SURFACE ( 'NONE', #57, 1.574999999999995293 ) ;
#137 = FACE_OUTER_BOUND ( 'NONE', #204, .T. ) ;
#138 = DIRECTION ( 'NONE',  ( -3.491481338843133355E-15, 1.224646799147353207E-16, -1.000000000000000000 ) ) ;
#139 = DIRECTION ( 'NONE',  ( 0.0000000000000000000, 1.000000000000000000, 0.0000000000000000000 ) ) ;
#140 = CARTESIAN_POINT ( 'NONE',  ( 3.304182480764248374E-15, -1.158951203275641725E-16, 0.9463554749684143230 ) ) ;
#141 = CIRCLE ( 'NONE', #253, 1.574999999999995959 ) ;
#142 = DIRECTION ( 'NONE',  ( 0.0000000000000000000, 0.0000000000000000000, 1.000000000000000000 ) ) ;
#143 = CALENDAR_DATE ( 2021, 3, 9 ) ;
#144 = ORIENTED_EDGE ( 'NONE', *, *, #151, .F. ) ;
#145 = COORDINATED_UNIVERSAL_TIME_OFFSET ( 1, 0, .AHEAD. ) ;
#146 = ORIENTED_EDGE ( 'NONE', *, *, #269, .F. ) ;
#147 = CIRCLE ( 'NONE', #242, 1.574999999999999956 ) ;
#148 = DATE_AND_TIME ( #61, #2 ) ;
#149 = PERSON_AND_ORGANIZATION_ROLE ( 'classification_officer' ) ;
#150 = ORIENTED_EDGE ( 'NONE', *, *, #270, .F. ) ;
#151 = EDGE_CURVE ( 'NONE', #123, #37, #255, .T. ) ;
#152 = EDGE_CURVE ( 'NONE', #223, #70, #127, .T. ) ;
#153 = ORIENTED_EDGE ( 'NONE', *, *, #247, .T. ) ;
#154 = APPROVAL_PERSON_ORGANIZATION ( #173, #187, #271 ) ;
#155 = CARTESIAN_POINT ( 'NONE',  ( 1.710825856033135470E-13, -6.000769315822030937E-15, 49.00000000000000000 ) ) ;
#156 = DIRECTION ( 'NONE',  ( 3.491481338843133355E-15, -1.224646799147353207E-16, 1.000000000000000000 ) ) ;
#157 = DIRECTION ( 'NONE',  ( -3.491481338843133355E-15, 1.224646799147353207E-16, -1.000000000000000000 ) ) ;
#158 = VECTOR ( 'NONE', #107, 1000.000000000000000 ) ;
#159 = CARTESIAN_POINT ( 'NONE',  ( 4.888073874380386697E-14, -1.714505518806294638E-15, 14.00000000000000000 ) ) ;
#160 = DIRECTION ( 'NONE',  ( -2.468850131082258244E-15, 0.7071067811865495711, -0.7071067811865454633 ) ) ;
#161 = LINE ( 'NONE', #163, #48 ) ;
#162 = EDGE_CURVE ( 'NONE', #278, #295, #90, .T. ) ;
#163 = CARTESIAN_POINT ( 'NONE',  ( 1.712264816022133501E-13, -1.175000000000006262, 49.00000000000000000 ) ) ;
#164 = PERSON ( 'UNSPECIFIED', 'UNSPECIFIED', 'UNSPECIFIED', ('UNSPECIFIED'), ('UNSPECIFIED'), ('UNSPECIFIED') ) ;
#165 = DIRECTION ( 'NONE',  ( 1.903218546456021928E-15, 0.8571673007021098911, 0.5150380749100583744 ) ) ;
#166 = CONICAL_SURFACE ( 'NONE', #335, 1.574999999999994404, 1.029744258676649871 ) ;
#167 = APPROVAL_STATUS ( 'not_yet_approved' ) ;
#168 = VERTEX_POINT ( 'NONE', #105 ) ;
#169 = CARTESIAN_POINT ( 'NONE',  ( 0.0000000000000000000, 0.0000000000000000000, 0.0000000000000000000 ) ) ;
#170 = CARTESIAN_POINT ( 'NONE',  ( 3.304182480764247585E-15, -1.574999999999994627, 0.9463554749684141010 ) ) ;
#171 = VERTEX_POINT ( 'NONE', #210 ) ;
#172 = CIRCLE ( 'NONE', #203, 1.175000000000000266 ) ;
#173 = PERSON_AND_ORGANIZATION ( #164, #110 ) ;
#174 = CC_DESIGN_APPROVAL ( #187, ( #38 ) ) ;
#175 = ADVANCED_FACE ( 'NONE', ( #76 ), #332, .F. ) ;
#176 = ORIENTED_EDGE ( 'NONE', *, *, #224, .T. ) ;
#177 = DESIGN_CONTEXT ( 'detailed design', #320, 'design' ) ;
#178 = EDGE_LOOP ( 'NONE', ( #17, #299 ) ) ;
#179 = CARTESIAN_POINT ( 'NONE',  ( 1.928818708657068772E-16, -1.574999999999995293, -1.928818708657082084E-16 ) ) ;
#180 = FACE_OUTER_BOUND ( 'NONE', #246, .T. ) ;
#181 = PRODUCT_DEFINITION_SHAPE ( 'NONE', 'NONE',  #74 ) ;
#182 = FACE_OUTER_BOUND ( 'NONE', #16, .T. ) ;
#183 = DIRECTION ( 'NONE',  ( 3.491481338843133355E-15, -1.224646799147353207E-16, 1.000000000000000000 ) ) ;
#184 = CC_DESIGN_APPROVAL ( #63, ( #207 ) ) ;
#185 = AXIS2_PLACEMENT_3D ( 'NONE', #140, #111, #267 ) ;
#186 = DIRECTION ( 'NONE',  ( 4.275831445896958607E-31, 1.000000000000000000, 1.224646799147353207E-16 ) ) ;
#187 = APPROVAL ( #59, 'UNSPECIFIED' ) ;
#188 = CARTESIAN_POINT ( 'NONE',  ( 1.710825856033135470E-13, 8.811088723138325865E-33, 49.00000000000000000 ) ) ;
#189 = ADVANCED_BREP_SHAPE_REPRESENTATION ( '54546', ( #93, #317, #273 ), #305 ) ;
#190 = DIRECTION ( 'NONE',  ( 4.275831445896958607E-31, 1.000000000000000000, 1.224646799147353207E-16 ) ) ;
#191 = ADVANCED_FACE ( 'NONE', ( #260 ), #281, .T. ) ;
#192 = CIRCLE ( 'NONE', #99, 1.175000000000000266 ) ;
#193 = DIRECTION ( 'NONE',  ( -3.491481338843133355E-15, 1.224646799147353207E-16, -1.000000000000000000 ) ) ;
#194 = DIRECTION ( 'NONE',  ( 4.275831445896958607E-31, 1.000000000000000000, 1.224646799147353207E-16 ) ) ;
#195 = APPROVAL_ROLE ( '' ) ;
#196 = ORIENTED_EDGE ( 'NONE', *, *, #86, .T. ) ;
#197 = AXIS2_PLACEMENT_3D ( 'NONE', #159, #336, #52 ) ;
#198 = DIRECTION ( 'NONE',  ( 3.491481338843133355E-15, -1.224646799147353207E-16, 1.000000000000000000 ) ) ;
#199 = DATE_TIME_ROLE ( 'creation_date' ) ;
#200 = ORIENTED_EDGE ( 'NONE', *, *, #247, .F. ) ;
#201 = EDGE_CURVE ( 'NONE', #168, #70, #83, .T. ) ;
#202 = EDGE_CURVE ( 'NONE', #91, #279, #106, .T. ) ;
#203 = AXIS2_PLACEMENT_3D ( 'NONE', #112, #216, #139 ) ;
#204 = EDGE_LOOP ( 'NONE', ( #18, #297, #276, #272 ) ) ;
#205 = ORIENTED_EDGE ( 'NONE', *, *, #51, .F. ) ;
#206 = CARTESIAN_POINT ( 'NONE',  ( 1.696859930677762937E-13, -5.951783443856137509E-15, 48.60000000000000142 ) ) ;
#207 = PRODUCT_DEFINITION_FORMATION_WITH_SPECIFIED_SOURCE ( 'ANY', '', #307, .NOT_KNOWN. ) ;
#208 = CARTESIAN_POINT ( 'NONE',  ( 4.888073874380386697E-14, 1.181060828846207119E-32, 14.00000000000000000 ) ) ;
#209 = CARTESIAN_POINT ( 'NONE',  ( 1.094762477766557295E-13, -1.574999999999997735, 14.00000000000000000 ) ) ;
#210 = CARTESIAN_POINT ( 'NONE',  ( 3.497064351629956311E-15, 1.574999999999994182, 0.9463554749684145451 ) ) ;
#211 = EDGE_CURVE ( 'NONE', #278, #37, #261, .T. ) ;
#212 = CC_DESIGN_DATE_AND_TIME_ASSIGNMENT ( #39, #199, ( #74 ) ) ;
#213 = CARTESIAN_POINT ( 'NONE',  ( 1.710825856033135470E-13, 1.174999999999994271, 49.00000000000000000 ) ) ;
#214 = CIRCLE ( 'NONE', #185, 1.574999999999994404 ) ;
#215 = DIRECTION ( 'NONE',  ( -3.491481338843133355E-15, 1.224646799147353207E-16, -1.000000000000000000 ) ) ;
#216 = DIRECTION ( 'NONE',  ( -3.491481338843133355E-15, 1.224646799147353207E-16, -1.000000000000000000 ) ) ;
#217 = DIRECTION ( 'NONE',  ( -3.491481338843133355E-15, 1.224646799147353207E-16, -1.000000000000000000 ) ) ;
#218 = CARTESIAN_POINT ( 'NONE',  ( 1.094762477766556159E-13, -1.575000000000005951, 48.60000000000000142 ) ) ;
#219 = AXIS2_PLACEMENT_3D ( 'NONE', #230, #228, #101 ) ;
#220 = APPROVAL_DATE_TIME ( #323, #288 ) ;
#221 = ORIENTED_EDGE ( 'NONE', *, *, #211, .T. ) ;
#222 = CARTESIAN_POINT ( 'NONE',  ( 3.304182480764248374E-15, -1.158951203275641725E-16, 0.9463554749684143230 ) ) ;
#223 = VERTEX_POINT ( 'NONE', #218 ) ;
#224 = EDGE_CURVE ( 'NONE', #69, #91, #172, .T. ) ;
#225 = COORDINATED_UNIVERSAL_TIME_OFFSET ( 1, 0, .AHEAD. ) ;
#226 = ORIENTED_EDGE ( 'NONE', *, *, #162, .F. ) ;
#227 = ORIENTED_EDGE ( 'NONE', *, *, #201, .F. ) ;
#228 = DIRECTION ( 'NONE',  ( -3.491481338843133355E-15, 1.224646799147353207E-16, -1.000000000000000000 ) ) ;
#229 = FACE_OUTER_BOUND ( 'NONE', #252, .T. ) ;
#230 = CARTESIAN_POINT ( 'NONE',  ( 1.710825856033135470E-13, -6.000769315822030937E-15, 49.00000000000000000 ) ) ;
#231 = VECTOR ( 'NONE', #45, 1000.000000000000000 ) ;
#232 = DIRECTION ( 'NONE',  ( -3.491481338843133355E-15, 1.224646799147353207E-16, -1.000000000000000000 ) ) ;
#233 = CC_DESIGN_PERSON_AND_ORGANIZATION_ASSIGNMENT ( #15, #96, ( #74 ) ) ;
#234 = ADVANCED_FACE ( 'NONE', ( #137 ), #136, .T. ) ;
#235 = CARTESIAN_POINT ( 'NONE',  ( 4.888073874380386697E-14, 1.181060828846207119E-32, 14.00000000000000000 ) ) ;
#236 = CARTESIAN_POINT ( 'NONE',  ( 0.0000000000000000000, 0.0000000000000000000, 0.0000000000000000000 ) ) ;
#237 = VECTOR ( 'NONE', #160, 1000.000000000000000 ) ;
#238 = DIRECTION ( 'NONE',  ( -2.382254525458709186E-15, -0.7071067811865493491, -0.7071067811865456854 ) ) ;
#239 = CARTESIAN_POINT ( 'NONE',  ( 6.734434527287700741E-31, 1.574999999999997735, 1.928818708657078633E-16 ) ) ;
#240 = CARTESIAN_POINT ( 'NONE',  ( 4.888073874380386697E-14, 1.574999999999994182, 14.00000000000000000 ) ) ;
#241 = DIRECTION ( 'NONE',  ( 4.275831445896958607E-31, 1.000000000000000000, 1.224646799147353207E-16 ) ) ;
#242 = AXIS2_PLACEMENT_3D ( 'NONE', #206, #47, #312 ) ;
#243 = EDGE_CURVE ( 'NONE', #171, #37, #214, .T. ) ;
#244 = CC_DESIGN_PERSON_AND_ORGANIZATION_ASSIGNMENT ( #245, #149, ( #38 ) ) ;
#245 = PERSON_AND_ORGANIZATION ( #164, #110 ) ;
#246 = EDGE_LOOP ( 'NONE', ( #12, #176, #14, #205 ) ) ;
#247 = EDGE_CURVE ( 'NONE', #295, #278, #141, .T. ) ;
#248 = DATE_AND_TIME ( #327, #21 ) ;
#249 = ORIENTED_EDGE ( 'NONE', *, *, #151, .T. ) ;
#250 = SHAPE_DEFINITION_REPRESENTATION ( #181, #189 ) ;
#251 = ORIENTED_EDGE ( 'NONE', *, *, #85, .F. ) ;
#252 = EDGE_LOOP ( 'NONE', ( #200, #226 ) ) ;
#253 = AXIS2_PLACEMENT_3D ( 'NONE', #87, #263, #109 ) ;
#254 = ORIENTED_EDGE ( 'NONE', *, *, #85, .T. ) ;
#255 = LINE ( 'NONE', #258, #231 ) ;
#256 = CARTESIAN_POINT ( 'NONE',  ( 1.928818708657072223E-16, -1.574999999999997735, -1.928818708657085289E-16 ) ) ;
#257 = EDGE_CURVE ( 'NONE', #70, #168, #330, .T. ) ;
#258 = CARTESIAN_POINT ( 'NONE',  ( 3.304182480764247585E-15, -1.574999999999994627, 0.9463554749684141010 ) ) ;
#259 = ADVANCED_FACE ( 'NONE', ( #115 ), #6, .T. ) ;
#260 = FACE_OUTER_BOUND ( 'NONE', #121, .T. ) ;
#261 = LINE ( 'NONE', #179, #318 ) ;
#262 = AXIS2_PLACEMENT_3D ( 'NONE', #188, #28, #241 ) ;
#263 = DIRECTION ( 'NONE',  ( -3.491481338843133355E-15, 1.224646799147353207E-16, -1.000000000000000000 ) ) ;
#264 = CONICAL_SURFACE ( 'NONE', #98, 1.574999999999994404, 1.029744258676649871 ) ;
#265 = AXIS2_PLACEMENT_3D ( 'NONE', #78, #23, #71 ) ;
#266 = CYLINDRICAL_SURFACE ( 'NONE', #291, 1.574999999999997735 ) ;
#267 = DIRECTION ( 'NONE',  ( 4.891250652412045219E-31, 1.000000000000000000, 1.376764663473661394E-16 ) ) ;
#268 = LINE ( 'NONE', #239, #158 ) ;
#269 = EDGE_CURVE ( 'NONE', #295, #171, #84, .T. ) ;
#270 = EDGE_CURVE ( 'NONE', #123, #171, #3, .T. ) ;
#271 = APPROVAL_ROLE ( '' ) ;
#272 = ORIENTED_EDGE ( 'NONE', *, *, #114, .F. ) ;
#273 = AXIS2_PLACEMENT_3D ( 'NONE', #169, #142, #325 ) ;
#274 = CALENDAR_DATE ( 2021, 3, 9 ) ;
#275 = ORIENTED_EDGE ( 'NONE', *, *, #243, .F. ) ;
#276 = ORIENTED_EDGE ( 'NONE', *, *, #269, .T. ) ;
#277 = AXIS2_PLACEMENT_3D ( 'NONE', #235, #183, #306 ) ;
#278 = VERTEX_POINT ( 'NONE', #290 ) ;
#279 = VERTEX_POINT ( 'NONE', #315 ) ;
#280 = DIRECTION ( 'NONE',  ( -3.491481338843133355E-15, 1.224646799147353207E-16, -1.000000000000000000 ) ) ;
#281 = CONICAL_SURFACE ( 'NONE', #265, 1.175000000000000266, 0.7853981633974510546 ) ;
#282 = PRODUCT_RELATED_PRODUCT_CATEGORY ( 'detail', '', ( #307 ) ) ;
#283 = CARTESIAN_POINT ( 'NONE',  ( 3.304182480764248374E-15, -1.158951203275641725E-16, 0.9463554749684143230 ) ) ;
#284 = CARTESIAN_POINT ( 'NONE',  ( 3.304182480764248374E-15, -1.158951203275641725E-16, 0.9463554749684143230 ) ) ;
#285 = DIRECTION ( 'NONE',  ( -3.491481338843133355E-15, 1.224646799147353207E-16, -1.000000000000000000 ) ) ;
#286 = DIRECTION ( 'NONE',  ( -3.491481338843133355E-15, 1.224646799147353207E-16, -1.000000000000000000 ) ) ;
#287 =( NAMED_UNIT ( * ) SI_UNIT ( $, .STERADIAN. ) SOLID_ANGLE_UNIT ( ) );
#288 = APPROVAL ( #167, 'UNSPECIFIED' ) ;
#289 = EDGE_CURVE ( 'NONE', #69, #223, #161, .T. ) ;
#290 = CARTESIAN_POINT ( 'NONE',  ( 2.628534248314974175E-14, -1.574999999999997513, 14.00000000000000000 ) ) ;
#291 = AXIS2_PLACEMENT_3D ( 'NONE', #82, #215, #314 ) ;
#292 = COORDINATED_UNIVERSAL_TIME_OFFSET ( 1, 0, .AHEAD. ) ;
#293 = EDGE_LOOP ( 'NONE', ( #150, #249, #35 ) ) ;
#294 = APPLICATION_PROTOCOL_DEFINITION ( 'international standard', 'config_control_design', 1994, #320 ) ;
#295 = VERTEX_POINT ( 'NONE', #240 ) ;
#296 = PERSON_AND_ORGANIZATION ( #164, #110 ) ;
#297 = ORIENTED_EDGE ( 'NONE', *, *, #162, .T. ) ;
#298 = PERSON_AND_ORGANIZATION ( #164, #110 ) ;
#299 = ORIENTED_EDGE ( 'NONE', *, *, #224, .F. ) ;
#300 = CC_DESIGN_SECURITY_CLASSIFICATION ( #38, ( #207 ) ) ;
#301 = EDGE_CURVE ( 'NONE', #279, #168, #268, .T. ) ;
#302 = SECURITY_CLASSIFICATION_LEVEL ( 'unclassified' ) ;
#303 = CC_DESIGN_PERSON_AND_ORGANIZATION_ASSIGNMENT ( #34, #33, ( #207 ) ) ;
#304 = ORIENTED_EDGE ( 'NONE', *, *, #152, .T. ) ;
#305 =( GEOMETRIC_REPRESENTATION_CONTEXT ( 3 ) GLOBAL_UNCERTAINTY_ASSIGNED_CONTEXT ( ( #126 ) ) GLOBAL_UNIT_ASSIGNED_CONTEXT ( ( #29, #9, #287 ) ) REPRESENTATION_CONTEXT ( 'NONE', 'WORKASPACE' ) );
#306 = DIRECTION ( 'NONE',  ( -4.275831445896958607E-31, -1.000000000000000000, -1.224646799147353207E-16 ) ) ;
#307 = PRODUCT ( '54546', '54546', '', ( #10 ) ) ;
#308 = CARTESIAN_POINT ( 'NONE',  ( 0.0000000000000000000, 0.0000000000000000000, 0.0000000000000000000 ) ) ;
#309 = ADVANCED_FACE ( 'NONE', ( #316 ), #266, .T. ) ;
#310 = APPLICATION_CONTEXT ( 'configuration controlled 3d designs of mechanical parts and assemblies' ) ;
#311 = CARTESIAN_POINT ( 'NONE',  ( 1.710825856033135470E-13, 1.174999999999994271, 49.00000000000000000 ) ) ;
#312 = DIRECTION ( 'NONE',  ( 0.0000000000000000000, 1.000000000000000000, 0.0000000000000000000 ) ) ;
#313 = DIRECTION ( 'NONE',  ( 3.491481338843133355E-15, -1.224646799147353207E-16, 1.000000000000000000 ) ) ;
#314 = DIRECTION ( 'NONE',  ( 4.275831445896958607E-31, 1.000000000000000000, 1.224646799147353207E-16 ) ) ;
#315 = CARTESIAN_POINT ( 'NONE',  ( 1.696859930677762937E-13, 1.574999999999994182, 48.60000000000000142 ) ) ;
#316 = FACE_OUTER_BOUND ( 'NONE', #89, .T. ) ;
#317 = MANIFOLD_SOLID_BREP ( 'Corps-Déplacer/Copier1[2]', #4 ) ;
#318 = VECTOR ( 'NONE', #280, 1000.000000000000000 ) ;
#319 = CARTESIAN_POINT ( 'NONE',  ( 4.888073874380386697E-14, -1.714505518806294638E-15, 14.00000000000000000 ) ) ;
#320 = APPLICATION_CONTEXT ( 'configuration controlled 3d designs of mechanical parts and assemblies' ) ;
#321 = APPROVAL_STATUS ( 'not_yet_approved' ) ;
#322 = EDGE_LOOP ( 'NONE', ( #254, #304, #227, #324 ) ) ;
#323 = DATE_AND_TIME ( #274, #46 ) ;
#324 = ORIENTED_EDGE ( 'NONE', *, *, #301, .F. ) ;
#325 = DIRECTION ( 'NONE',  ( 1.000000000000000000, 0.0000000000000000000, 0.0000000000000000000 ) ) ;
#326 = ORIENTED_EDGE ( 'NONE', *, *, #257, .F. ) ;
#327 = CALENDAR_DATE ( 2021, 3, 9 ) ;
#328 = EDGE_LOOP ( 'NONE', ( #100, #331 ) ) ;
#329 = ADVANCED_FACE ( 'NONE', ( #31 ), #80, .F. ) ;
#330 = CIRCLE ( 'NONE', #77, 1.574999999999995959 ) ;
#331 = ORIENTED_EDGE ( 'NONE', *, *, #257, .T. ) ;
#332 = PLANE ( 'NONE',  #277 ) ;
#333 = DIRECTION ( 'NONE',  ( 4.891250652412045219E-31, 1.000000000000000000, 1.376764663473661394E-16 ) ) ;
#334 = DIRECTION ( 'NONE',  ( -4.891250652412045219E-31, -1.000000000000000000, -1.376764663473661394E-16 ) ) ;
#335 = AXIS2_PLACEMENT_3D ( 'NONE', #284, #156, #334 ) ;
#336 = DIRECTION ( 'NONE',  ( -3.491481338843133355E-15, 1.224646799147353207E-16, -1.000000000000000000 ) ) ;
#337 = DIRECTION ( 'NONE',  ( 0.0000000000000000000, 1.000000000000000000, 0.0000000000000000000 ) ) ;
ENDSEC;
END-ISO-10303-21;
