ISO-10303-21;
HEADER;
FILE_DESCRIPTION (( 'STEP AP203' ),
    '1' );
FILE_NAME ('54545.step',
    '2021-09-03T07:49:49',
    ( '' ),
    ( '' ),
    'SwSTEP 2.0',
    'SolidWorks 2019',
    '' );
FILE_SCHEMA (( 'CONFIG_CONTROL_DESIGN' ));
ENDSEC;

DATA;
#1 = CARTESIAN_POINT ( 'NONE',  ( 4.888073874380386697E-14, 1.549999999999994049, 14.00000000000000000 ) ) ;
#2 = EDGE_CURVE ( 'NONE', #54, #101, #327, .T. ) ;
#3 = DATE_TIME_ROLE ( 'classification_date' ) ;
#4 = VECTOR ( 'NONE', #271, 1000.000000000000000 ) ;
#5 = DIRECTION ( 'NONE',  ( -3.491481338843133355E-15, 1.224646799147353207E-16, -1.000000000000000000 ) ) ;
#6 = VERTEX_POINT ( 'NONE', #316 ) ;
#7 = ORIENTED_EDGE ( 'NONE', *, *, #154, .T. ) ;
#8 = DATE_AND_TIME ( #308, #151 ) ;
#9 = ORIENTED_EDGE ( 'NONE', *, *, #18, .F. ) ;
#10 = PERSON_AND_ORGANIZATION ( #137, #61 ) ;
#11 = ORIENTED_EDGE ( 'NONE', *, *, #241, .F. ) ;
#12 = DIRECTION ( 'NONE',  ( -3.491481338843133355E-15, 1.224646799147353207E-16, -1.000000000000000000 ) ) ;
#13 = DIRECTION ( 'NONE',  ( 0.0000000000000000000, 1.000000000000000000, 0.0000000000000000000 ) ) ;
#14 = DIRECTION ( 'NONE',  ( 1.903218546456022717E-15, 0.8571673007021097801, 0.5150380749100585964 ) ) ;
#15 = VERTEX_POINT ( 'NONE', #88 ) ;
#16 = AXIS2_PLACEMENT_3D ( 'NONE', #256, #26, #116 ) ;
#17 = CARTESIAN_POINT ( 'NONE',  ( 3.441555393667576754E-15, 1.549999999999994049, 0.9313339594927254605 ) ) ;
#18 = EDGE_CURVE ( 'NONE', #107, #184, #261, .T. ) ;
#19 = CYLINDRICAL_SURFACE ( 'NONE', #141, 1.549999999999998046 ) ;
#20 = CARTESIAN_POINT ( 'NONE',  ( 0.0000000000000000000, 0.0000000000000000000, 0.0000000000000000000 ) ) ;
#21 =( NAMED_UNIT ( * ) PLANE_ANGLE_UNIT ( ) SI_UNIT ( $, .RADIAN. ) );
#22 = CARTESIAN_POINT ( 'NONE',  ( 4.888073874380386697E-14, 1.162313831562933899E-32, 14.00000000000000000 ) ) ;
#23 = CC_DESIGN_PERSON_AND_ORGANIZATION_ASSIGNMENT ( #310, #59, ( #90 ) ) ;
#24 = ORIENTED_EDGE ( 'NONE', *, *, #224, .F. ) ;
#25 = CIRCLE ( 'NONE', #202, 1.550000000000000044 ) ;
#26 = DIRECTION ( 'NONE',  ( -3.491481338843133355E-15, 1.224646799147353207E-16, -1.000000000000000000 ) ) ;
#27 = LINE ( 'NONE', #199, #51 ) ;
#28 = ORIENTED_EDGE ( 'NONE', *, *, #331, .F. ) ;
#29 = APPROVAL_DATE_TIME ( #238, #52 ) ;
#30 = DIRECTION ( 'NONE',  ( -3.491481338843133355E-15, 1.224646799147353207E-16, -1.000000000000000000 ) ) ;
#31 = EDGE_CURVE ( 'NONE', #15, #298, #86, .T. ) ;
#32 = EDGE_LOOP ( 'NONE', ( #183, #284, #303, #85 ) ) ;
#33 = SECURITY_CLASSIFICATION_LEVEL ( 'unclassified' ) ;
#34 = EDGE_CURVE ( 'NONE', #107, #318, #164, .T. ) ;
#35 = CARTESIAN_POINT ( 'NONE',  ( 3.251735139799736170E-15, -1.549999999999994493, 0.9313339594927250165 ) ) ;
#36 = AXIS2_PLACEMENT_3D ( 'NONE', #139, #163, #167 ) ;
#37 = CC_DESIGN_PERSON_AND_ORGANIZATION_ASSIGNMENT ( #304, #263, ( #322 ) ) ;
#38 = CARTESIAN_POINT ( 'NONE',  ( 4.888073874380386697E-14, -1.714505518806294638E-15, 14.00000000000000000 ) ) ;
#39 = FACE_OUTER_BOUND ( 'NONE', #175, .T. ) ;
#40 = DIRECTION ( 'NONE',  ( 3.491481338843133355E-15, -1.224646799147353207E-16, 1.000000000000000000 ) ) ;
#41 = EDGE_LOOP ( 'NONE', ( #194, #7 ) ) ;
#42 = APPROVAL_PERSON_ORGANIZATION ( #75, #159, #276 ) ;
#43 = CARTESIAN_POINT ( 'NONE',  ( 3.251735139799736958E-15, -1.140555152429996458E-16, 0.9313339594927252385 ) ) ;
#44 = DIRECTION ( 'NONE',  ( -3.491481338843133355E-15, 1.224646799147353207E-16, -1.000000000000000000 ) ) ;
#45 = APPLICATION_CONTEXT ( 'configuration controlled 3d designs of mechanical parts and assemblies' ) ;
#46 = CIRCLE ( 'NONE', #220, 1.150000000000000133 ) ;
#47 = AXIS2_PLACEMENT_3D ( 'NONE', #264, #133, #234 ) ;
#48 = PRODUCT_RELATED_PRODUCT_CATEGORY ( 'detail', '', ( #307 ) ) ;
#49 = CARTESIAN_POINT ( 'NONE',  ( 4.888073874380386697E-14, -1.714505518806294638E-15, 14.00000000000000000 ) ) ;
#50 = LINE ( 'NONE', #73, #265 ) ;
#51 = VECTOR ( 'NONE', #145, 1000.000000000000000 ) ;
#52 = APPROVAL ( #203, 'UNSPECIFIED' ) ;
#53 = COORDINATED_UNIVERSAL_TIME_OFFSET ( 1, 0, .AHEAD. ) ;
#54 = VERTEX_POINT ( 'NONE', #35 ) ;
#55 = APPLICATION_CONTEXT ( 'configuration controlled 3d designs of mechanical parts and assemblies' ) ;
#56 = LOCAL_TIME ( 9, 49, 49.00000000000000000, #177 ) ;
#57 = EDGE_CURVE ( 'NONE', #15, #54, #204, .T. ) ;
#58 = AXIS2_PLACEMENT_3D ( 'NONE', #212, #5, #104 ) ;
#59 = PERSON_AND_ORGANIZATION_ROLE ( 'classification_officer' ) ;
#60 = ORIENTED_EDGE ( 'NONE', *, *, #258, .F. ) ;
#61 = ORGANIZATION ( 'UNSPECIFIED', 'UNSPECIFIED', '' ) ;
#62 = CARTESIAN_POINT ( 'NONE',  ( 1.696859930677762937E-13, 1.549999999999994049, 48.60000000000000142 ) ) ;
#63 = CARTESIAN_POINT ( 'NONE',  ( 3.251735139799736958E-15, -1.140555152429996458E-16, 0.9313339594927252385 ) ) ;
#64 = DIRECTION ( 'NONE',  ( 4.275831445896958607E-31, 1.000000000000000000, 1.224646799147353207E-16 ) ) ;
#65 = AXIS2_PLACEMENT_3D ( 'NONE', #92, #217, #111 ) ;
#66 = CC_DESIGN_SECURITY_CLASSIFICATION ( #90, ( #322 ) ) ;
#67 = DIRECTION ( 'NONE',  ( 0.0000000000000000000, 1.000000000000000000, 0.0000000000000000000 ) ) ;
#68 = MECHANICAL_CONTEXT ( 'NONE', #45, 'mechanical' ) ;
#69 = DIRECTION ( 'NONE',  ( -2.382254525458709186E-15, -0.7071067811865493491, -0.7071067811865456854 ) ) ;
#70 = ORIENTED_EDGE ( 'NONE', *, *, #2, .F. ) ;
#71 = CONICAL_SURFACE ( 'NONE', #171, 1.549999999999994271, 1.029744258676649649 ) ;
#72 = DIRECTION ( 'NONE',  ( -3.491481338843133355E-15, 1.224646799147353207E-16, -1.000000000000000000 ) ) ;
#73 = CARTESIAN_POINT ( 'NONE',  ( 1.898202538678388584E-16, -1.549999999999998046, -1.898202538678401403E-16 ) ) ;
#74 = ADVANCED_FACE ( 'NONE', ( #109 ), #129, .T. ) ;
#75 = PERSON_AND_ORGANIZATION ( #137, #61 ) ;
#76 = CC_DESIGN_DATE_AND_TIME_ASSIGNMENT ( #8, #158, ( #125 ) ) ;
#77 = PERSON_AND_ORGANIZATION_ROLE ( 'design_supplier' ) ;
#78 = PERSON_AND_ORGANIZATION_ROLE ( 'creator' ) ;
#79 = VERTEX_POINT ( 'NONE', #189 ) ;
#80 = ORIENTED_EDGE ( 'NONE', *, *, #224, .T. ) ;
#81 = ORIENTED_EDGE ( 'NONE', *, *, #216, .F. ) ;
#82 = EDGE_LOOP ( 'NONE', ( #179, #232, #207, #309 ) ) ;
#83 = CALENDAR_DATE ( 2021, 3, 9 ) ;
#84 = CC_DESIGN_APPROVAL ( #52, ( #322 ) ) ;
#85 = ORIENTED_EDGE ( 'NONE', *, *, #268, .F. ) ;
#86 = CIRCLE ( 'NONE', #96, 1.549999999999995826 ) ;
#87 = SHAPE_DEFINITION_REPRESENTATION ( #293, #294 ) ;
#88 = CARTESIAN_POINT ( 'NONE',  ( 2.625605719566961731E-14, -1.549999999999997602, 14.00000000000000000 ) ) ;
#89 = FACE_OUTER_BOUND ( 'NONE', #41, .T. ) ;
#90 = SECURITY_CLASSIFICATION ( '', '', #33 ) ;
#91 = VECTOR ( 'NONE', #169, 1000.000000000000000 ) ;
#92 = CARTESIAN_POINT ( 'NONE',  ( 1.710825856033135470E-13, -6.000769315822030937E-15, 49.00000000000000000 ) ) ;
#93 = DIRECTION ( 'NONE',  ( 4.275831445896958607E-31, 1.000000000000000000, 1.224646799147353207E-16 ) ) ;
#94 = FACE_OUTER_BOUND ( 'NONE', #237, .T. ) ;
#95 = EDGE_CURVE ( 'NONE', #101, #54, #283, .T. ) ;
#96 = AXIS2_PLACEMENT_3D ( 'NONE', #178, #289, #161 ) ;
#97 = FACE_OUTER_BOUND ( 'NONE', #102, .T. ) ;
#98 = ORIENTED_EDGE ( 'NONE', *, *, #278, .F. ) ;
#99 = APPROVAL_DATE_TIME ( #332, #159 ) ;
#100 = EDGE_CURVE ( 'NONE', #6, #79, #190, .T. ) ;
#101 = VERTEX_POINT ( 'NONE', #17 ) ;
#102 = EDGE_LOOP ( 'NONE', ( #270, #130, #147, #9 ) ) ;
#103 = ORIENTED_EDGE ( 'NONE', *, *, #100, .F. ) ;
#104 = DIRECTION ( 'NONE',  ( 4.275831445896958607E-31, 1.000000000000000000, 1.224646799147353207E-16 ) ) ;
#105 = APPROVAL_ROLE ( '' ) ;
#106 = CALENDAR_DATE ( 2021, 3, 9 ) ;
#107 = VERTEX_POINT ( 'NONE', #62 ) ;
#108 = CIRCLE ( 'NONE', #287, 1.549999999999995826 ) ;
#109 = FACE_OUTER_BOUND ( 'NONE', #200, .T. ) ;
#110 = CARTESIAN_POINT ( 'NONE',  ( 1.710825856033135470E-13, -6.000769315822030937E-15, 49.00000000000000000 ) ) ;
#111 = DIRECTION ( 'NONE',  ( 0.0000000000000000000, 1.000000000000000000, 0.0000000000000000000 ) ) ;
#112 = LOCAL_TIME ( 9, 49, 49.00000000000000000, #225 ) ;
#113 = DIRECTION ( 'NONE',  ( 0.0000000000000000000, 1.000000000000000000, 0.0000000000000000000 ) ) ;
#114 = DIRECTION ( 'NONE',  ( 0.0000000000000000000, 1.000000000000000000, 0.0000000000000000000 ) ) ;
#115 = DIRECTION ( 'NONE',  ( -3.491481338843133355E-15, 1.224646799147353207E-16, -1.000000000000000000 ) ) ;
#116 = DIRECTION ( 'NONE',  ( 4.275831445896958607E-31, 1.000000000000000000, 1.224646799147353207E-16 ) ) ;
#117 = ADVANCED_FACE ( 'NONE', ( #326 ), #257, .T. ) ;
#118 = DIRECTION ( 'NONE',  ( -3.491481338843133355E-15, 1.224646799147353207E-16, -1.000000000000000000 ) ) ;
#119 = ORIENTED_EDGE ( 'NONE', *, *, #268, .T. ) ;
#120 = APPROVAL_PERSON_ORGANIZATION ( #240, #244, #105 ) ;
#121 = AXIS2_PLACEMENT_3D ( 'NONE', #292, #115, #64 ) ;
#122 = FACE_OUTER_BOUND ( 'NONE', #160, .T. ) ;
#123 = ORIENTED_EDGE ( 'NONE', *, *, #241, .T. ) ;
#124 = DIRECTION ( 'NONE',  ( 3.491481338843133355E-15, -1.224646799147353207E-16, 1.000000000000000000 ) ) ;
#125 = PRODUCT_DEFINITION ( 'UNKNOWN', '', #322, #330 ) ;
#126 = DIRECTION ( 'NONE',  ( -3.491481338843133355E-15, 1.224646799147353207E-16, -1.000000000000000000 ) ) ;
#127 = AXIS2_PLACEMENT_3D ( 'NONE', #153, #201, #302 ) ;
#128 = APPROVAL_STATUS ( 'not_yet_approved' ) ;
#129 = CYLINDRICAL_SURFACE ( 'NONE', #58, 1.549999999999994937 ) ;
#130 = ORIENTED_EDGE ( 'NONE', *, *, #311, .T. ) ;
#131 = DATE_AND_TIME ( #106, #296 ) ;
#132 = CC_DESIGN_PERSON_AND_ORGANIZATION_ASSIGNMENT ( #226, #193, ( #307 ) ) ;
#133 = DIRECTION ( 'NONE',  ( -3.491481338843133355E-15, 1.224646799147353207E-16, -1.000000000000000000 ) ) ;
#134 = AXIS2_PLACEMENT_3D ( 'NONE', #323, #267, #245 ) ;
#135 = DIRECTION ( 'NONE',  ( -3.491481338843133355E-15, 1.224646799147353207E-16, -1.000000000000000000 ) ) ;
#136 = ADVANCED_FACE ( 'NONE', ( #97 ), #19, .T. ) ;
#137 = PERSON ( 'UNSPECIFIED', 'UNSPECIFIED', 'UNSPECIFIED', ('UNSPECIFIED'), ('UNSPECIFIED'), ('UNSPECIFIED') ) ;
#138 = CARTESIAN_POINT ( 'NONE',  ( 3.441555393667576754E-15, 1.549999999999994049, 0.9313339594927254605 ) ) ;
#139 = CARTESIAN_POINT ( 'NONE',  ( 4.888073874380386697E-14, 1.162313831562933899E-32, 14.00000000000000000 ) ) ;
#140 = VECTOR ( 'NONE', #69, 1000.000000000000000 ) ;
#141 = AXIS2_PLACEMENT_3D ( 'NONE', #188, #269, #93 ) ;
#142 = DIRECTION ( 'NONE',  ( -4.970141791967078404E-31, -1.000000000000000000, -1.398970545142591472E-16 ) ) ;
#143 = ORIENTED_EDGE ( 'NONE', *, *, #216, .T. ) ;
#144 = DIRECTION ( 'NONE',  ( 4.275831445896958607E-31, 1.000000000000000000, 1.224646799147353207E-16 ) ) ;
#145 = DIRECTION ( 'NONE',  ( -2.468850131082258244E-15, 0.7071067811865495711, -0.7071067811865454633 ) ) ;
#146 = AXIS2_PLACEMENT_3D ( 'NONE', #49, #72, #148 ) ;
#147 = ORIENTED_EDGE ( 'NONE', *, *, #255, .F. ) ;
#148 = DIRECTION ( 'NONE',  ( 0.0000000000000000000, 1.000000000000000000, 0.0000000000000000000 ) ) ;
#149 = DIRECTION ( 'NONE',  ( -3.491481338843133355E-15, 1.224646799147353207E-16, -1.000000000000000000 ) ) ;
#150 = CLOSED_SHELL ( 'NONE', ( #117, #136, #208, #315, #157, #162 ) ) ;
#151 = LOCAL_TIME ( 9, 49, 49.00000000000000000, #260 ) ;
#152 = CONICAL_SURFACE ( 'NONE', #236, 1.549999999999994271, 1.029744258676649649 ) ;
#153 = CARTESIAN_POINT ( 'NONE',  ( 0.0000000000000000000, 0.0000000000000000000, 0.0000000000000000000 ) ) ;
#154 = EDGE_CURVE ( 'NONE', #253, #184, #108, .T. ) ;
#155 = ORIENTED_EDGE ( 'NONE', *, *, #57, .F. ) ;
#156 = ORIENTED_EDGE ( 'NONE', *, *, #31, .T. ) ;
#157 = ADVANCED_FACE ( 'NONE', ( #320 ), #222, .T. ) ;
#158 = DATE_TIME_ROLE ( 'creation_date' ) ;
#159 = APPROVAL ( #329, 'UNSPECIFIED' ) ;
#160 = EDGE_LOOP ( 'NONE', ( #98, #206 ) ) ;
#161 = DIRECTION ( 'NONE',  ( 0.0000000000000000000, 1.000000000000000000, 0.0000000000000000000 ) ) ;
#162 = ADVANCED_FACE ( 'NONE', ( #186 ), #191, .F. ) ;
#163 = DIRECTION ( 'NONE',  ( 3.491481338843133355E-15, -1.224646799147353207E-16, 1.000000000000000000 ) ) ;
#164 = CIRCLE ( 'NONE', #47, 1.550000000000000044 ) ;
#165 = DIRECTION ( 'NONE',  ( -3.491481338843133355E-15, 1.224646799147353207E-16, -1.000000000000000000 ) ) ;
#166 = CARTESIAN_POINT ( 'NONE',  ( 4.888073874380386697E-14, -1.714505518806294638E-15, 14.00000000000000000 ) ) ;
#167 = DIRECTION ( 'NONE',  ( -4.275831445896958607E-31, -1.000000000000000000, -1.224646799147353207E-16 ) ) ;
#168 = ADVANCED_FACE ( 'NONE', ( #248 ), #152, .T. ) ;
#169 = DIRECTION ( 'NONE',  ( 1.798245827342160317E-15, -0.8571673007021098911, 0.5150380749100582634 ) ) ;
#170 = DIRECTION ( 'NONE',  ( 0.0000000000000000000, 1.000000000000000000, 0.0000000000000000000 ) ) ;
#171 = AXIS2_PLACEMENT_3D ( 'NONE', #43, #291, #142 ) ;
#172 = CYLINDRICAL_SURFACE ( 'NONE', #16, 1.549999999999998046 ) ;
#173 = CALENDAR_DATE ( 2021, 3, 9 ) ;
#174 = CALENDAR_DATE ( 2021, 3, 9 ) ;
#175 = EDGE_LOOP ( 'NONE', ( #11, #143, #228 ) ) ;
#176 = CC_DESIGN_DATE_AND_TIME_ASSIGNMENT ( #131, #3, ( #90 ) ) ;
#177 = COORDINATED_UNIVERSAL_TIME_OFFSET ( 1, 0, .AHEAD. ) ;
#178 = CARTESIAN_POINT ( 'NONE',  ( 4.888073874380386697E-14, -1.714505518806294638E-15, 14.00000000000000000 ) ) ;
#179 = ORIENTED_EDGE ( 'NONE', *, *, #311, .F. ) ;
#180 = EDGE_LOOP ( 'NONE', ( #60, #103 ) ) ;
#181 = VERTEX_POINT ( 'NONE', #221 ) ;
#182 = AXIS2_PLACEMENT_3D ( 'NONE', #20, #44, #144 ) ;
#183 = ORIENTED_EDGE ( 'NONE', *, *, #258, .T. ) ;
#184 = VERTEX_POINT ( 'NONE', #192 ) ;
#185 = CARTESIAN_POINT ( 'NONE',  ( 6.627538741140277170E-31, 1.549999999999998046, 1.898202538678394994E-16 ) ) ;
#186 = FACE_OUTER_BOUND ( 'NONE', #180, .T. ) ;
#187 = AXIS2_PLACEMENT_3D ( 'NONE', #295, #165, #114 ) ;
#188 = CARTESIAN_POINT ( 'NONE',  ( 0.0000000000000000000, 0.0000000000000000000, 0.0000000000000000000 ) ) ;
#189 = CARTESIAN_POINT ( 'NONE',  ( 1.710825856033135470E-13, 1.149999999999994138, 49.00000000000000000 ) ) ;
#190 = CIRCLE ( 'NONE', #65, 1.150000000000000133 ) ;
#191 = PLANE ( 'NONE',  #121 ) ;
#192 = CARTESIAN_POINT ( 'NONE',  ( 4.888073874380386697E-14, 1.549999999999994049, 14.00000000000000000 ) ) ;
#193 = PERSON_AND_ORGANIZATION_ROLE ( 'design_owner' ) ;
#194 = ORIENTED_EDGE ( 'NONE', *, *, #255, .T. ) ;
#195 =( NAMED_UNIT ( * ) SI_UNIT ( $, .STERADIAN. ) SOLID_ANGLE_UNIT ( ) );
#196 = CIRCLE ( 'NONE', #275, 1.549999999999995826 ) ;
#197 = VECTOR ( 'NONE', #12, 1000.000000000000000 ) ;
#198 = APPLICATION_PROTOCOL_DEFINITION ( 'international standard', 'config_control_design', 1994, #45 ) ;
#199 = CARTESIAN_POINT ( 'NONE',  ( 1.710825856033135470E-13, 1.149999999999994138, 49.00000000000000000 ) ) ;
#200 = EDGE_LOOP ( 'NONE', ( #155, #156, #80, #70 ) ) ;
#201 = DIRECTION ( 'NONE',  ( 0.0000000000000000000, 0.0000000000000000000, 1.000000000000000000 ) ) ;
#202 = AXIS2_PLACEMENT_3D ( 'NONE', #223, #118, #259 ) ;
#203 = APPROVAL_STATUS ( 'not_yet_approved' ) ;
#204 = LINE ( 'NONE', #243, #197 ) ;
#205 = DATE_AND_TIME ( #83, #313 ) ;
#206 = ORIENTED_EDGE ( 'NONE', *, *, #31, .F. ) ;
#207 = ORIENTED_EDGE ( 'NONE', *, *, #18, .T. ) ;
#208 = ADVANCED_FACE ( 'NONE', ( #89 ), #299, .F. ) ;
#209 = COORDINATED_UNIVERSAL_TIME_OFFSET ( 1, 0, .AHEAD. ) ;
#210 = CLOSED_SHELL ( 'NONE', ( #249, #168, #230, #74, #334 ) ) ;
#211 = ORIENTED_EDGE ( 'NONE', *, *, #57, .T. ) ;
#212 = CARTESIAN_POINT ( 'NONE',  ( 0.0000000000000000000, 0.0000000000000000000, 0.0000000000000000000 ) ) ;
#213 = CARTESIAN_POINT ( 'NONE',  ( 1.710825856033135470E-13, -6.000769315822030937E-15, 49.00000000000000000 ) ) ;
#214 = AXIS2_PLACEMENT_3D ( 'NONE', #22, #124, #277 ) ;
#215 = DIRECTION ( 'NONE',  ( -3.491481338843133355E-15, 1.224646799147353207E-16, -1.000000000000000000 ) ) ;
#216 = EDGE_CURVE ( 'NONE', #181, #54, #219, .T. ) ;
#217 = DIRECTION ( 'NONE',  ( -3.491481338843133355E-15, 1.224646799147353207E-16, -1.000000000000000000 ) ) ;
#218 = CC_DESIGN_PERSON_AND_ORGANIZATION_ASSIGNMENT ( #10, #77, ( #322 ) ) ;
#219 = LINE ( 'NONE', #325, #91 ) ;
#220 = AXIS2_PLACEMENT_3D ( 'NONE', #110, #252, #170 ) ;
#221 = CARTESIAN_POINT ( 'NONE',  ( 0.0000000000000000000, 0.0000000000000000000, 0.0000000000000000000 ) ) ;
#222 = CONICAL_SURFACE ( 'NONE', #187, 1.150000000000000133, 0.7853981633974510546 ) ;
#223 = CARTESIAN_POINT ( 'NONE',  ( 1.696859930677762937E-13, -5.951783443856137509E-15, 48.60000000000000142 ) ) ;
#224 = EDGE_CURVE ( 'NONE', #298, #101, #266, .T. ) ;
#225 = COORDINATED_UNIVERSAL_TIME_OFFSET ( 1, 0, .AHEAD. ) ;
#226 = PERSON_AND_ORGANIZATION ( #137, #61 ) ;
#227 = APPROVAL_PERSON_ORGANIZATION ( #306, #52, #285 ) ;
#228 = ORIENTED_EDGE ( 'NONE', *, *, #2, .T. ) ;
#229 = VECTOR ( 'NONE', #126, 1000.000000000000000 ) ;
#230 = ADVANCED_FACE ( 'NONE', ( #39 ), #71, .T. ) ;
#231 = PLANE ( 'NONE',  #214 ) ;
#232 = ORIENTED_EDGE ( 'NONE', *, *, #331, .T. ) ;
#233 = EDGE_LOOP ( 'NONE', ( #81, #123, #328 ) ) ;
#234 = DIRECTION ( 'NONE',  ( 0.0000000000000000000, 1.000000000000000000, 0.0000000000000000000 ) ) ;
#235 = CC_DESIGN_APPROVAL ( #159, ( #125 ) ) ;
#236 = AXIS2_PLACEMENT_3D ( 'NONE', #63, #40, #324 ) ;
#237 = EDGE_LOOP ( 'NONE', ( #286, #211, #317, #24 ) ) ;
#238 = DATE_AND_TIME ( #174, #56 ) ;
#239 = DIRECTION ( 'NONE',  ( 4.970141791967078404E-31, 1.000000000000000000, 1.398970545142591472E-16 ) ) ;
#240 = PERSON_AND_ORGANIZATION ( #137, #61 ) ;
#241 = EDGE_CURVE ( 'NONE', #181, #101, #297, .T. ) ;
#242 = AXIS2_PLACEMENT_3D ( 'NONE', #262, #30, #239 ) ;
#243 = CARTESIAN_POINT ( 'NONE',  ( 1.898202538678384886E-16, -1.549999999999994937, -1.898202538678397952E-16 ) ) ;
#244 = APPROVAL ( #128, 'UNSPECIFIED' ) ;
#245 = DIRECTION ( 'NONE',  ( 4.970141791967078404E-31, 1.000000000000000000, 1.398970545142591472E-16 ) ) ;
#246 = DIRECTION ( 'NONE',  ( -3.491481338843133355E-15, 1.224646799147353207E-16, -1.000000000000000000 ) ) ;
#247 = CARTESIAN_POINT ( 'NONE',  ( 6.627538741140264032E-31, 1.549999999999994937, 1.898202538678391296E-16 ) ) ;
#248 = FACE_OUTER_BOUND ( 'NONE', #233, .T. ) ;
#249 = ADVANCED_FACE ( 'NONE', ( #94 ), #272, .T. ) ;
#250 = CARTESIAN_POINT ( 'NONE',  ( 1.094731861596578807E-13, -1.549999999999997602, 14.00000000000000000 ) ) ;
#251 = CC_DESIGN_APPROVAL ( #244, ( #90 ) ) ;
#252 = DIRECTION ( 'NONE',  ( -3.491481338843133355E-15, 1.224646799147353207E-16, -1.000000000000000000 ) ) ;
#253 = VERTEX_POINT ( 'NONE', #250 ) ;
#254 = FACE_OUTER_BOUND ( 'NONE', #82, .T. ) ;
#255 = EDGE_CURVE ( 'NONE', #184, #253, #196, .T. ) ;
#256 = CARTESIAN_POINT ( 'NONE',  ( 0.0000000000000000000, 0.0000000000000000000, 0.0000000000000000000 ) ) ;
#257 = CONICAL_SURFACE ( 'NONE', #337, 1.150000000000000133, 0.7853981633974510546 ) ;
#258 = EDGE_CURVE ( 'NONE', #79, #6, #46, .T. ) ;
#259 = DIRECTION ( 'NONE',  ( 0.0000000000000000000, 1.000000000000000000, 0.0000000000000000000 ) ) ;
#260 = COORDINATED_UNIVERSAL_TIME_OFFSET ( 1, 0, .AHEAD. ) ;
#261 = LINE ( 'NONE', #185, #229 ) ;
#262 = CARTESIAN_POINT ( 'NONE',  ( 3.251735139799736958E-15, -1.140555152429996458E-16, 0.9313339594927252385 ) ) ;
#263 = PERSON_AND_ORGANIZATION_ROLE ( 'creator' ) ;
#264 = CARTESIAN_POINT ( 'NONE',  ( 1.696859930677762937E-13, -5.951783443856137509E-15, 48.60000000000000142 ) ) ;
#265 = VECTOR ( 'NONE', #149, 1000.000000000000000 ) ;
#266 = LINE ( 'NONE', #247, #4 ) ;
#267 = DIRECTION ( 'NONE',  ( -3.491481338843133355E-15, 1.224646799147353207E-16, -1.000000000000000000 ) ) ;
#268 = EDGE_CURVE ( 'NONE', #79, #107, #27, .T. ) ;
#269 = DIRECTION ( 'NONE',  ( -3.491481338843133355E-15, 1.224646799147353207E-16, -1.000000000000000000 ) ) ;
#270 = ORIENTED_EDGE ( 'NONE', *, *, #34, .T. ) ;
#271 = DIRECTION ( 'NONE',  ( -3.491481338843133355E-15, 1.224646799147353207E-16, -1.000000000000000000 ) ) ;
#272 = CYLINDRICAL_SURFACE ( 'NONE', #182, 1.549999999999994937 ) ;
#273 = UNCERTAINTY_MEASURE_WITH_UNIT (LENGTH_MEASURE( 1.000000000000000082E-05 ), #336, 'distance_accuracy_value', 'NONE');
#274 = CARTESIAN_POINT ( 'NONE',  ( 1.094731861596577671E-13, -1.550000000000005596, 48.60000000000000142 ) ) ;
#275 = AXIS2_PLACEMENT_3D ( 'NONE', #38, #135, #13 ) ;
#276 = APPROVAL_ROLE ( '' ) ;
#277 = DIRECTION ( 'NONE',  ( -4.275831445896958607E-31, -1.000000000000000000, -1.224646799147353207E-16 ) ) ;
#278 = EDGE_CURVE ( 'NONE', #298, #15, #305, .T. ) ;
#279 = APPLICATION_PROTOCOL_DEFINITION ( 'international standard', 'config_control_design', 1994, #55 ) ;
#280 = CC_DESIGN_PERSON_AND_ORGANIZATION_ASSIGNMENT ( #301, #78, ( #125 ) ) ;
#281 = CARTESIAN_POINT ( 'NONE',  ( 1.712234199852155013E-13, -1.150000000000006350, 49.00000000000000000 ) ) ;
#282 = VECTOR ( 'NONE', #14, 999.9999999999998863 ) ;
#283 = CIRCLE ( 'NONE', #134, 1.549999999999994271 ) ;
#284 = ORIENTED_EDGE ( 'NONE', *, *, #290, .T. ) ;
#285 = APPROVAL_ROLE ( '' ) ;
#286 = ORIENTED_EDGE ( 'NONE', *, *, #278, .T. ) ;
#287 = AXIS2_PLACEMENT_3D ( 'NONE', #166, #246, #113 ) ;
#288 = EDGE_LOOP ( 'NONE', ( #333, #312, #119, #28 ) ) ;
#289 = DIRECTION ( 'NONE',  ( -3.491481338843133355E-15, 1.224646799147353207E-16, -1.000000000000000000 ) ) ;
#290 = EDGE_CURVE ( 'NONE', #6, #318, #300, .T. ) ;
#291 = DIRECTION ( 'NONE',  ( 3.491481338843133355E-15, -1.224646799147353207E-16, 1.000000000000000000 ) ) ;
#292 = CARTESIAN_POINT ( 'NONE',  ( 1.710825856033135470E-13, 8.623618750305592295E-33, 49.00000000000000000 ) ) ;
#293 = PRODUCT_DEFINITION_SHAPE ( 'NONE', 'NONE',  #125 ) ;
#294 = ADVANCED_BREP_SHAPE_REPRESENTATION ( '54545', ( #321, #319, #127 ), #335 ) ;
#295 = CARTESIAN_POINT ( 'NONE',  ( 1.710825856033135470E-13, -6.000769315822030937E-15, 49.00000000000000000 ) ) ;
#296 = LOCAL_TIME ( 9, 49, 49.00000000000000000, #53 ) ;
#297 = LINE ( 'NONE', #138, #282 ) ;
#298 = VERTEX_POINT ( 'NONE', #1 ) ;
#299 = PLANE ( 'NONE',  #36 ) ;
#300 = LINE ( 'NONE', #281, #140 ) ;
#301 = PERSON_AND_ORGANIZATION ( #137, #61 ) ;
#302 = DIRECTION ( 'NONE',  ( 1.000000000000000000, 0.0000000000000000000, 0.0000000000000000000 ) ) ;
#303 = ORIENTED_EDGE ( 'NONE', *, *, #34, .F. ) ;
#304 = PERSON_AND_ORGANIZATION ( #137, #61 ) ;
#305 = CIRCLE ( 'NONE', #146, 1.549999999999995826 ) ;
#306 = PERSON_AND_ORGANIZATION ( #137, #61 ) ;
#307 = PRODUCT ( '54545', '54545', '', ( #68 ) ) ;
#308 = CALENDAR_DATE ( 2021, 3, 9 ) ;
#309 = ORIENTED_EDGE ( 'NONE', *, *, #154, .F. ) ;
#310 = PERSON_AND_ORGANIZATION ( #137, #61 ) ;
#311 = EDGE_CURVE ( 'NONE', #318, #253, #50, .T. ) ;
#312 = ORIENTED_EDGE ( 'NONE', *, *, #100, .T. ) ;
#313 = LOCAL_TIME ( 9, 49, 49.00000000000000000, #209 ) ;
#314 = APPROVAL_DATE_TIME ( #205, #244 ) ;
#315 = ADVANCED_FACE ( 'NONE', ( #254 ), #172, .T. ) ;
#316 = CARTESIAN_POINT ( 'NONE',  ( 1.705496166534298040E-13, -1.150000000000006350, 49.00000000000000000 ) ) ;
#317 = ORIENTED_EDGE ( 'NONE', *, *, #95, .F. ) ;
#318 = VERTEX_POINT ( 'NONE', #274 ) ;
#319 = MANIFOLD_SOLID_BREP ( 'Corps-Déplacer/Copier1[2]', #210 ) ;
#320 = FACE_OUTER_BOUND ( 'NONE', #288, .T. ) ;
#321 = MANIFOLD_SOLID_BREP ( 'Corps-Déplacer/Copier1[1]', #150 ) ;
#322 = PRODUCT_DEFINITION_FORMATION_WITH_SPECIFIED_SOURCE ( 'ANY', '', #307, .NOT_KNOWN. ) ;
#323 = CARTESIAN_POINT ( 'NONE',  ( 3.251735139799736958E-15, -1.140555152429996458E-16, 0.9313339594927252385 ) ) ;
#324 = DIRECTION ( 'NONE',  ( -4.970141791967078404E-31, -1.000000000000000000, -1.398970545142591472E-16 ) ) ;
#325 = CARTESIAN_POINT ( 'NONE',  ( 3.251735139799736170E-15, -1.549999999999994493, 0.9313339594927250165 ) ) ;
#326 = FACE_OUTER_BOUND ( 'NONE', #32, .T. ) ;
#327 = CIRCLE ( 'NONE', #242, 1.549999999999994271 ) ;
#328 = ORIENTED_EDGE ( 'NONE', *, *, #95, .T. ) ;
#329 = APPROVAL_STATUS ( 'not_yet_approved' ) ;
#330 = DESIGN_CONTEXT ( 'detailed design', #55, 'design' ) ;
#331 = EDGE_CURVE ( 'NONE', #318, #107, #25, .T. ) ;
#332 = DATE_AND_TIME ( #173, #112 ) ;
#333 = ORIENTED_EDGE ( 'NONE', *, *, #290, .F. ) ;
#334 = ADVANCED_FACE ( 'NONE', ( #122 ), #231, .T. ) ;
#335 =( GEOMETRIC_REPRESENTATION_CONTEXT ( 3 ) GLOBAL_UNCERTAINTY_ASSIGNED_CONTEXT ( ( #273 ) ) GLOBAL_UNIT_ASSIGNED_CONTEXT ( ( #336, #21, #195 ) ) REPRESENTATION_CONTEXT ( 'NONE', 'WORKASPACE' ) );
#336 =( LENGTH_UNIT ( ) NAMED_UNIT ( * ) SI_UNIT ( .MILLI., .METRE. ) );
#337 = AXIS2_PLACEMENT_3D ( 'NONE', #213, #215, #67 ) ;
ENDSEC;
END-ISO-10303-21;
