ISO-10303-21;
HEADER;
FILE_DESCRIPTION (( 'STEP AP203' ),
    '1' );
FILE_NAME ('54544.step',
    '2021-09-03T07:49:46',
    ( '' ),
    ( '' ),
    'SwSTEP 2.0',
    'SolidWorks 2019',
    '' );
FILE_SCHEMA (( 'CONFIG_CONTROL_DESIGN' ));
ENDSEC;

DATA;
#1 = EDGE_CURVE ( 'NONE', #258, #172, #54, .T. ) ;
#2 = CC_DESIGN_APPROVAL ( #298, ( #155 ) ) ;
#3 = CYLINDRICAL_SURFACE ( 'NONE', #33, 1.524999999999995026 ) ;
#4 = CC_DESIGN_SECURITY_CLASSIFICATION ( #132, ( #155 ) ) ;
#5 = AXIS2_PLACEMENT_3D ( 'NONE', #292, #46, #181 ) ;
#6 = DIRECTION ( 'NONE',  ( -3.491481338843133355E-15, 1.224646799147353207E-16, -1.000000000000000000 ) ) ;
#7 = CC_DESIGN_DATE_AND_TIME_ASSIGNMENT ( #123, #326, ( #132 ) ) ;
#8 = LINE ( 'NONE', #273, #278 ) ;
#9 = CIRCLE ( 'NONE', #205, 1.524999999999995914 ) ;
#10 = DIRECTION ( 'NONE',  ( 0.0000000000000000000, 1.000000000000000000, 0.0000000000000000000 ) ) ;
#11 = APPROVAL_DATE_TIME ( #171, #203 ) ;
#12 = COORDINATED_UNIVERSAL_TIME_OFFSET ( 1, 0, .AHEAD. ) ;
#13 = EDGE_LOOP ( 'NONE', ( #231, #151, #98, #170 ) ) ;
#14 = ADVANCED_BREP_SHAPE_REPRESENTATION ( '54544', ( #200, #86, #99 ), #113 ) ;
#15 = CALENDAR_DATE ( 2021, 3, 9 ) ;
#16 = EDGE_LOOP ( 'NONE', ( #71, #41, #262, #35 ) ) ;
#17 = SECURITY_CLASSIFICATION_LEVEL ( 'unclassified' ) ;
#18 = ORIENTED_EDGE ( 'NONE', *, *, #69, .T. ) ;
#19 = PRODUCT_DEFINITION_SHAPE ( 'NONE', 'NONE',  #107 ) ;
#20 = ORIENTED_EDGE ( 'NONE', *, *, #178, .F. ) ;
#21 = CARTESIAN_POINT ( 'NONE',  ( 1.696859930677762937E-13, -5.951783443856137509E-15, 48.60000000000000142 ) ) ;
#22 = AXIS2_PLACEMENT_3D ( 'NONE', #135, #109, #216 ) ;
#23 = CARTESIAN_POINT ( 'NONE',  ( 6.520642954992854474E-31, 1.524999999999998135, 1.867586368699711354E-16 ) ) ;
#24 = CARTESIAN_POINT ( 'NONE',  ( 1.710825856033135470E-13, -6.000769315822030937E-15, 49.00000000000000000 ) ) ;
#25 = CC_DESIGN_APPROVAL ( #203, ( #107 ) ) ;
#26 = DIRECTION ( 'NONE',  ( -3.491481338843133355E-15, 1.224646799147353207E-16, -1.000000000000000000 ) ) ;
#27 = DIRECTION ( 'NONE',  ( 1.798245827342159528E-15, -0.8571673007021100021, 0.5150380749100580413 ) ) ;
#28 = DIRECTION ( 'NONE',  ( -3.491481338843133355E-15, 1.224646799147353207E-16, -1.000000000000000000 ) ) ;
#29 = LOCAL_TIME ( 9, 49, 46.00000000000000000, #150 ) ;
#30 = PLANE ( 'NONE',  #142 ) ;
#31 = CARTESIAN_POINT ( 'NONE',  ( 0.0000000000000000000, 0.0000000000000000000, 0.0000000000000000000 ) ) ;
#32 = LOCAL_TIME ( 9, 49, 46.00000000000000000, #12 ) ;
#33 = AXIS2_PLACEMENT_3D ( 'NONE', #138, #6, #59 ) ;
#34 = APPROVAL_DATE_TIME ( #121, #290 ) ;
#35 = ORIENTED_EDGE ( 'NONE', *, *, #274, .F. ) ;
#36 = PERSON_AND_ORGANIZATION ( #167, #47 ) ;
#37 = EDGE_LOOP ( 'NONE', ( #67, #255, #125, #206 ) ) ;
#38 = LOCAL_TIME ( 9, 49, 46.00000000000000000, #279 ) ;
#39 = DIRECTION ( 'NONE',  ( 0.0000000000000000000, 0.0000000000000000000, 1.000000000000000000 ) ) ;
#40 = EDGE_LOOP ( 'NONE', ( #252, #120 ) ) ;
#41 = ORIENTED_EDGE ( 'NONE', *, *, #313, .T. ) ;
#42 = EDGE_LOOP ( 'NONE', ( #227, #277, #331, #20 ) ) ;
#43 = DIRECTION ( 'NONE',  ( -5.051619526261620874E-31, -1.000000000000000000, -1.421904488505584831E-16 ) ) ;
#44 = CONICAL_SURFACE ( 'NONE', #246, 1.125000000000000444, 0.7853981633974510546 ) ;
#45 = ADVANCED_FACE ( 'NONE', ( #145 ), #226, .T. ) ;
#46 = DIRECTION ( 'NONE',  ( -3.491481338843133355E-15, 1.224646799147353207E-16, -1.000000000000000000 ) ) ;
#47 = ORGANIZATION ( 'UNSPECIFIED', 'UNSPECIFIED', '' ) ;
#48 = DIRECTION ( 'NONE',  ( 3.491481338843133355E-15, -1.224646799147353207E-16, 1.000000000000000000 ) ) ;
#49 = CONICAL_SURFACE ( 'NONE', #217, 1.125000000000000444, 0.7853981633974510546 ) ;
#50 = CC_DESIGN_PERSON_AND_ORGANIZATION_ASSIGNMENT ( #36, #257, ( #155 ) ) ;
#51 = CC_DESIGN_APPROVAL ( #290, ( #132 ) ) ;
#52 = CARTESIAN_POINT ( 'NONE',  ( 4.888073874380386697E-14, 1.524999999999994138, 14.00000000000000000 ) ) ;
#53 = EDGE_CURVE ( 'NONE', #122, #75, #237, .T. ) ;
#54 = CIRCLE ( 'NONE', #308, 1.525000000000000133 ) ;
#55 = DIRECTION ( 'NONE',  ( 3.491481338843133355E-15, -1.224646799147353207E-16, 1.000000000000000000 ) ) ;
#56 = FACE_OUTER_BOUND ( 'NONE', #179, .T. ) ;
#57 = DIRECTION ( 'NONE',  ( 4.275831445896958607E-31, 1.000000000000000000, 1.224646799147353207E-16 ) ) ;
#58 = CARTESIAN_POINT ( 'NONE',  ( 1.094701245426598804E-13, -1.525000000000006128, 48.60000000000000142 ) ) ;
#59 = DIRECTION ( 'NONE',  ( 4.275831445896958607E-31, 1.000000000000000000, 1.224646799147353207E-16 ) ) ;
#60 = DIRECTION ( 'NONE',  ( -3.491481338843133355E-15, 1.224646799147353207E-16, -1.000000000000000000 ) ) ;
#61 = CC_DESIGN_PERSON_AND_ORGANIZATION_ASSIGNMENT ( #97, #330, ( #107 ) ) ;
#62 = CIRCLE ( 'NONE', #300, 1.524999999999995914 ) ;
#63 = AXIS2_PLACEMENT_3D ( 'NONE', #293, #55, #127 ) ;
#64 = APPROVAL_ROLE ( '' ) ;
#65 = ORIENTED_EDGE ( 'NONE', *, *, #204, .T. ) ;
#66 = PERSON_AND_ORGANIZATION_ROLE ( 'design_owner' ) ;
#67 = ORIENTED_EDGE ( 'NONE', *, *, #215, .T. ) ;
#68 = ADVANCED_FACE ( 'NONE', ( #315 ), #182, .T. ) ;
#69 = EDGE_CURVE ( 'NONE', #103, #286, #207, .T. ) ;
#70 = APPLICATION_PROTOCOL_DEFINITION ( 'international standard', 'config_control_design', 1994, #128 ) ;
#71 = ORIENTED_EDGE ( 'NONE', *, *, #53, .T. ) ;
#72 = CALENDAR_DATE ( 2021, 3, 9 ) ;
#73 = AXIS2_PLACEMENT_3D ( 'NONE', #333, #26, #312 ) ;
#74 = VERTEX_POINT ( 'NONE', #162 ) ;
#75 = VERTEX_POINT ( 'NONE', #130 ) ;
#76 = DIRECTION ( 'NONE',  ( 1.903218546456021928E-15, 0.8571673007021098911, 0.5150380749100583744 ) ) ;
#77 = DIRECTION ( 'NONE',  ( -3.491481338843133355E-15, 1.224646799147353207E-16, -1.000000000000000000 ) ) ;
#78 = CARTESIAN_POINT ( 'NONE',  ( 1.710825856033135470E-13, -6.000769315822030937E-15, 49.00000000000000000 ) ) ;
#79 = EDGE_CURVE ( 'NONE', #286, #103, #89, .T. ) ;
#80 = CARTESIAN_POINT ( 'NONE',  ( 1.710825856033135470E-13, 1.124999999999994227, 49.00000000000000000 ) ) ;
#81 = AXIS2_PLACEMENT_3D ( 'NONE', #191, #301, #241 ) ;
#82 = PLANE ( 'NONE',  #63 ) ;
#83 = VECTOR ( 'NONE', #184, 1000.000000000000000 ) ;
#84 = CARTESIAN_POINT ( 'NONE',  ( 3.199287798835224360E-15, -1.122159101584351437E-16, 0.9163124440170360430 ) ) ;
#85 = DIRECTION ( 'NONE',  ( -3.491481338843133355E-15, 1.224646799147353207E-16, -1.000000000000000000 ) ) ;
#86 = MANIFOLD_SOLID_BREP ( 'Corps-Déplacer/Copier1[2]', #294 ) ;
#87 = LOCAL_TIME ( 9, 49, 46.00000000000000000, #324 ) ;
#88 = CARTESIAN_POINT ( 'NONE',  ( 1.710825856033135470E-13, 8.436148777472861463E-33, 49.00000000000000000 ) ) ;
#89 = CIRCLE ( 'NONE', #197, 1.125000000000000444 ) ;
#90 = DIRECTION ( 'NONE',  ( -3.491481338843133355E-15, 1.224646799147353207E-16, -1.000000000000000000 ) ) ;
#91 = CC_DESIGN_DATE_AND_TIME_ASSIGNMENT ( #201, #169, ( #107 ) ) ;
#92 = DIRECTION ( 'NONE',  ( 3.491481338843133355E-15, -1.224646799147353207E-16, 1.000000000000000000 ) ) ;
#93 = CARTESIAN_POINT ( 'NONE',  ( 0.0000000000000000000, 0.0000000000000000000, 0.0000000000000000000 ) ) ;
#94 = ORIENTED_EDGE ( 'NONE', *, *, #214, .F. ) ;
#95 = CIRCLE ( 'NONE', #73, 1.524999999999994360 ) ;
#96 = ORIENTED_EDGE ( 'NONE', *, *, #190, .T. ) ;
#97 = PERSON_AND_ORGANIZATION ( #167, #47 ) ;
#98 = ORIENTED_EDGE ( 'NONE', *, *, #214, .T. ) ;
#99 = AXIS2_PLACEMENT_3D ( 'NONE', #93, #39, #176 ) ;
#100 = PERSON_AND_ORGANIZATION_ROLE ( 'design_supplier' ) ;
#101 = EDGE_LOOP ( 'NONE', ( #154, #232 ) ) ;
#102 = VECTOR ( 'NONE', #27, 1000.000000000000000 ) ;
#103 = VERTEX_POINT ( 'NONE', #336 ) ;
#104 = CARTESIAN_POINT ( 'NONE',  ( 4.888073874380386697E-14, -1.714505518806294638E-15, 14.00000000000000000 ) ) ;
#105 = CARTESIAN_POINT ( 'NONE',  ( 3.199287798835224360E-15, -1.122159101584351437E-16, 0.9163124440170360430 ) ) ;
#106 = CARTESIAN_POINT ( 'NONE',  ( 0.0000000000000000000, 0.0000000000000000000, 0.0000000000000000000 ) ) ;
#107 = PRODUCT_DEFINITION ( 'UNKNOWN', '', #155, #139 ) ;
#108 = FACE_OUTER_BOUND ( 'NONE', #180, .T. ) ;
#109 = DIRECTION ( 'NONE',  ( -3.491481338843133355E-15, 1.224646799147353207E-16, -1.000000000000000000 ) ) ;
#110 = APPROVAL_PERSON_ORGANIZATION ( #119, #290, #322 ) ;
#111 = DIRECTION ( 'NONE',  ( -3.491481338843133355E-15, 1.224646799147353207E-16, -1.000000000000000000 ) ) ;
#112 = APPLICATION_PROTOCOL_DEFINITION ( 'international standard', 'config_control_design', 1994, #263 ) ;
#113 =( GEOMETRIC_REPRESENTATION_CONTEXT ( 3 ) GLOBAL_UNCERTAINTY_ASSIGNED_CONTEXT ( ( #256 ) ) GLOBAL_UNIT_ASSIGNED_CONTEXT ( ( #141, #245, #136 ) ) REPRESENTATION_CONTEXT ( 'NONE', 'WORKASPACE' ) );
#114 = LINE ( 'NONE', #218, #259 ) ;
#115 = CARTESIAN_POINT ( 'NONE',  ( 4.888073874380386697E-14, -1.714505518806294638E-15, 14.00000000000000000 ) ) ;
#116 = CIRCLE ( 'NONE', #160, 1.524999999999994360 ) ;
#117 = ADVANCED_FACE ( 'NONE', ( #108 ), #44, .T. ) ;
#118 = DIRECTION ( 'NONE',  ( 5.051619526261620874E-31, 1.000000000000000000, 1.421904488505584831E-16 ) ) ;
#119 = PERSON_AND_ORGANIZATION ( #167, #47 ) ;
#120 = ORIENTED_EDGE ( 'NONE', *, *, #266, .F. ) ;
#121 = DATE_AND_TIME ( #15, #271 ) ;
#122 = VERTEX_POINT ( 'NONE', #52 ) ;
#123 = DATE_AND_TIME ( #254, #29 ) ;
#124 = ORIENTED_EDGE ( 'NONE', *, *, #178, .T. ) ;
#125 = ORIENTED_EDGE ( 'NONE', *, *, #247, .F. ) ;
#126 = DIRECTION ( 'NONE',  ( -3.491481338843133355E-15, 1.224646799147353207E-16, -1.000000000000000000 ) ) ;
#127 = DIRECTION ( 'NONE',  ( -4.275831445896958607E-31, -1.000000000000000000, -1.224646799147353207E-16 ) ) ;
#128 = APPLICATION_CONTEXT ( 'configuration controlled 3d designs of mechanical parts and assemblies' ) ;
#129 = ADVANCED_FACE ( 'NONE', ( #270 ), #221, .T. ) ;
#130 = CARTESIAN_POINT ( 'NONE',  ( 2.622677190818948971E-14, -1.524999999999997691, 14.00000000000000000 ) ) ;
#131 = EDGE_CURVE ( 'NONE', #258, #174, #156, .T. ) ;
#132 = SECURITY_CLASSIFICATION ( '', '', #17 ) ;
#133 = LINE ( 'NONE', #187, #102 ) ;
#134 = AXIS2_PLACEMENT_3D ( 'NONE', #105, #240, #43 ) ;
#135 = CARTESIAN_POINT ( 'NONE',  ( 1.696859930677762937E-13, -5.951783443856137509E-15, 48.60000000000000142 ) ) ;
#136 =( NAMED_UNIT ( * ) SI_UNIT ( $, .STERADIAN. ) SOLID_ANGLE_UNIT ( ) );
#137 = CARTESIAN_POINT ( 'NONE',  ( 1.710825856033135470E-13, -6.000769315822030937E-15, 49.00000000000000000 ) ) ;
#138 = CARTESIAN_POINT ( 'NONE',  ( 0.0000000000000000000, 0.0000000000000000000, 0.0000000000000000000 ) ) ;
#139 = DESIGN_CONTEXT ( 'detailed design', #128, 'design' ) ;
#140 = CARTESIAN_POINT ( 'NONE',  ( 6.520642954992840461E-31, 1.524999999999995026, 1.867586368699707657E-16 ) ) ;
#141 =( LENGTH_UNIT ( ) NAMED_UNIT ( * ) SI_UNIT ( .MILLI., .METRE. ) );
#142 = AXIS2_PLACEMENT_3D ( 'NONE', #88, #60, #243 ) ;
#143 = PERSON_AND_ORGANIZATION ( #167, #47 ) ;
#144 = CALENDAR_DATE ( 2021, 3, 9 ) ;
#145 = FACE_OUTER_BOUND ( 'NONE', #37, .T. ) ;
#146 = CALENDAR_DATE ( 2021, 3, 9 ) ;
#147 = VERTEX_POINT ( 'NONE', #265 ) ;
#148 = AXIS2_PLACEMENT_3D ( 'NONE', #104, #126, #213 ) ;
#149 = APPROVAL_STATUS ( 'not_yet_approved' ) ;
#150 = COORDINATED_UNIVERSAL_TIME_OFFSET ( 1, 0, .AHEAD. ) ;
#151 = ORIENTED_EDGE ( 'NONE', *, *, #79, .T. ) ;
#152 = EDGE_CURVE ( 'NONE', #147, #328, #332, .T. ) ;
#153 = ADVANCED_FACE ( 'NONE', ( #337 ), #183, .F. ) ;
#154 = ORIENTED_EDGE ( 'NONE', *, *, #247, .T. ) ;
#155 = PRODUCT_DEFINITION_FORMATION_WITH_SPECIFIED_SOURCE ( 'ANY', '', #233, .NOT_KNOWN. ) ;
#156 = LINE ( 'NONE', #161, #242 ) ;
#157 = DIRECTION ( 'NONE',  ( -3.491481338843133355E-15, 1.224646799147353207E-16, -1.000000000000000000 ) ) ;
#158 = AXIS2_PLACEMENT_3D ( 'NONE', #189, #92, #193 ) ;
#159 = LINE ( 'NONE', #23, #288 ) ;
#160 = AXIS2_PLACEMENT_3D ( 'NONE', #84, #320, #118 ) ;
#161 = CARTESIAN_POINT ( 'NONE',  ( 1.867586368699705192E-16, -1.524999999999998135, -1.867586368699717764E-16 ) ) ;
#162 = CARTESIAN_POINT ( 'NONE',  ( 3.199287798835223965E-15, -1.524999999999994582, 0.9163124440170358209 ) ) ;
#163 = FACE_OUTER_BOUND ( 'NONE', #42, .T. ) ;
#164 = CC_DESIGN_PERSON_AND_ORGANIZATION_ASSIGNMENT ( #249, #66, ( #233 ) ) ;
#165 = FACE_OUTER_BOUND ( 'NONE', #307, .T. ) ;
#166 = CARTESIAN_POINT ( 'NONE',  ( 4.888073874380386697E-14, -1.714505518806294638E-15, 14.00000000000000000 ) ) ;
#167 = PERSON ( 'UNSPECIFIED', 'UNSPECIFIED', 'UNSPECIFIED', ('UNSPECIFIED'), ('UNSPECIFIED'), ('UNSPECIFIED') ) ;
#168 = AXIS2_PLACEMENT_3D ( 'NONE', #106, #77, #334 ) ;
#169 = DATE_TIME_ROLE ( 'creation_date' ) ;
#170 = ORIENTED_EDGE ( 'NONE', *, *, #1, .F. ) ;
#171 = DATE_AND_TIME ( #146, #87 ) ;
#172 = VERTEX_POINT ( 'NONE', #264 ) ;
#173 = APPROVAL_DATE_TIME ( #225, #298 ) ;
#174 = VERTEX_POINT ( 'NONE', #269 ) ;
#175 = AXIS2_PLACEMENT_3D ( 'NONE', #291, #48, #287 ) ;
#176 = DIRECTION ( 'NONE',  ( 1.000000000000000000, 0.0000000000000000000, 0.0000000000000000000 ) ) ;
#177 = CLOSED_SHELL ( 'NONE', ( #117, #45, #153, #68, #239, #268 ) ) ;
#178 = EDGE_CURVE ( 'NONE', #74, #328, #95, .T. ) ;
#179 = EDGE_LOOP ( 'NONE', ( #327, #202, #284 ) ) ;
#180 = EDGE_LOOP ( 'NONE', ( #18, #208, #303, #94 ) ) ;
#181 = DIRECTION ( 'NONE',  ( 0.0000000000000000000, 1.000000000000000000, 0.0000000000000000000 ) ) ;
#182 = CYLINDRICAL_SURFACE ( 'NONE', #192, 1.524999999999998135 ) ;
#183 = PLANE ( 'NONE',  #175 ) ;
#184 = DIRECTION ( 'NONE',  ( -2.468850131082258244E-15, 0.7071067811865495711, -0.7071067811865454633 ) ) ;
#185 = APPROVAL_PERSON_ORGANIZATION ( #305, #298, #64 ) ;
#186 = VECTOR ( 'NONE', #295, 1000.000000000000000 ) ;
#187 = CARTESIAN_POINT ( 'NONE',  ( 3.199287798835223965E-15, -1.524999999999994582, 0.9163124440170358209 ) ) ;
#188 = CC_DESIGN_PERSON_AND_ORGANIZATION_ASSIGNMENT ( #276, #223, ( #132 ) ) ;
#189 = CARTESIAN_POINT ( 'NONE',  ( 3.199287798835224360E-15, -1.122159101584351437E-16, 0.9163124440170360430 ) ) ;
#190 = EDGE_CURVE ( 'NONE', #172, #310, #159, .T. ) ;
#191 = CARTESIAN_POINT ( 'NONE',  ( 4.888073874380386697E-14, -1.714505518806294638E-15, 14.00000000000000000 ) ) ;
#192 = AXIS2_PLACEMENT_3D ( 'NONE', #212, #209, #314 ) ;
#193 = DIRECTION ( 'NONE',  ( -5.051619526261620874E-31, -1.000000000000000000, -1.421904488505584831E-16 ) ) ;
#194 = FACE_OUTER_BOUND ( 'NONE', #13, .T. ) ;
#195 = COORDINATED_UNIVERSAL_TIME_OFFSET ( 1, 0, .AHEAD. ) ;
#196 = ORIENTED_EDGE ( 'NONE', *, *, #297, .F. ) ;
#197 = AXIS2_PLACEMENT_3D ( 'NONE', #24, #211, #235 ) ;
#198 = APPROVAL_STATUS ( 'not_yet_approved' ) ;
#199 = ORIENTED_EDGE ( 'NONE', *, *, #79, .F. ) ;
#200 = MANIFOLD_SOLID_BREP ( 'Corps-Déplacer/Copier1[1]', #177 ) ;
#201 = DATE_AND_TIME ( #72, #32 ) ;
#202 = ORIENTED_EDGE ( 'NONE', *, *, #152, .T. ) ;
#203 = APPROVAL ( #149, 'UNSPECIFIED' ) ;
#204 = EDGE_CURVE ( 'NONE', #147, #74, #133, .T. ) ;
#205 = AXIS2_PLACEMENT_3D ( 'NONE', #115, #28, #222 ) ;
#206 = ORIENTED_EDGE ( 'NONE', *, *, #190, .F. ) ;
#207 = CIRCLE ( 'NONE', #5, 1.125000000000000444 ) ;
#208 = ORIENTED_EDGE ( 'NONE', *, *, #309, .T. ) ;
#209 = DIRECTION ( 'NONE',  ( -3.491481338843133355E-15, 1.224646799147353207E-16, -1.000000000000000000 ) ) ;
#210 = APPROVAL_PERSON_ORGANIZATION ( #143, #203, #283 ) ;
#211 = DIRECTION ( 'NONE',  ( -3.491481338843133355E-15, 1.224646799147353207E-16, -1.000000000000000000 ) ) ;
#212 = CARTESIAN_POINT ( 'NONE',  ( 0.0000000000000000000, 0.0000000000000000000, 0.0000000000000000000 ) ) ;
#213 = DIRECTION ( 'NONE',  ( 0.0000000000000000000, 1.000000000000000000, 0.0000000000000000000 ) ) ;
#214 = EDGE_CURVE ( 'NONE', #103, #172, #238, .T. ) ;
#215 = EDGE_CURVE ( 'NONE', #172, #258, #275, .T. ) ;
#216 = DIRECTION ( 'NONE',  ( 0.0000000000000000000, 1.000000000000000000, 0.0000000000000000000 ) ) ;
#217 = AXIS2_PLACEMENT_3D ( 'NONE', #137, #111, #10 ) ;
#218 = CARTESIAN_POINT ( 'NONE',  ( 1.867586368699701247E-16, -1.524999999999995026, -1.867586368699714066E-16 ) ) ;
#219 = DIRECTION ( 'NONE',  ( 0.0000000000000000000, 1.000000000000000000, 0.0000000000000000000 ) ) ;
#220 = CARTESIAN_POINT ( 'NONE',  ( 4.888073874380386697E-14, 1.524999999999994138, 14.00000000000000000 ) ) ;
#221 = CONICAL_SURFACE ( 'NONE', #134, 1.524999999999994360, 1.029744258676649871 ) ;
#222 = DIRECTION ( 'NONE',  ( 0.0000000000000000000, 1.000000000000000000, 0.0000000000000000000 ) ) ;
#223 = PERSON_AND_ORGANIZATION_ROLE ( 'classification_officer' ) ;
#224 = DIRECTION ( 'NONE',  ( -3.491481338843133355E-15, 1.224646799147353207E-16, -1.000000000000000000 ) ) ;
#225 = DATE_AND_TIME ( #144, #38 ) ;
#226 = CYLINDRICAL_SURFACE ( 'NONE', #168, 1.524999999999998135 ) ;
#227 = ORIENTED_EDGE ( 'NONE', *, *, #313, .F. ) ;
#228 = ADVANCED_FACE ( 'NONE', ( #316 ), #82, .T. ) ;
#229 = PRODUCT_RELATED_PRODUCT_CATEGORY ( 'detail', '', ( #233 ) ) ;
#230 = APPROVAL_STATUS ( 'not_yet_approved' ) ;
#231 = ORIENTED_EDGE ( 'NONE', *, *, #309, .F. ) ;
#232 = ORIENTED_EDGE ( 'NONE', *, *, #297, .T. ) ;
#233 = PRODUCT ( '54544', '54544', '', ( #302 ) ) ;
#234 = DIRECTION ( 'NONE',  ( 0.0000000000000000000, 1.000000000000000000, 0.0000000000000000000 ) ) ;
#235 = DIRECTION ( 'NONE',  ( 0.0000000000000000000, 1.000000000000000000, 0.0000000000000000000 ) ) ;
#236 = DIRECTION ( 'NONE',  ( -3.491481338843133355E-15, 1.224646799147353207E-16, -1.000000000000000000 ) ) ;
#237 = CIRCLE ( 'NONE', #148, 1.524999999999995914 ) ;
#238 = LINE ( 'NONE', #80, #83 ) ;
#239 = ADVANCED_FACE ( 'NONE', ( #194 ), #49, .T. ) ;
#240 = DIRECTION ( 'NONE',  ( 3.491481338843133355E-15, -1.224646799147353207E-16, 1.000000000000000000 ) ) ;
#241 = DIRECTION ( 'NONE',  ( 0.0000000000000000000, 1.000000000000000000, 0.0000000000000000000 ) ) ;
#242 = VECTOR ( 'NONE', #236, 1000.000000000000000 ) ;
#243 = DIRECTION ( 'NONE',  ( 4.275831445896958607E-31, 1.000000000000000000, 1.224646799147353207E-16 ) ) ;
#244 = DIRECTION ( 'NONE',  ( -2.382254525458709186E-15, -0.7071067811865493491, -0.7071067811865456854 ) ) ;
#245 =( NAMED_UNIT ( * ) PLANE_ANGLE_UNIT ( ) SI_UNIT ( $, .RADIAN. ) );
#246 = AXIS2_PLACEMENT_3D ( 'NONE', #78, #157, #234 ) ;
#247 = EDGE_CURVE ( 'NONE', #310, #174, #329, .T. ) ;
#248 = CC_DESIGN_PERSON_AND_ORGANIZATION_ASSIGNMENT ( #281, #100, ( #155 ) ) ;
#249 = PERSON_AND_ORGANIZATION ( #167, #47 ) ;
#250 = ADVANCED_FACE ( 'NONE', ( #163 ), #296, .T. ) ;
#251 = SHAPE_DEFINITION_REPRESENTATION ( #19, #14 ) ;
#252 = ORIENTED_EDGE ( 'NONE', *, *, #53, .F. ) ;
#253 = EDGE_CURVE ( 'NONE', #328, #74, #116, .T. ) ;
#254 = CALENDAR_DATE ( 2021, 3, 9 ) ;
#255 = ORIENTED_EDGE ( 'NONE', *, *, #131, .T. ) ;
#256 = UNCERTAINTY_MEASURE_WITH_UNIT (LENGTH_MEASURE( 1.000000000000000082E-05 ), #141, 'distance_accuracy_value', 'NONE');
#257 = PERSON_AND_ORGANIZATION_ROLE ( 'creator' ) ;
#258 = VERTEX_POINT ( 'NONE', #58 ) ;
#259 = VECTOR ( 'NONE', #90, 1000.000000000000000 ) ;
#260 = ORIENTED_EDGE ( 'NONE', *, *, #131, .F. ) ;
#261 = AXIS2_PLACEMENT_3D ( 'NONE', #31, #321, #57 ) ;
#262 = ORIENTED_EDGE ( 'NONE', *, *, #253, .F. ) ;
#263 = APPLICATION_CONTEXT ( 'configuration controlled 3d designs of mechanical parts and assemblies' ) ;
#264 = CARTESIAN_POINT ( 'NONE',  ( 1.696859930677762937E-13, 1.524999999999994138, 48.60000000000000142 ) ) ;
#265 = CARTESIAN_POINT ( 'NONE',  ( 0.0000000000000000000, 0.0000000000000000000, 0.0000000000000000000 ) ) ;
#266 = EDGE_CURVE ( 'NONE', #75, #122, #9, .T. ) ;
#267 = DIRECTION ( 'NONE',  ( -3.491481338843133355E-15, 1.224646799147353207E-16, -1.000000000000000000 ) ) ;
#268 = ADVANCED_FACE ( 'NONE', ( #165 ), #30, .F. ) ;
#269 = CARTESIAN_POINT ( 'NONE',  ( 1.094701245426599940E-13, -1.524999999999997691, 14.00000000000000000 ) ) ;
#270 = FACE_OUTER_BOUND ( 'NONE', #306, .T. ) ;
#271 = LOCAL_TIME ( 9, 49, 46.00000000000000000, #195 ) ;
#272 = CARTESIAN_POINT ( 'NONE',  ( 1.705465550364319299E-13, -1.125000000000006439, 49.00000000000000000 ) ) ;
#273 = CARTESIAN_POINT ( 'NONE',  ( 1.712203583682176020E-13, -1.125000000000006439, 49.00000000000000000 ) ) ;
#274 = EDGE_CURVE ( 'NONE', #122, #328, #299, .T. ) ;
#275 = CIRCLE ( 'NONE', #22, 1.525000000000000133 ) ;
#276 = PERSON_AND_ORGANIZATION ( #167, #47 ) ;
#277 = ORIENTED_EDGE ( 'NONE', *, *, #266, .T. ) ;
#278 = VECTOR ( 'NONE', #244, 1000.000000000000000 ) ;
#279 = COORDINATED_UNIVERSAL_TIME_OFFSET ( 1, 0, .AHEAD. ) ;
#280 = ORIENTED_EDGE ( 'NONE', *, *, #1, .T. ) ;
#281 = PERSON_AND_ORGANIZATION ( #167, #47 ) ;
#282 = ORIENTED_EDGE ( 'NONE', *, *, #69, .F. ) ;
#283 = APPROVAL_ROLE ( '' ) ;
#284 = ORIENTED_EDGE ( 'NONE', *, *, #253, .T. ) ;
#285 = CONICAL_SURFACE ( 'NONE', #158, 1.524999999999994360, 1.029744258676649871 ) ;
#286 = VERTEX_POINT ( 'NONE', #272 ) ;
#287 = DIRECTION ( 'NONE',  ( -4.275831445896958607E-31, -1.000000000000000000, -1.224646799147353207E-16 ) ) ;
#288 = VECTOR ( 'NONE', #267, 1000.000000000000000 ) ;
#289 = ADVANCED_FACE ( 'NONE', ( #317 ), #3, .T. ) ;
#290 = APPROVAL ( #230, 'UNSPECIFIED' ) ;
#291 = CARTESIAN_POINT ( 'NONE',  ( 4.888073874380386697E-14, 1.143566834279660815E-32, 14.00000000000000000 ) ) ;
#292 = CARTESIAN_POINT ( 'NONE',  ( 1.710825856033135470E-13, -6.000769315822030937E-15, 49.00000000000000000 ) ) ;
#293 = CARTESIAN_POINT ( 'NONE',  ( 4.888073874380386697E-14, 1.143566834279660815E-32, 14.00000000000000000 ) ) ;
#294 = CLOSED_SHELL ( 'NONE', ( #289, #335, #129, #250, #228 ) ) ;
#295 = DIRECTION ( 'NONE',  ( -3.491481338843133355E-15, 1.224646799147353207E-16, -1.000000000000000000 ) ) ;
#296 = CYLINDRICAL_SURFACE ( 'NONE', #261, 1.524999999999995026 ) ;
#297 = EDGE_CURVE ( 'NONE', #174, #310, #62, .T. ) ;
#298 = APPROVAL ( #198, 'UNSPECIFIED' ) ;
#299 = LINE ( 'NONE', #140, #186 ) ;
#300 = AXIS2_PLACEMENT_3D ( 'NONE', #166, #85, #219 ) ;
#301 = DIRECTION ( 'NONE',  ( -3.491481338843133355E-15, 1.224646799147353207E-16, -1.000000000000000000 ) ) ;
#302 = MECHANICAL_CONTEXT ( 'NONE', #263, 'mechanical' ) ;
#303 = ORIENTED_EDGE ( 'NONE', *, *, #215, .F. ) ;
#304 = EDGE_LOOP ( 'NONE', ( #260, #280, #96, #196 ) ) ;
#305 = PERSON_AND_ORGANIZATION ( #167, #47 ) ;
#306 = EDGE_LOOP ( 'NONE', ( #325, #65, #124 ) ) ;
#307 = EDGE_LOOP ( 'NONE', ( #282, #199 ) ) ;
#308 = AXIS2_PLACEMENT_3D ( 'NONE', #21, #224, #323 ) ;
#309 = EDGE_CURVE ( 'NONE', #286, #258, #8, .T. ) ;
#310 = VERTEX_POINT ( 'NONE', #220 ) ;
#311 = CARTESIAN_POINT ( 'NONE',  ( 3.386046435705195618E-15, 1.524999999999994138, 0.9163124440170362650 ) ) ;
#312 = DIRECTION ( 'NONE',  ( 5.051619526261620874E-31, 1.000000000000000000, 1.421904488505584831E-16 ) ) ;
#313 = EDGE_CURVE ( 'NONE', #75, #74, #114, .T. ) ;
#314 = DIRECTION ( 'NONE',  ( 4.275831445896958607E-31, 1.000000000000000000, 1.224646799147353207E-16 ) ) ;
#315 = FACE_OUTER_BOUND ( 'NONE', #304, .T. ) ;
#316 = FACE_OUTER_BOUND ( 'NONE', #40, .T. ) ;
#317 = FACE_OUTER_BOUND ( 'NONE', #16, .T. ) ;
#318 = CARTESIAN_POINT ( 'NONE',  ( 3.386046435705195618E-15, 1.524999999999994138, 0.9163124440170362650 ) ) ;
#319 = VECTOR ( 'NONE', #76, 1000.000000000000114 ) ;
#320 = DIRECTION ( 'NONE',  ( -3.491481338843133355E-15, 1.224646799147353207E-16, -1.000000000000000000 ) ) ;
#321 = DIRECTION ( 'NONE',  ( -3.491481338843133355E-15, 1.224646799147353207E-16, -1.000000000000000000 ) ) ;
#322 = APPROVAL_ROLE ( '' ) ;
#323 = DIRECTION ( 'NONE',  ( 0.0000000000000000000, 1.000000000000000000, 0.0000000000000000000 ) ) ;
#324 = COORDINATED_UNIVERSAL_TIME_OFFSET ( 1, 0, .AHEAD. ) ;
#325 = ORIENTED_EDGE ( 'NONE', *, *, #152, .F. ) ;
#326 = DATE_TIME_ROLE ( 'classification_date' ) ;
#327 = ORIENTED_EDGE ( 'NONE', *, *, #204, .F. ) ;
#328 = VERTEX_POINT ( 'NONE', #318 ) ;
#329 = CIRCLE ( 'NONE', #81, 1.524999999999995914 ) ;
#330 = PERSON_AND_ORGANIZATION_ROLE ( 'creator' ) ;
#331 = ORIENTED_EDGE ( 'NONE', *, *, #274, .T. ) ;
#332 = LINE ( 'NONE', #311, #319 ) ;
#333 = CARTESIAN_POINT ( 'NONE',  ( 3.199287798835224360E-15, -1.122159101584351437E-16, 0.9163124440170360430 ) ) ;
#334 = DIRECTION ( 'NONE',  ( 4.275831445896958607E-31, 1.000000000000000000, 1.224646799147353207E-16 ) ) ;
#335 = ADVANCED_FACE ( 'NONE', ( #56 ), #285, .T. ) ;
#336 = CARTESIAN_POINT ( 'NONE',  ( 1.710825856033135470E-13, 1.124999999999994227, 49.00000000000000000 ) ) ;
#337 = FACE_OUTER_BOUND ( 'NONE', #101, .T. ) ;
ENDSEC;
END-ISO-10303-21;
