ISO-10303-21;
HEADER;
FILE_DESCRIPTION (( 'STEP AP203' ),
    '1' );
FILE_NAME ('54543.step',
    '2021-09-03T07:49:43',
    ( '' ),
    ( '' ),
    'SwSTEP 2.0',
    'SolidWorks 2019',
    '' );
FILE_SCHEMA (( 'CONFIG_CONTROL_DESIGN' ));
ENDSEC;

DATA;
#1 = MECHANICAL_CONTEXT ( 'NONE', #12, 'mechanical' ) ;
#2 = CARTESIAN_POINT ( 'NONE',  ( 3.146840457870712155E-15, -1.499999999999994893, 0.9012909285413468474 ) ) ;
#3 = COORDINATED_UNIVERSAL_TIME_OFFSET ( 1, 0, .AHEAD. ) ;
#4 = AXIS2_PLACEMENT_3D ( 'NONE', #253, #261, #308 ) ;
#5 = APPROVAL_ROLE ( '' ) ;
#6 = APPROVAL_STATUS ( 'not_yet_approved' ) ;
#7 = ADVANCED_FACE ( 'NONE', ( #219 ), #20, .F. ) ;
#8 = CIRCLE ( 'NONE', #216, 1.499999999999996003 ) ;
#9 = EDGE_CURVE ( 'NONE', #92, #320, #306, .T. ) ;
#10 = APPROVAL_DATE_TIME ( #210, #332 ) ;
#11 = ORIENTED_EDGE ( 'NONE', *, *, #66, .F. ) ;
#12 = APPLICATION_CONTEXT ( 'configuration controlled 3d designs of mechanical parts and assemblies' ) ;
#13 = ORIENTED_EDGE ( 'NONE', *, *, #213, .T. ) ;
#14 = PRODUCT_DEFINITION_FORMATION_WITH_SPECIFIED_SOURCE ( 'ANY', '', #158, .NOT_KNOWN. ) ;
#15 = ORIENTED_EDGE ( 'NONE', *, *, #262, .T. ) ;
#16 = EDGE_LOOP ( 'NONE', ( #318, #38, #244 ) ) ;
#17 = FACE_OUTER_BOUND ( 'NONE', #222, .T. ) ;
#18 = ADVANCED_FACE ( 'NONE', ( #304 ), #126, .T. ) ;
#19 = AXIS2_PLACEMENT_3D ( 'NONE', #278, #23, #224 ) ;
#20 = PLANE ( 'NONE',  #88 ) ;
#21 = PRODUCT_DEFINITION ( 'UNKNOWN', '', #14, #324 ) ;
#22 = CARTESIAN_POINT ( 'NONE',  ( 4.189777606611760026E-14, 1.124819836996388006E-32, 12.00000000000000000 ) ) ;
#23 = DIRECTION ( 'NONE',  ( -3.491481338843133355E-15, 1.224646799147353207E-16, -1.000000000000000000 ) ) ;
#24 = DIRECTION ( 'NONE',  ( 1.798245827342160317E-15, -0.8571673007021098911, 0.5150380749100582634 ) ) ;
#25 = CARTESIAN_POINT ( 'NONE',  ( 4.189777606611760026E-14, -1.469576158976823947E-15, 12.00000000000000000 ) ) ;
#26 = AXIS2_PLACEMENT_3D ( 'NONE', #153, #286, #201 ) ;
#27 = VECTOR ( 'NONE', #226, 1000.000000000000000 ) ;
#28 = DIRECTION ( 'NONE',  ( 0.0000000000000000000, 1.000000000000000000, 0.0000000000000000000 ) ) ;
#29 = PERSON_AND_ORGANIZATION ( #200, #273 ) ;
#30 = PERSON_AND_ORGANIZATION ( #200, #273 ) ;
#31 = LOCAL_TIME ( 9, 49, 43.00000000000000000, #189 ) ;
#32 = ORIENTED_EDGE ( 'NONE', *, *, #9, .F. ) ;
#33 = COORDINATED_UNIVERSAL_TIME_OFFSET ( 1, 0, .AHEAD. ) ;
#34 = ORIENTED_EDGE ( 'NONE', *, *, #66, .T. ) ;
#35 = ORIENTED_EDGE ( 'NONE', *, *, #174, .T. ) ;
#36 = ORIENTED_EDGE ( 'NONE', *, *, #171, .T. ) ;
#37 = CLOSED_SHELL ( 'NONE', ( #237, #18, #7, #39, #288, #138 ) ) ;
#38 = ORIENTED_EDGE ( 'NONE', *, *, #85, .T. ) ;
#39 = ADVANCED_FACE ( 'NONE', ( #129 ), #72, .T. ) ;
#40 = DIRECTION ( 'NONE',  ( 3.491481338843133355E-15, -1.224646799147353207E-16, 1.000000000000000000 ) ) ;
#41 = APPROVAL ( #259, 'UNSPECIFIED' ) ;
#42 = DIRECTION ( 'NONE',  ( 5.135813185032647042E-31, 1.000000000000000000, 1.445602896647344340E-16 ) ) ;
#43 = DIRECTION ( 'NONE',  ( -3.491481338843133355E-15, 1.224646799147353207E-16, -1.000000000000000000 ) ) ;
#44 = CLOSED_SHELL ( 'NONE', ( #81, #317, #54, #163, #236 ) ) ;
#45 = DIRECTION ( 'NONE',  ( -5.135813185032647042E-31, -1.000000000000000000, -1.445602896647344340E-16 ) ) ;
#46 = CARTESIAN_POINT ( 'NONE',  ( 0.0000000000000000000, 0.0000000000000000000, 0.0000000000000000000 ) ) ;
#47 = CARTESIAN_POINT ( 'NONE',  ( 3.146840457870712155E-15, -1.499999999999994893, 0.9012909285413468474 ) ) ;
#48 = UNCERTAINTY_MEASURE_WITH_UNIT (LENGTH_MEASURE( 1.000000000000000082E-05 ), #78, 'distance_accuracy_value', 'NONE');
#49 = DIRECTION ( 'NONE',  ( 0.0000000000000000000, 1.000000000000000000, 0.0000000000000000000 ) ) ;
#50 = LINE ( 'NONE', #104, #144 ) ;
#51 = DIRECTION ( 'NONE',  ( 1.903218546456022717E-15, 0.8571673007021097801, 0.5150380749100585964 ) ) ;
#52 = AXIS2_PLACEMENT_3D ( 'NONE', #170, #230, #246 ) ;
#53 = DIRECTION ( 'NONE',  ( 4.275831445896958607E-31, 1.000000000000000000, 1.224646799147353207E-16 ) ) ;
#54 = ADVANCED_FACE ( 'NONE', ( #227 ), #263, .T. ) ;
#55 = CC_DESIGN_DATE_AND_TIME_ASSIGNMENT ( #283, #206, ( #21 ) ) ;
#56 = PERSON_AND_ORGANIZATION_ROLE ( 'classification_officer' ) ;
#57 = CC_DESIGN_SECURITY_CLASSIFICATION ( #250, ( #14 ) ) ;
#58 = APPROVAL_ROLE ( '' ) ;
#59 = ORIENTED_EDGE ( 'NONE', *, *, #174, .F. ) ;
#60 = CIRCLE ( 'NONE', #26, 1.499999999999994671 ) ;
#61 = VERTEX_POINT ( 'NONE', #326 ) ;
#62 = PERSON_AND_ORGANIZATION_ROLE ( 'design_supplier' ) ;
#63 = EDGE_LOOP ( 'NONE', ( #35, #67, #245, #267 ) ) ;
#64 = VERTEX_POINT ( 'NONE', #274 ) ;
#65 = AXIS2_PLACEMENT_3D ( 'NONE', #154, #176, #233 ) ;
#66 = EDGE_CURVE ( 'NONE', #137, #141, #82, .T. ) ;
#67 = ORIENTED_EDGE ( 'NONE', *, *, #198, .T. ) ;
#68 = CC_DESIGN_DATE_AND_TIME_ASSIGNMENT ( #319, #239, ( #250 ) ) ;
#69 = DIRECTION ( 'NONE',  ( -3.491481338843133355E-15, 1.224646799147353207E-16, -1.000000000000000000 ) ) ;
#70 = CARTESIAN_POINT ( 'NONE',  ( 1.595606971851311880E-13, -5.596635872103403844E-15, 45.69999999999999574 ) ) ;
#71 = CARTESIAN_POINT ( 'NONE',  ( 4.189777606611760026E-14, -1.469576158976823947E-15, 12.00000000000000000 ) ) ;
#72 = CYLINDRICAL_SURFACE ( 'NONE', #19, 1.499999999999997780 ) ;
#73 = LINE ( 'NONE', #47, #106 ) ;
#74 = AXIS2_PLACEMENT_3D ( 'NONE', #71, #180, #281 ) ;
#75 = DIRECTION ( 'NONE',  ( 0.0000000000000000000, 1.000000000000000000, 0.0000000000000000000 ) ) ;
#76 = CARTESIAN_POINT ( 'NONE',  ( 1.606081415867841091E-13, 1.199999999999994404, 46.00000000000000000 ) ) ;
#77 = DIRECTION ( 'NONE',  ( 3.491481338843133355E-15, -1.224646799147353207E-16, 1.000000000000000000 ) ) ;
#78 =( LENGTH_UNIT ( ) NAMED_UNIT ( * ) SI_UNIT ( .MILLI., .METRE. ) );
#79 = CARTESIAN_POINT ( 'NONE',  ( 4.189777606611760026E-14, -1.469576158976823947E-15, 12.00000000000000000 ) ) ;
#80 = PERSON_AND_ORGANIZATION_ROLE ( 'creator' ) ;
#81 = ADVANCED_FACE ( 'NONE', ( #17 ), #147, .T. ) ;
#82 = CIRCLE ( 'NONE', #52, 1.500000000000000000 ) ;
#83 = AXIS2_PLACEMENT_3D ( 'NONE', #22, #77, #127 ) ;
#84 = MANIFOLD_SOLID_BREP ( 'Corps-Déplacer/Copier1[2]', #44 ) ;
#85 = EDGE_CURVE ( 'NONE', #95, #320, #275, .T. ) ;
#86 = DATE_AND_TIME ( #117, #31 ) ;
#87 = APPLICATION_PROTOCOL_DEFINITION ( 'international standard', 'config_control_design', 1994, #167 ) ;
#88 = AXIS2_PLACEMENT_3D ( 'NONE', #330, #100, #102 ) ;
#89 = VECTOR ( 'NONE', #156, 1000.000000000000000 ) ;
#90 = PERSON_AND_ORGANIZATION ( #200, #273 ) ;
#91 = EDGE_LOOP ( 'NONE', ( #187, #34, #123, #143 ) ) ;
#92 = VERTEX_POINT ( 'NONE', #2 ) ;
#93 = CIRCLE ( 'NONE', #150, 1.200000000000000178 ) ;
#94 = VECTOR ( 'NONE', #309, 1000.000000000000000 ) ;
#95 = VERTEX_POINT ( 'NONE', #208 ) ;
#96 = FACE_OUTER_BOUND ( 'NONE', #16, .T. ) ;
#97 = ORIENTED_EDGE ( 'NONE', *, *, #225, .T. ) ;
#98 = ORIENTED_EDGE ( 'NONE', *, *, #315, .F. ) ;
#99 = APPROVAL_PERSON_ORGANIZATION ( #29, #332, #5 ) ;
#100 = DIRECTION ( 'NONE',  ( 3.491481338843133355E-15, -1.224646799147353207E-16, 1.000000000000000000 ) ) ;
#101 = DIRECTION ( 'NONE',  ( 0.0000000000000000000, 1.000000000000000000, 0.0000000000000000000 ) ) ;
#102 = DIRECTION ( 'NONE',  ( -4.275831445896958607E-31, -1.000000000000000000, -1.224646799147353207E-16 ) ) ;
#103 = CYLINDRICAL_SURFACE ( 'NONE', #4, 1.499999999999995337 ) ;
#104 = CARTESIAN_POINT ( 'NONE',  ( 6.413747168845429152E-31, 1.499999999999997780, 1.836970198721027222E-16 ) ) ;
#105 = PERSON_AND_ORGANIZATION ( #200, #273 ) ;
#106 = VECTOR ( 'NONE', #24, 1000.000000000000000 ) ;
#107 = CARTESIAN_POINT ( 'NONE',  ( 1.606081415867841091E-13, 1.199999999999994404, 46.00000000000000000 ) ) ;
#108 = LINE ( 'NONE', #133, #116 ) ;
#109 = EDGE_CURVE ( 'NONE', #320, #92, #60, .T. ) ;
#110 = CC_DESIGN_PERSON_AND_ORGANIZATION_ASSIGNMENT ( #134, #111, ( #158 ) ) ;
#111 = PERSON_AND_ORGANIZATION_ROLE ( 'design_owner' ) ;
#112 = AXIS2_PLACEMENT_3D ( 'NONE', #79, #157, #49 ) ;
#113 = CONICAL_SURFACE ( 'NONE', #159, 1.499999999999994671, 1.029744258676649649 ) ;
#114 = CALENDAR_DATE ( 2021, 3, 9 ) ;
#115 = APPROVAL_DATE_TIME ( #86, #295 ) ;
#116 = VECTOR ( 'NONE', #184, 1000.000000000000000 ) ;
#117 = CALENDAR_DATE ( 2021, 3, 9 ) ;
#118 = EDGE_CURVE ( 'NONE', #296, #141, #173, .T. ) ;
#119 = ORIENTED_EDGE ( 'NONE', *, *, #118, .F. ) ;
#120 = VECTOR ( 'NONE', #51, 999.9999999999998863 ) ;
#121 = AXIS2_PLACEMENT_3D ( 'NONE', #335, #247, #207 ) ;
#122 = VERTEX_POINT ( 'NONE', #282 ) ;
#123 = ORIENTED_EDGE ( 'NONE', *, *, #292, .T. ) ;
#124 = CARTESIAN_POINT ( 'NONE',  ( 6.413747168845417766E-31, 1.499999999999995337, 1.836970198721024018E-16 ) ) ;
#125 = CC_DESIGN_APPROVAL ( #332, ( #14 ) ) ;
#126 = CYLINDRICAL_SURFACE ( 'NONE', #132, 1.499999999999997780 ) ;
#127 = DIRECTION ( 'NONE',  ( -4.275831445896958607E-31, -1.000000000000000000, -1.224646799147353207E-16 ) ) ;
#128 = LINE ( 'NONE', #204, #89 ) ;
#129 = FACE_OUTER_BOUND ( 'NONE', #91, .T. ) ;
#130 = DIRECTION ( 'NONE',  ( -3.491481338843133355E-15, 1.224646799147353207E-16, -1.000000000000000000 ) ) ;
#131 = DIRECTION ( 'NONE',  ( -3.491481338843133355E-15, 1.224646799147353207E-16, -1.000000000000000000 ) ) ;
#132 = AXIS2_PLACEMENT_3D ( 'NONE', #46, #151, #248 ) ;
#133 = CARTESIAN_POINT ( 'NONE',  ( 1.836970198721017855E-16, -1.499999999999995337, -1.836970198721030427E-16 ) ) ;
#134 = PERSON_AND_ORGANIZATION ( #200, #273 ) ;
#135 = CIRCLE ( 'NONE', #307, 1.499999999999996003 ) ;
#136 = PERSON_AND_ORGANIZATION ( #200, #273 ) ;
#137 = VERTEX_POINT ( 'NONE', #303 ) ;
#138 = ADVANCED_FACE ( 'NONE', ( #284 ), #327, .F. ) ;
#139 = EDGE_CURVE ( 'NONE', #272, #92, #108, .T. ) ;
#140 = EDGE_LOOP ( 'NONE', ( #15, #301, #59, #119 ) ) ;
#141 = VERTEX_POINT ( 'NONE', #160 ) ;
#142 = DIRECTION ( 'NONE',  ( -3.491481338843133355E-15, 1.224646799147353207E-16, -1.000000000000000000 ) ) ;
#143 = ORIENTED_EDGE ( 'NONE', *, *, #225, .F. ) ;
#144 = VECTOR ( 'NONE', #221, 1000.000000000000000 ) ;
#145 = ORIENTED_EDGE ( 'NONE', *, *, #9, .T. ) ;
#146 = DIRECTION ( 'NONE',  ( -5.135813185032647042E-31, -1.000000000000000000, -1.445602896647344340E-16 ) ) ;
#147 = CYLINDRICAL_SURFACE ( 'NONE', #211, 1.499999999999995337 ) ;
#148 = CARTESIAN_POINT ( 'NONE',  ( 1.606081415867841091E-13, -5.633375276077824704E-15, 46.00000000000000000 ) ) ;
#149 = EDGE_CURVE ( 'NONE', #272, #242, #249, .T. ) ;
#150 = AXIS2_PLACEMENT_3D ( 'NONE', #148, #43, #199 ) ;
#151 = DIRECTION ( 'NONE',  ( -3.491481338843133355E-15, 1.224646799147353207E-16, -1.000000000000000000 ) ) ;
#152 = CC_DESIGN_PERSON_AND_ORGANIZATION_ASSIGNMENT ( #162, #312, ( #14 ) ) ;
#153 = CARTESIAN_POINT ( 'NONE',  ( 3.146840457870712944E-15, -1.103763050738706540E-16, 0.9012909285413470695 ) ) ;
#154 = CARTESIAN_POINT ( 'NONE',  ( 0.0000000000000000000, 0.0000000000000000000, 0.0000000000000000000 ) ) ;
#155 = FACE_OUTER_BOUND ( 'NONE', #169, .T. ) ;
#156 = DIRECTION ( 'NONE',  ( -2.382254525458723780E-15, -0.7071067811865453523, -0.7071067811865496822 ) ) ;
#157 = DIRECTION ( 'NONE',  ( -3.491481338843133355E-15, 1.224646799147353207E-16, -1.000000000000000000 ) ) ;
#158 = PRODUCT ( '54543', '54543', '', ( #1 ) ) ;
#159 = AXIS2_PLACEMENT_3D ( 'NONE', #277, #298, #45 ) ;
#160 = CARTESIAN_POINT ( 'NONE',  ( 1.595606971851311880E-13, 1.499999999999994449, 45.69999999999999574 ) ) ;
#161 = APPROVAL_DATE_TIME ( #185, #41 ) ;
#162 = PERSON_AND_ORGANIZATION ( #200, #273 ) ;
#163 = ADVANCED_FACE ( 'NONE', ( #155 ), #103, .T. ) ;
#164 = EDGE_LOOP ( 'NONE', ( #269, #316 ) ) ;
#165 = ORIENTED_EDGE ( 'NONE', *, *, #139, .F. ) ;
#166 = SHAPE_DEFINITION_REPRESENTATION ( #186, #290 ) ;
#167 = APPLICATION_CONTEXT ( 'configuration controlled 3d designs of mechanical parts and assemblies' ) ;
#168 = ORIENTED_EDGE ( 'NONE', *, *, #118, .T. ) ;
#169 = EDGE_LOOP ( 'NONE', ( #165, #218, #13, #32 ) ) ;
#170 = CARTESIAN_POINT ( 'NONE',  ( 1.595606971851311880E-13, -5.596635872103403844E-15, 45.69999999999999574 ) ) ;
#171 = EDGE_CURVE ( 'NONE', #122, #296, #93, .T. ) ;
#172 = DIRECTION ( 'NONE',  ( -3.491481338843133355E-15, 1.224646799147353207E-16, -1.000000000000000000 ) ) ;
#173 = LINE ( 'NONE', #107, #215 ) ;
#174 = EDGE_CURVE ( 'NONE', #141, #137, #188, .T. ) ;
#175 = MANIFOLD_SOLID_BREP ( 'Corps-Déplacer/Copier1[1]', #37 ) ;
#176 = DIRECTION ( 'NONE',  ( 0.0000000000000000000, 0.0000000000000000000, 1.000000000000000000 ) ) ;
#177 = CARTESIAN_POINT ( 'NONE',  ( 3.146840457870712944E-15, -1.103763050738706540E-16, 0.9012909285413470695 ) ) ;
#178 = CARTESIAN_POINT ( 'NONE',  ( 1.606081415867841091E-13, 8.998558695971062171E-33, 46.00000000000000000 ) ) ;
#179 = LOCAL_TIME ( 9, 49, 43.00000000000000000, #310 ) ;
#180 = DIRECTION ( 'NONE',  ( -3.491481338843133355E-15, 1.224646799147353207E-16, -1.000000000000000000 ) ) ;
#181 = CARTESIAN_POINT ( 'NONE',  ( 2.270600528186623822E-14, -1.499999999999997335, 12.00000000000000000 ) ) ;
#182 = CALENDAR_DATE ( 2021, 3, 9 ) ;
#183 = DIRECTION ( 'NONE',  ( -2.468850131082271655E-15, 0.7071067811865455743, -0.7071067811865493491 ) ) ;
#184 = DIRECTION ( 'NONE',  ( -3.491481338843133355E-15, 1.224646799147353207E-16, -1.000000000000000000 ) ) ;
#185 = DATE_AND_TIME ( #209, #258 ) ;
#186 = PRODUCT_DEFINITION_SHAPE ( 'NONE', 'NONE',  #21 ) ;
#187 = ORIENTED_EDGE ( 'NONE', *, *, #198, .F. ) ;
#188 = CIRCLE ( 'NONE', #238, 1.500000000000000000 ) ;
#189 = COORDINATED_UNIVERSAL_TIME_OFFSET ( 1, 0, .AHEAD. ) ;
#190 = ORIENTED_EDGE ( 'NONE', *, *, #85, .F. ) ;
#191 =( NAMED_UNIT ( * ) SI_UNIT ( $, .STERADIAN. ) SOLID_ANGLE_UNIT ( ) );
#192 = ORIENTED_EDGE ( 'NONE', *, *, #139, .T. ) ;
#193 = EDGE_LOOP ( 'NONE', ( #297, #270 ) ) ;
#194 = AXIS2_PLACEMENT_3D ( 'NONE', #252, #172, #42 ) ;
#195 = AXIS2_PLACEMENT_3D ( 'NONE', #305, #280, #232 ) ;
#196 = CARTESIAN_POINT ( 'NONE',  ( 0.0000000000000000000, 0.0000000000000000000, 0.0000000000000000000 ) ) ;
#197 = FACE_OUTER_BOUND ( 'NONE', #193, .T. ) ;
#198 = EDGE_CURVE ( 'NONE', #137, #61, #228, .T. ) ;
#199 = DIRECTION ( 'NONE',  ( 0.0000000000000000000, 1.000000000000000000, 0.0000000000000000000 ) ) ;
#200 = PERSON ( 'UNSPECIFIED', 'UNSPECIFIED', 'UNSPECIFIED', ('UNSPECIFIED'), ('UNSPECIFIED'), ('UNSPECIFIED') ) ;
#201 = DIRECTION ( 'NONE',  ( 5.135813185032647042E-31, 1.000000000000000000, 1.445602896647344340E-16 ) ) ;
#202 = COORDINATED_UNIVERSAL_TIME_OFFSET ( 1, 0, .AHEAD. ) ;
#203 = APPROVAL_PERSON_ORGANIZATION ( #90, #295, #58 ) ;
#204 = CARTESIAN_POINT ( 'NONE',  ( 1.607550992026818115E-13, -1.200000000000005729, 46.00000000000000000 ) ) ;
#205 = CARTESIAN_POINT ( 'NONE',  ( 1.836970198721020813E-16, -1.499999999999997780, -1.836970198721033385E-16 ) ) ;
#206 = DATE_TIME_ROLE ( 'creation_date' ) ;
#207 = DIRECTION ( 'NONE',  ( 0.0000000000000000000, 1.000000000000000000, 0.0000000000000000000 ) ) ;
#208 = CARTESIAN_POINT ( 'NONE',  ( 0.0000000000000000000, 0.0000000000000000000, 0.0000000000000000000 ) ) ;
#209 = CALENDAR_DATE ( 2021, 3, 9 ) ;
#210 = DATE_AND_TIME ( #235, #179 ) ;
#211 = AXIS2_PLACEMENT_3D ( 'NONE', #196, #69, #302 ) ;
#212 = APPROVAL_PERSON_ORGANIZATION ( #30, #41, #265 ) ;
#213 = EDGE_CURVE ( 'NONE', #242, #320, #234, .T. ) ;
#214 = CC_DESIGN_PERSON_AND_ORGANIZATION_ASSIGNMENT ( #136, #56, ( #250 ) ) ;
#215 = VECTOR ( 'NONE', #183, 1000.000000000000114 ) ;
#216 = AXIS2_PLACEMENT_3D ( 'NONE', #251, #131, #101 ) ;
#217 = ORIENTED_EDGE ( 'NONE', *, *, #213, .F. ) ;
#218 = ORIENTED_EDGE ( 'NONE', *, *, #149, .T. ) ;
#219 = FACE_OUTER_BOUND ( 'NONE', #293, .T. ) ;
#220 = AXIS2_PLACEMENT_3D ( 'NONE', #231, #334, #75 ) ;
#221 = DIRECTION ( 'NONE',  ( -3.491481338843133355E-15, 1.224646799147353207E-16, -1.000000000000000000 ) ) ;
#222 = EDGE_LOOP ( 'NONE', ( #266, #192, #323, #217 ) ) ;
#223 = EDGE_LOOP ( 'NONE', ( #98, #36, #168, #11 ) ) ;
#224 = DIRECTION ( 'NONE',  ( 4.275831445896959482E-31, 1.000000000000000000, 1.224646799147353207E-16 ) ) ;
#225 = EDGE_CURVE ( 'NONE', #61, #64, #8, .T. ) ;
#226 = DIRECTION ( 'NONE',  ( -3.491481338843133355E-15, 1.224646799147353207E-16, -1.000000000000000000 ) ) ;
#227 = FACE_OUTER_BOUND ( 'NONE', #241, .T. ) ;
#228 = LINE ( 'NONE', #205, #94 ) ;
#229 = APPLICATION_PROTOCOL_DEFINITION ( 'international standard', 'config_control_design', 1994, #12 ) ;
#230 = DIRECTION ( 'NONE',  ( -3.491481338843133355E-15, 1.224646799147353207E-16, -1.000000000000000000 ) ) ;
#231 = CARTESIAN_POINT ( 'NONE',  ( 1.606081415867841091E-13, -5.633375276077824704E-15, 46.00000000000000000 ) ) ;
#232 = DIRECTION ( 'NONE',  ( 0.0000000000000000000, 1.000000000000000000, 0.0000000000000000000 ) ) ;
#233 = DIRECTION ( 'NONE',  ( 1.000000000000000000, 0.0000000000000000000, 0.0000000000000000000 ) ) ;
#234 = LINE ( 'NONE', #124, #27 ) ;
#235 = CALENDAR_DATE ( 2021, 3, 9 ) ;
#236 = ADVANCED_FACE ( 'NONE', ( #197 ), #276, .T. ) ;
#237 = ADVANCED_FACE ( 'NONE', ( #331 ), #287, .T. ) ;
#238 = AXIS2_PLACEMENT_3D ( 'NONE', #70, #256, #28 ) ;
#239 = DATE_TIME_ROLE ( 'classification_date' ) ;
#240 = CIRCLE ( 'NONE', #74, 1.499999999999996003 ) ;
#241 = EDGE_LOOP ( 'NONE', ( #190, #299, #145 ) ) ;
#242 = VERTEX_POINT ( 'NONE', #254 ) ;
#243 = FACE_OUTER_BOUND ( 'NONE', #223, .T. ) ;
#244 = ORIENTED_EDGE ( 'NONE', *, *, #109, .T. ) ;
#245 = ORIENTED_EDGE ( 'NONE', *, *, #328, .F. ) ;
#246 = DIRECTION ( 'NONE',  ( 0.0000000000000000000, 1.000000000000000000, 0.0000000000000000000 ) ) ;
#247 = DIRECTION ( 'NONE',  ( -3.491481338843133355E-15, 1.224646799147353207E-16, -1.000000000000000000 ) ) ;
#248 = DIRECTION ( 'NONE',  ( 4.275831445896959482E-31, 1.000000000000000000, 1.224646799147353207E-16 ) ) ;
#249 = CIRCLE ( 'NONE', #112, 1.499999999999996003 ) ;
#250 = SECURITY_CLASSIFICATION ( '', '', #314 ) ;
#251 = CARTESIAN_POINT ( 'NONE',  ( 4.189777606611760026E-14, -1.469576158976823947E-15, 12.00000000000000000 ) ) ;
#252 = CARTESIAN_POINT ( 'NONE',  ( 3.146840457870712944E-15, -1.103763050738706540E-16, 0.9012909285413470695 ) ) ;
#253 = CARTESIAN_POINT ( 'NONE',  ( 0.0000000000000000000, 0.0000000000000000000, 0.0000000000000000000 ) ) ;
#254 = CARTESIAN_POINT ( 'NONE',  ( 4.189777606611760026E-14, 1.499999999999994449, 12.00000000000000000 ) ) ;
#255 = CARTESIAN_POINT ( 'NONE',  ( 3.330537477742816061E-15, 1.499999999999994449, 0.9012909285413471805 ) ) ;
#256 = DIRECTION ( 'NONE',  ( -3.491481338843133355E-15, 1.224646799147353207E-16, -1.000000000000000000 ) ) ;
#257 = AXIS2_PLACEMENT_3D ( 'NONE', #178, #130, #53 ) ;
#258 = LOCAL_TIME ( 9, 49, 43.00000000000000000, #3 ) ;
#259 = APPROVAL_STATUS ( 'not_yet_approved' ) ;
#260 = EDGE_CURVE ( 'NONE', #95, #92, #73, .T. ) ;
#261 = DIRECTION ( 'NONE',  ( -3.491481338843133355E-15, 1.224646799147353207E-16, -1.000000000000000000 ) ) ;
#262 = EDGE_CURVE ( 'NONE', #296, #122, #300, .T. ) ;
#263 = CONICAL_SURFACE ( 'NONE', #271, 1.499999999999994671, 1.029744258676649649 ) ;
#264 = CC_DESIGN_APPROVAL ( #41, ( #21 ) ) ;
#265 = APPROVAL_ROLE ( '' ) ;
#266 = ORIENTED_EDGE ( 'NONE', *, *, #285, .T. ) ;
#267 = ORIENTED_EDGE ( 'NONE', *, *, #292, .F. ) ;
#268 = CC_DESIGN_PERSON_AND_ORGANIZATION_ASSIGNMENT ( #291, #62, ( #14 ) ) ;
#269 = ORIENTED_EDGE ( 'NONE', *, *, #262, .F. ) ;
#270 = ORIENTED_EDGE ( 'NONE', *, *, #149, .F. ) ;
#271 = AXIS2_PLACEMENT_3D ( 'NONE', #177, #40, #146 ) ;
#272 = VERTEX_POINT ( 'NONE', #181 ) ;
#273 = ORGANIZATION ( 'UNSPECIFIED', 'UNSPECIFIED', '' ) ;
#274 = CARTESIAN_POINT ( 'NONE',  ( 4.189777606611760026E-14, 1.499999999999994449, 12.00000000000000000 ) ) ;
#275 = LINE ( 'NONE', #311, #120 ) ;
#276 = PLANE ( 'NONE',  #83 ) ;
#277 = CARTESIAN_POINT ( 'NONE',  ( 3.146840457870712944E-15, -1.103763050738706540E-16, 0.9012909285413470695 ) ) ;
#278 = CARTESIAN_POINT ( 'NONE',  ( 0.0000000000000000000, 0.0000000000000000000, 0.0000000000000000000 ) ) ;
#279 =( GEOMETRIC_REPRESENTATION_CONTEXT ( 3 ) GLOBAL_UNCERTAINTY_ASSIGNED_CONTEXT ( ( #48 ) ) GLOBAL_UNIT_ASSIGNED_CONTEXT ( ( #78, #321, #191 ) ) REPRESENTATION_CONTEXT ( 'NONE', 'WORKASPACE' ) );
#280 = DIRECTION ( 'NONE',  ( -3.491481338843133355E-15, 1.224646799147353207E-16, -1.000000000000000000 ) ) ;
#281 = DIRECTION ( 'NONE',  ( 0.0000000000000000000, 1.000000000000000000, 0.0000000000000000000 ) ) ;
#282 = CARTESIAN_POINT ( 'NONE',  ( 1.602497467038425322E-13, -1.200000000000005729, 46.00000000000000000 ) ) ;
#283 = DATE_AND_TIME ( #182, #336 ) ;
#284 = FACE_OUTER_BOUND ( 'NONE', #164, .T. ) ;
#285 = EDGE_CURVE ( 'NONE', #242, #272, #135, .T. ) ;
#286 = DIRECTION ( 'NONE',  ( -3.491481338843133355E-15, 1.224646799147353207E-16, -1.000000000000000000 ) ) ;
#287 = CONICAL_SURFACE ( 'NONE', #195, 1.200000000000000178, 0.7853981633974453924 ) ;
#288 = ADVANCED_FACE ( 'NONE', ( #243 ), #313, .T. ) ;
#289 = LOCAL_TIME ( 9, 49, 43.00000000000000000, #33 ) ;
#290 = ADVANCED_BREP_SHAPE_REPRESENTATION ( '54543', ( #175, #84, #65 ), #279 ) ;
#291 = PERSON_AND_ORGANIZATION ( #200, #273 ) ;
#292 = EDGE_CURVE ( 'NONE', #141, #64, #50, .T. ) ;
#293 = EDGE_LOOP ( 'NONE', ( #322, #97 ) ) ;
#294 = CC_DESIGN_PERSON_AND_ORGANIZATION_ASSIGNMENT ( #105, #80, ( #21 ) ) ;
#295 = APPROVAL ( #6, 'UNSPECIFIED' ) ;
#296 = VERTEX_POINT ( 'NONE', #76 ) ;
#297 = ORIENTED_EDGE ( 'NONE', *, *, #285, .F. ) ;
#298 = DIRECTION ( 'NONE',  ( 3.491481338843133355E-15, -1.224646799147353207E-16, 1.000000000000000000 ) ) ;
#299 = ORIENTED_EDGE ( 'NONE', *, *, #260, .T. ) ;
#300 = CIRCLE ( 'NONE', #220, 1.200000000000000178 ) ;
#301 = ORIENTED_EDGE ( 'NONE', *, *, #315, .T. ) ;
#302 = DIRECTION ( 'NONE',  ( 4.275831445896958607E-31, 1.000000000000000000, 1.224646799147353207E-16 ) ) ;
#303 = CARTESIAN_POINT ( 'NONE',  ( 1.009129336454963328E-13, -1.500000000000005773, 45.69999999999999574 ) ) ;
#304 = FACE_OUTER_BOUND ( 'NONE', #63, .T. ) ;
#305 = CARTESIAN_POINT ( 'NONE',  ( 1.606081415867841091E-13, -5.633375276077824704E-15, 46.00000000000000000 ) ) ;
#306 = CIRCLE ( 'NONE', #194, 1.499999999999994671 ) ;
#307 = AXIS2_PLACEMENT_3D ( 'NONE', #25, #142, #329 ) ;
#308 = DIRECTION ( 'NONE',  ( 4.275831445896958607E-31, 1.000000000000000000, 1.224646799147353207E-16 ) ) ;
#309 = DIRECTION ( 'NONE',  ( -3.491481338843133355E-15, 1.224646799147353207E-16, -1.000000000000000000 ) ) ;
#310 = COORDINATED_UNIVERSAL_TIME_OFFSET ( 1, 0, .AHEAD. ) ;
#311 = CARTESIAN_POINT ( 'NONE',  ( 3.330537477742816061E-15, 1.499999999999994449, 0.9012909285413471805 ) ) ;
#312 = PERSON_AND_ORGANIZATION_ROLE ( 'creator' ) ;
#313 = CONICAL_SURFACE ( 'NONE', #121, 1.200000000000000178, 0.7853981633974453924 ) ;
#314 = SECURITY_CLASSIFICATION_LEVEL ( 'unclassified' ) ;
#315 = EDGE_CURVE ( 'NONE', #122, #137, #128, .T. ) ;
#316 = ORIENTED_EDGE ( 'NONE', *, *, #171, .F. ) ;
#317 = ADVANCED_FACE ( 'NONE', ( #96 ), #113, .T. ) ;
#318 = ORIENTED_EDGE ( 'NONE', *, *, #260, .F. ) ;
#319 = DATE_AND_TIME ( #114, #289 ) ;
#320 = VERTEX_POINT ( 'NONE', #255 ) ;
#321 =( NAMED_UNIT ( * ) PLANE_ANGLE_UNIT ( ) SI_UNIT ( $, .RADIAN. ) );
#322 = ORIENTED_EDGE ( 'NONE', *, *, #328, .T. ) ;
#323 = ORIENTED_EDGE ( 'NONE', *, *, #109, .F. ) ;
#324 = DESIGN_CONTEXT ( 'detailed design', #167, 'design' ) ;
#325 = CC_DESIGN_APPROVAL ( #295, ( #250 ) ) ;
#326 = CARTESIAN_POINT ( 'NONE',  ( 1.009129336454964590E-13, -1.499999999999997335, 12.00000000000000000 ) ) ;
#327 = PLANE ( 'NONE',  #257 ) ;
#328 = EDGE_CURVE ( 'NONE', #64, #61, #240, .T. ) ;
#329 = DIRECTION ( 'NONE',  ( 0.0000000000000000000, 1.000000000000000000, 0.0000000000000000000 ) ) ;
#330 = CARTESIAN_POINT ( 'NONE',  ( 4.189777606611760026E-14, 1.124819836996388006E-32, 12.00000000000000000 ) ) ;
#331 = FACE_OUTER_BOUND ( 'NONE', #140, .T. ) ;
#332 = APPROVAL ( #337, 'UNSPECIFIED' ) ;
#333 = PRODUCT_RELATED_PRODUCT_CATEGORY ( 'detail', '', ( #158 ) ) ;
#334 = DIRECTION ( 'NONE',  ( -3.491481338843133355E-15, 1.224646799147353207E-16, -1.000000000000000000 ) ) ;
#335 = CARTESIAN_POINT ( 'NONE',  ( 1.606081415867841091E-13, -5.633375276077824704E-15, 46.00000000000000000 ) ) ;
#336 = LOCAL_TIME ( 9, 49, 43.00000000000000000, #202 ) ;
#337 = APPROVAL_STATUS ( 'not_yet_approved' ) ;
ENDSEC;
END-ISO-10303-21;
