ISO-10303-21;
HEADER;
FILE_DESCRIPTION (( 'STEP AP203' ),
    '1' );
FILE_NAME ('54542.step',
    '2021-09-03T07:49:41',
    ( '' ),
    ( '' ),
    'SwSTEP 2.0',
    'SolidWorks 2019',
    '' );
FILE_SCHEMA (( 'CONFIG_CONTROL_DESIGN' ));
ENDSEC;

DATA;
#1 = CYLINDRICAL_SURFACE ( 'NONE', #120, 1.474999999999995426 ) ;
#2 = CIRCLE ( 'NONE', #181, 1.474999999999994760 ) ;
#3 = LOCAL_TIME ( 9, 49, 41.00000000000000000, #157 ) ;
#4 = DATE_TIME_ROLE ( 'creation_date' ) ;
#5 = CIRCLE ( 'NONE', #106, 1.474999999999996092 ) ;
#6 = CARTESIAN_POINT ( 'NONE',  ( 3.094393116906199950E-15, -1.474999999999994982, 0.8862694130656576519 ) ) ;
#7 = CC_DESIGN_PERSON_AND_ORGANIZATION_ASSIGNMENT ( #45, #16, ( #53 ) ) ;
#8 = EDGE_CURVE ( 'NONE', #89, #82, #15, .T. ) ;
#9 = ORIENTED_EDGE ( 'NONE', *, *, #188, .F. ) ;
#10 = PERSON_AND_ORGANIZATION ( #85, #325 ) ;
#11 = EDGE_LOOP ( 'NONE', ( #167, #34 ) ) ;
#12 = EDGE_LOOP ( 'NONE', ( #269, #142, #137, #241 ) ) ;
#13 = EDGE_CURVE ( 'NONE', #267, #116, #302, .T. ) ;
#14 = ORIENTED_EDGE ( 'NONE', *, *, #79, .T. ) ;
#15 = CIRCLE ( 'NONE', #205, 1.474999999999996092 ) ;
#16 = PERSON_AND_ORGANIZATION_ROLE ( 'classification_officer' ) ;
#17 = VERTEX_POINT ( 'NONE', #328 ) ;
#18 = AXIS2_PLACEMENT_3D ( 'NONE', #324, #225, #46 ) ;
#19 = DIRECTION ( 'NONE',  ( 0.0000000000000000000, 1.000000000000000000, 0.0000000000000000000 ) ) ;
#20 = CC_DESIGN_DATE_AND_TIME_ASSIGNMENT ( #235, #4, ( #262 ) ) ;
#21 = DIRECTION ( 'NONE',  ( -3.491481338843133355E-15, 1.224646799147353207E-16, -1.000000000000000000 ) ) ;
#22 = CARTESIAN_POINT ( 'NONE',  ( 3.275028519780435714E-15, 1.474999999999994538, 0.8862694130656579850 ) ) ;
#23 = CARTESIAN_POINT ( 'NONE',  ( 4.189777606611760026E-14, 1.474999999999994538, 12.00000000000000000 ) ) ;
#24 = DIRECTION ( 'NONE',  ( -4.275831445896958607E-31, -1.000000000000000000, -1.224646799147353207E-16 ) ) ;
#25 = AXIS2_PLACEMENT_3D ( 'NONE', #71, #278, #251 ) ;
#26 = CC_DESIGN_SECURITY_CLASSIFICATION ( #53, ( #334 ) ) ;
#27 = DIRECTION ( 'NONE',  ( -3.491481338843133355E-15, 1.224646799147353207E-16, -1.000000000000000000 ) ) ;
#28 = EDGE_CURVE ( 'NONE', #273, #89, #146, .T. ) ;
#29 = DIRECTION ( 'NONE',  ( -3.491481338843133355E-15, 1.224646799147353207E-16, -1.000000000000000000 ) ) ;
#30 = AXIS2_PLACEMENT_3D ( 'NONE', #176, #21, #19 ) ;
#31 = DIRECTION ( 'NONE',  ( 0.0000000000000000000, 0.0000000000000000000, 1.000000000000000000 ) ) ;
#32 = VECTOR ( 'NONE', #239, 1000.000000000000000 ) ;
#33 = PERSON_AND_ORGANIZATION_ROLE ( 'creator' ) ;
#34 = ORIENTED_EDGE ( 'NONE', *, *, #13, .F. ) ;
#35 = DIRECTION ( 'NONE',  ( -2.382254525458723780E-15, -0.7071067811865453523, -0.7071067811865496822 ) ) ;
#36 = ORIENTED_EDGE ( 'NONE', *, *, #79, .F. ) ;
#37 = DIRECTION ( 'NONE',  ( 3.491481338843133355E-15, -1.224646799147353207E-16, 1.000000000000000000 ) ) ;
#38 = EDGE_CURVE ( 'NONE', #116, #133, #121, .T. ) ;
#39 = CC_DESIGN_APPROVAL ( #107, ( #334 ) ) ;
#40 = ORIENTED_EDGE ( 'NONE', *, *, #13, .T. ) ;
#41 = CARTESIAN_POINT ( 'NONE',  ( 4.189777606611760026E-14, -1.469576158976823947E-15, 12.00000000000000000 ) ) ;
#42 = ORIENTED_EDGE ( 'NONE', *, *, #126, .F. ) ;
#43 = DIRECTION ( 'NONE',  ( 0.0000000000000000000, 1.000000000000000000, 0.0000000000000000000 ) ) ;
#44 = CONICAL_SURFACE ( 'NONE', #215, 1.175000000000000266, 0.7853981633974453924 ) ;
#45 = PERSON_AND_ORGANIZATION ( #85, #325 ) ;
#46 = DIRECTION ( 'NONE',  ( 0.0000000000000000000, 1.000000000000000000, 0.0000000000000000000 ) ) ;
#47 = DIRECTION ( 'NONE',  ( 4.275831445896958607E-31, 1.000000000000000000, 1.224646799147353207E-16 ) ) ;
#48 = CARTESIAN_POINT ( 'NONE',  ( 4.189777606611760026E-14, 1.474999999999994538, 12.00000000000000000 ) ) ;
#49 = PLANE ( 'NONE',  #158 ) ;
#50 = DESIGN_CONTEXT ( 'detailed design', #336, 'design' ) ;
#51 = EDGE_CURVE ( 'NONE', #82, #89, #5, .T. ) ;
#52 = DIRECTION ( 'NONE',  ( -3.491481338843133355E-15, 1.224646799147353207E-16, -1.000000000000000000 ) ) ;
#53 = SECURITY_CLASSIFICATION ( '', '', #296 ) ;
#54 = CIRCLE ( 'NONE', #234, 1.475000000000000089 ) ;
#55 = CARTESIAN_POINT ( 'NONE',  ( 3.275028519780435714E-15, 1.474999999999994538, 0.8862694130656579850 ) ) ;
#56 = CARTESIAN_POINT ( 'NONE',  ( 1.009098720284984587E-13, -1.475000000000005862, 45.69999999999999574 ) ) ;
#57 = MANIFOLD_SOLID_BREP ( 'Corps-Déplacer/Copier1[1]', #100 ) ;
#58 = CC_DESIGN_PERSON_AND_ORGANIZATION_ASSIGNMENT ( #145, #65, ( #334 ) ) ;
#59 = DIRECTION ( 'NONE',  ( -5.222860866134895816E-31, -1.000000000000000000, -1.470104640658316424E-16 ) ) ;
#60 = APPROVAL_ROLE ( '' ) ;
#61 = AXIS2_PLACEMENT_3D ( 'NONE', #329, #282, #97 ) ;
#62 = ORIENTED_EDGE ( 'NONE', *, *, #38, .T. ) ;
#63 = DIRECTION ( 'NONE',  ( 3.491481338843133355E-15, -1.224646799147353207E-16, 1.000000000000000000 ) ) ;
#64 = ORIENTED_EDGE ( 'NONE', *, *, #91, .F. ) ;
#65 = PERSON_AND_ORGANIZATION_ROLE ( 'creator' ) ;
#66 = CONICAL_SURFACE ( 'NONE', #288, 1.474999999999994760, 1.029744258676649871 ) ;
#67 = LOCAL_TIME ( 9, 49, 41.00000000000000000, #186 ) ;
#68 = VERTEX_POINT ( 'NONE', #275 ) ;
#69 = CC_DESIGN_PERSON_AND_ORGANIZATION_ASSIGNMENT ( #129, #33, ( #262 ) ) ;
#70 = ORIENTED_EDGE ( 'NONE', *, *, #160, .T. ) ;
#71 = CARTESIAN_POINT ( 'NONE',  ( 1.606081415867841091E-13, -5.633375276077824704E-15, 46.00000000000000000 ) ) ;
#72 = DIRECTION ( 'NONE',  ( 0.0000000000000000000, 1.000000000000000000, 0.0000000000000000000 ) ) ;
#73 = DIRECTION ( 'NONE',  ( -3.491481338843133355E-15, 1.224646799147353207E-16, -1.000000000000000000 ) ) ;
#74 = CARTESIAN_POINT ( 'NONE',  ( 0.0000000000000000000, 0.0000000000000000000, 0.0000000000000000000 ) ) ;
#75 = FACE_OUTER_BOUND ( 'NONE', #12, .T. ) ;
#76 = DIRECTION ( 'NONE',  ( 3.491481338843133355E-15, -1.224646799147353207E-16, 1.000000000000000000 ) ) ;
#77 = DIRECTION ( 'NONE',  ( 0.0000000000000000000, 1.000000000000000000, 0.0000000000000000000 ) ) ;
#78 = AXIS2_PLACEMENT_3D ( 'NONE', #182, #155, #284 ) ;
#79 = EDGE_CURVE ( 'NONE', #294, #17, #318, .T. ) ;
#80 = PERSON_AND_ORGANIZATION ( #85, #325 ) ;
#81 = DIRECTION ( 'NONE',  ( -4.275831445896958607E-31, -1.000000000000000000, -1.224646799147353207E-16 ) ) ;
#82 = VERTEX_POINT ( 'NONE', #48 ) ;
#83 = CARTESIAN_POINT ( 'NONE',  ( 1.595606971851311880E-13, 1.474999999999994538, 45.69999999999999574 ) ) ;
#84 = EDGE_LOOP ( 'NONE', ( #217, #219, #70 ) ) ;
#85 = PERSON ( 'UNSPECIFIED', 'UNSPECIFIED', 'UNSPECIFIED', ('UNSPECIFIED'), ('UNSPECIFIED'), ('UNSPECIFIED') ) ;
#86 = DIRECTION ( 'NONE',  ( 1.000000000000000000, 0.0000000000000000000, 0.0000000000000000000 ) ) ;
#87 = ORIENTED_EDGE ( 'NONE', *, *, #231, .T. ) ;
#88 = VECTOR ( 'NONE', #228, 1000.000000000000114 ) ;
#89 = VERTEX_POINT ( 'NONE', #303 ) ;
#90 = COORDINATED_UNIVERSAL_TIME_OFFSET ( 1, 0, .AHEAD. ) ;
#91 = EDGE_CURVE ( 'NONE', #17, #294, #104, .T. ) ;
#92 = ORIENTED_EDGE ( 'NONE', *, *, #8, .T. ) ;
#93 = CYLINDRICAL_SURFACE ( 'NONE', #171, 1.474999999999998090 ) ;
#94 = CARTESIAN_POINT ( 'NONE',  ( 4.189777606611760026E-14, -1.469576158976823947E-15, 12.00000000000000000 ) ) ;
#95 = DATE_AND_TIME ( #138, #249 ) ;
#96 = DIRECTION ( 'NONE',  ( -3.491481338843133355E-15, 1.224646799147353207E-16, -1.000000000000000000 ) ) ;
#97 = DIRECTION ( 'NONE',  ( 4.275831445896958607E-31, 1.000000000000000000, 1.224646799147353207E-16 ) ) ;
#98 = ADVANCED_FACE ( 'NONE', ( #253 ), #93, .T. ) ;
#99 = DIRECTION ( 'NONE',  ( 4.275831445896958607E-31, 1.000000000000000000, 1.224646799147353207E-16 ) ) ;
#100 = CLOSED_SHELL ( 'NONE', ( #103, #98, #274, #255, #180, #128 ) ) ;
#101 = FACE_OUTER_BOUND ( 'NONE', #214, .T. ) ;
#102 = VECTOR ( 'NONE', #119, 1000.000000000000114 ) ;
#103 = ADVANCED_FACE ( 'NONE', ( #149 ), #298, .T. ) ;
#104 = CIRCLE ( 'NONE', #30, 1.175000000000000266 ) ;
#105 = LINE ( 'NONE', #266, #164 ) ;
#106 = AXIS2_PLACEMENT_3D ( 'NONE', #170, #280, #43 ) ;
#107 = APPROVAL ( #290, 'UNSPECIFIED' ) ;
#108 = APPLICATION_PROTOCOL_DEFINITION ( 'international standard', 'config_control_design', 1994, #336 ) ;
#109 = EDGE_LOOP ( 'NONE', ( #196, #243, #319 ) ) ;
#110 = ORIENTED_EDGE ( 'NONE', *, *, #28, .T. ) ;
#111 = DATE_TIME_ROLE ( 'classification_date' ) ;
#112 = ORIENTED_EDGE ( 'NONE', *, *, #91, .T. ) ;
#113 = CLOSED_SHELL ( 'NONE', ( #148, #140, #310, #224, #287 ) ) ;
#114 = PERSON_AND_ORGANIZATION ( #85, #325 ) ;
#115 = AXIS2_PLACEMENT_3D ( 'NONE', #268, #31, #86 ) ;
#116 = VERTEX_POINT ( 'NONE', #23 ) ;
#117 = DIRECTION ( 'NONE',  ( 0.0000000000000000000, 1.000000000000000000, 0.0000000000000000000 ) ) ;
#118 = DIRECTION ( 'NONE',  ( -3.491481338843133355E-15, 1.224646799147353207E-16, -1.000000000000000000 ) ) ;
#119 = DIRECTION ( 'NONE',  ( -2.468850131082271655E-15, 0.7071067811865455743, -0.7071067811865493491 ) ) ;
#120 = AXIS2_PLACEMENT_3D ( 'NONE', #263, #306, #99 ) ;
#121 = LINE ( 'NONE', #305, #189 ) ;
#122 = CARTESIAN_POINT ( 'NONE',  ( 1.606081415867841091E-13, 8.811088723138331339E-33, 46.00000000000000000 ) ) ;
#123 = UNCERTAINTY_MEASURE_WITH_UNIT (LENGTH_MEASURE( 1.000000000000000082E-05 ), #242, 'distance_accuracy_value', 'NONE');
#124 = DIRECTION ( 'NONE',  ( 0.0000000000000000000, 1.000000000000000000, 0.0000000000000000000 ) ) ;
#125 = CYLINDRICAL_SURFACE ( 'NONE', #61, 1.474999999999995426 ) ;
#126 = EDGE_CURVE ( 'NONE', #17, #327, #229, .T. ) ;
#127 = AXIS2_PLACEMENT_3D ( 'NONE', #332, #96, #256 ) ;
#128 = ADVANCED_FACE ( 'NONE', ( #333 ), #309, .F. ) ;
#129 = PERSON_AND_ORGANIZATION ( #85, #325 ) ;
#130 = CC_DESIGN_APPROVAL ( #223, ( #53 ) ) ;
#131 = CALENDAR_DATE ( 2021, 3, 9 ) ;
#132 = MECHANICAL_CONTEXT ( 'NONE', #313, 'mechanical' ) ;
#133 = VERTEX_POINT ( 'NONE', #55 ) ;
#134 = APPLICATION_PROTOCOL_DEFINITION ( 'international standard', 'config_control_design', 1994, #313 ) ;
#135 = ORIENTED_EDGE ( 'NONE', *, *, #211, .T. ) ;
#136 = LOCAL_TIME ( 9, 49, 41.00000000000000000, #316 ) ;
#137 = ORIENTED_EDGE ( 'NONE', *, *, #160, .F. ) ;
#138 = CALENDAR_DATE ( 2021, 3, 9 ) ;
#139 = DIRECTION ( 'NONE',  ( -3.491481338843133355E-15, 1.224646799147353207E-16, -1.000000000000000000 ) ) ;
#140 = ADVANCED_FACE ( 'NONE', ( #308 ), #207, .T. ) ;
#141 = APPROVAL_DATE_TIME ( #291, #107 ) ;
#142 = ORIENTED_EDGE ( 'NONE', *, *, #194, .T. ) ;
#143 = CIRCLE ( 'NONE', #198, 1.475000000000000089 ) ;
#144 = DIRECTION ( 'NONE',  ( -3.491481338843133355E-15, 1.224646799147353207E-16, -1.000000000000000000 ) ) ;
#145 = PERSON_AND_ORGANIZATION ( #85, #325 ) ;
#146 = LINE ( 'NONE', #174, #237 ) ;
#147 = DIRECTION ( 'NONE',  ( -3.491481338843133355E-15, 1.224646799147353207E-16, -1.000000000000000000 ) ) ;
#148 = ADVANCED_FACE ( 'NONE', ( #75 ), #125, .T. ) ;
#149 = FACE_OUTER_BOUND ( 'NONE', #272, .T. ) ;
#150 = CARTESIAN_POINT ( 'NONE',  ( 1.595606971851311880E-13, -5.596635872103403844E-15, 45.69999999999999574 ) ) ;
#151 = VECTOR ( 'NONE', #279, 1000.000000000000000 ) ;
#152 = LINE ( 'NONE', #179, #151 ) ;
#153 = AXIS2_PLACEMENT_3D ( 'NONE', #261, #76, #154 ) ;
#154 = DIRECTION ( 'NONE',  ( -5.222860866134895816E-31, -1.000000000000000000, -1.470104640658316424E-16 ) ) ;
#155 = DIRECTION ( 'NONE',  ( -3.491481338843133355E-15, 1.224646799147353207E-16, -1.000000000000000000 ) ) ;
#156 = CARTESIAN_POINT ( 'NONE',  ( 3.094393116906200739E-15, -1.085366999893061273E-16, 0.8862694130656577629 ) ) ;
#157 = COORDINATED_UNIVERSAL_TIME_OFFSET ( 1, 0, .AHEAD. ) ;
#158 = AXIS2_PLACEMENT_3D ( 'NONE', #257, #230, #24 ) ;
#159 =( NAMED_UNIT ( * ) PLANE_ANGLE_UNIT ( ) SI_UNIT ( $, .RADIAN. ) );
#160 = EDGE_CURVE ( 'NONE', #133, #68, #292, .T. ) ;
#161 = ORIENTED_EDGE ( 'NONE', *, *, #194, .F. ) ;
#162 = CALENDAR_DATE ( 2021, 3, 9 ) ;
#163 = ORIENTED_EDGE ( 'NONE', *, *, #8, .F. ) ;
#164 = VECTOR ( 'NONE', #191, 1000.000000000000000 ) ;
#165 = APPROVAL_STATUS ( 'not_yet_approved' ) ;
#166 = EDGE_CURVE ( 'NONE', #116, #267, #314, .T. ) ;
#167 = ORIENTED_EDGE ( 'NONE', *, *, #166, .F. ) ;
#168 = APPROVAL_ROLE ( '' ) ;
#169 = ORIENTED_EDGE ( 'NONE', *, *, #126, .T. ) ;
#170 = CARTESIAN_POINT ( 'NONE',  ( 4.189777606611760026E-14, -1.469576158976823947E-15, 12.00000000000000000 ) ) ;
#171 = AXIS2_PLACEMENT_3D ( 'NONE', #201, #118, #227 ) ;
#172 = APPROVAL_PERSON_ORGANIZATION ( #331, #223, #168 ) ;
#173 = APPROVAL ( #320, 'UNSPECIFIED' ) ;
#174 = CARTESIAN_POINT ( 'NONE',  ( 1.806354028742337174E-16, -1.474999999999998090, -1.806354028742349746E-16 ) ) ;
#175 = DIRECTION ( 'NONE',  ( -3.491481338843133355E-15, 1.224646799147353207E-16, -1.000000000000000000 ) ) ;
#176 = CARTESIAN_POINT ( 'NONE',  ( 1.606081415867841091E-13, -5.633375276077824704E-15, 46.00000000000000000 ) ) ;
#177 = LINE ( 'NONE', #22, #88 ) ;
#178 = PRODUCT_DEFINITION_SHAPE ( 'NONE', 'NONE',  #262 ) ;
#179 = CARTESIAN_POINT ( 'NONE',  ( 1.806354028742334215E-16, -1.474999999999995426, -1.806354028742346541E-16 ) ) ;
#180 = ADVANCED_FACE ( 'NONE', ( #202 ), #44, .T. ) ;
#181 = AXIS2_PLACEMENT_3D ( 'NONE', #203, #29, #233 ) ;
#182 = CARTESIAN_POINT ( 'NONE',  ( 3.094393116906200739E-15, -1.085366999893061273E-16, 0.8862694130656577629 ) ) ;
#183 = CARTESIAN_POINT ( 'NONE',  ( 2.267671999438611694E-14, -1.474999999999997646, 12.00000000000000000 ) ) ;
#184 = ADVANCED_BREP_SHAPE_REPRESENTATION ( '54542', ( #57, #276, #115 ), #248 ) ;
#185 = APPROVAL_PERSON_ORGANIZATION ( #80, #107, #60 ) ;
#186 = COORDINATED_UNIVERSAL_TIME_OFFSET ( 1, 0, .AHEAD. ) ;
#187 =( NAMED_UNIT ( * ) SI_UNIT ( $, .STERADIAN. ) SOLID_ANGLE_UNIT ( ) );
#188 = EDGE_CURVE ( 'NONE', #68, #133, #2, .T. ) ;
#189 = VECTOR ( 'NONE', #73, 1000.000000000000000 ) ;
#190 = LOCAL_TIME ( 9, 49, 41.00000000000000000, #221 ) ;
#191 = DIRECTION ( 'NONE',  ( -3.491481338843133355E-15, 1.224646799147353207E-16, -1.000000000000000000 ) ) ;
#192 = EDGE_LOOP ( 'NONE', ( #295, #14, #169, #199 ) ) ;
#193 = ORIENTED_EDGE ( 'NONE', *, *, #312, .T. ) ;
#194 = EDGE_CURVE ( 'NONE', #267, #68, #152, .T. ) ;
#195 = PERSON_AND_ORGANIZATION ( #85, #325 ) ;
#196 = ORIENTED_EDGE ( 'NONE', *, *, #247, .F. ) ;
#197 = AXIS2_PLACEMENT_3D ( 'NONE', #122, #147, #232 ) ;
#198 = AXIS2_PLACEMENT_3D ( 'NONE', #208, #311, #77 ) ;
#199 = ORIENTED_EDGE ( 'NONE', *, *, #231, .F. ) ;
#200 = VERTEX_POINT ( 'NONE', #260 ) ;
#201 = CARTESIAN_POINT ( 'NONE',  ( 0.0000000000000000000, 0.0000000000000000000, 0.0000000000000000000 ) ) ;
#202 = FACE_OUTER_BOUND ( 'NONE', #192, .T. ) ;
#203 = CARTESIAN_POINT ( 'NONE',  ( 3.094393116906200739E-15, -1.085366999893061273E-16, 0.8862694130656577629 ) ) ;
#204 = PLANE ( 'NONE',  #236 ) ;
#205 = AXIS2_PLACEMENT_3D ( 'NONE', #41, #139, #244 ) ;
#206 = FACE_OUTER_BOUND ( 'NONE', #297, .T. ) ;
#207 = CONICAL_SURFACE ( 'NONE', #153, 1.474999999999994760, 1.029744258676649871 ) ;
#208 = CARTESIAN_POINT ( 'NONE',  ( 1.595606971851311880E-13, -5.596635872103403844E-15, 45.69999999999999574 ) ) ;
#209 = CC_DESIGN_PERSON_AND_ORGANIZATION_ASSIGNMENT ( #10, #218, ( #307 ) ) ;
#210 = AXIS2_PLACEMENT_3D ( 'NONE', #74, #281, #47 ) ;
#211 = EDGE_CURVE ( 'NONE', #327, #273, #54, .T. ) ;
#212 = LINE ( 'NONE', #6, #32 ) ;
#213 = FACE_OUTER_BOUND ( 'NONE', #109, .T. ) ;
#214 = EDGE_LOOP ( 'NONE', ( #161, #40, #62, #9 ) ) ;
#215 = AXIS2_PLACEMENT_3D ( 'NONE', #304, #52, #72 ) ;
#216 = CARTESIAN_POINT ( 'NONE',  ( 1.607520375856839374E-13, -1.175000000000005818, 46.00000000000000000 ) ) ;
#217 = ORIENTED_EDGE ( 'NONE', *, *, #289, .F. ) ;
#218 = PERSON_AND_ORGANIZATION_ROLE ( 'design_owner' ) ;
#219 = ORIENTED_EDGE ( 'NONE', *, *, #247, .T. ) ;
#220 = ORIENTED_EDGE ( 'NONE', *, *, #51, .F. ) ;
#221 = COORDINATED_UNIVERSAL_TIME_OFFSET ( 1, 0, .AHEAD. ) ;
#222 = ORIENTED_EDGE ( 'NONE', *, *, #211, .F. ) ;
#223 = APPROVAL ( #165, 'UNSPECIFIED' ) ;
#224 = ADVANCED_FACE ( 'NONE', ( #101 ), #1, .T. ) ;
#225 = DIRECTION ( 'NONE',  ( -3.491481338843133355E-15, 1.224646799147353207E-16, -1.000000000000000000 ) ) ;
#226 = CARTESIAN_POINT ( 'NONE',  ( 1.606081415867841091E-13, 1.174999999999994715, 46.00000000000000000 ) ) ;
#227 = DIRECTION ( 'NONE',  ( 4.275831445896958607E-31, 1.000000000000000000, 1.224646799147353207E-16 ) ) ;
#228 = DIRECTION ( 'NONE',  ( 1.903218546456021928E-15, 0.8571673007021098911, 0.5150380749100583744 ) ) ;
#229 = LINE ( 'NONE', #226, #102 ) ;
#230 = DIRECTION ( 'NONE',  ( 3.491481338843133355E-15, -1.224646799147353207E-16, 1.000000000000000000 ) ) ;
#231 = EDGE_CURVE ( 'NONE', #273, #327, #143, .T. ) ;
#232 = DIRECTION ( 'NONE',  ( 4.275831445896958607E-31, 1.000000000000000000, 1.224646799147353207E-16 ) ) ;
#233 = DIRECTION ( 'NONE',  ( 5.222860866134895816E-31, 1.000000000000000000, 1.470104640658316424E-16 ) ) ;
#234 = AXIS2_PLACEMENT_3D ( 'NONE', #150, #27, #124 ) ;
#235 = DATE_AND_TIME ( #315, #136 ) ;
#236 = AXIS2_PLACEMENT_3D ( 'NONE', #317, #63, #81 ) ;
#237 = VECTOR ( 'NONE', #144, 1000.000000000000000 ) ;
#238 = LINE ( 'NONE', #216, #258 ) ;
#239 = DIRECTION ( 'NONE',  ( 1.798245827342159528E-15, -0.8571673007021100021, 0.5150380749100580413 ) ) ;
#240 = EDGE_LOOP ( 'NONE', ( #135, #110, #220, #246 ) ) ;
#241 = ORIENTED_EDGE ( 'NONE', *, *, #38, .F. ) ;
#242 =( LENGTH_UNIT ( ) NAMED_UNIT ( * ) SI_UNIT ( .MILLI., .METRE. ) );
#243 = ORIENTED_EDGE ( 'NONE', *, *, #289, .T. ) ;
#244 = DIRECTION ( 'NONE',  ( 0.0000000000000000000, 1.000000000000000000, 0.0000000000000000000 ) ) ;
#245 = PERSON_AND_ORGANIZATION_ROLE ( 'design_supplier' ) ;
#246 = ORIENTED_EDGE ( 'NONE', *, *, #299, .F. ) ;
#247 = EDGE_CURVE ( 'NONE', #200, #133, #177, .T. ) ;
#248 =( GEOMETRIC_REPRESENTATION_CONTEXT ( 3 ) GLOBAL_UNCERTAINTY_ASSIGNED_CONTEXT ( ( #123 ) ) GLOBAL_UNIT_ASSIGNED_CONTEXT ( ( #242, #159, #187 ) ) REPRESENTATION_CONTEXT ( 'NONE', 'WORKASPACE' ) );
#249 = LOCAL_TIME ( 9, 49, 41.00000000000000000, #90 ) ;
#250 = SHAPE_DEFINITION_REPRESENTATION ( #178, #184 ) ;
#251 = DIRECTION ( 'NONE',  ( 0.0000000000000000000, 1.000000000000000000, 0.0000000000000000000 ) ) ;
#252 = DATE_AND_TIME ( #326, #190 ) ;
#253 = FACE_OUTER_BOUND ( 'NONE', #240, .T. ) ;
#254 = FACE_OUTER_BOUND ( 'NONE', #271, .T. ) ;
#255 = ADVANCED_FACE ( 'NONE', ( #206 ), #286, .T. ) ;
#256 = DIRECTION ( 'NONE',  ( 0.0000000000000000000, 1.000000000000000000, 0.0000000000000000000 ) ) ;
#257 = CARTESIAN_POINT ( 'NONE',  ( 4.189777606611760026E-14, 1.106072839713114786E-32, 12.00000000000000000 ) ) ;
#258 = VECTOR ( 'NONE', #35, 1000.000000000000000 ) ;
#259 = CC_DESIGN_APPROVAL ( #173, ( #262 ) ) ;
#260 = CARTESIAN_POINT ( 'NONE',  ( 0.0000000000000000000, 0.0000000000000000000, 0.0000000000000000000 ) ) ;
#261 = CARTESIAN_POINT ( 'NONE',  ( 3.094393116906200739E-15, -1.085366999893061273E-16, 0.8862694130656577629 ) ) ;
#262 = PRODUCT_DEFINITION ( 'UNKNOWN', '', #334, #50 ) ;
#263 = CARTESIAN_POINT ( 'NONE',  ( 0.0000000000000000000, 0.0000000000000000000, 0.0000000000000000000 ) ) ;
#264 = APPROVAL_DATE_TIME ( #270, #173 ) ;
#265 = CARTESIAN_POINT ( 'NONE',  ( 1.602466850868446581E-13, -1.175000000000005818, 46.00000000000000000 ) ) ;
#266 = CARTESIAN_POINT ( 'NONE',  ( 6.306851382698005581E-31, 1.474999999999998090, 1.806354028742343583E-16 ) ) ;
#267 = VERTEX_POINT ( 'NONE', #183 ) ;
#268 = CARTESIAN_POINT ( 'NONE',  ( 0.0000000000000000000, 0.0000000000000000000, 0.0000000000000000000 ) ) ;
#269 = ORIENTED_EDGE ( 'NONE', *, *, #166, .T. ) ;
#270 = DATE_AND_TIME ( #162, #67 ) ;
#271 = EDGE_LOOP ( 'NONE', ( #301, #92 ) ) ;
#272 = EDGE_LOOP ( 'NONE', ( #112, #193, #222, #42 ) ) ;
#273 = VERTEX_POINT ( 'NONE', #56 ) ;
#274 = ADVANCED_FACE ( 'NONE', ( #254 ), #49, .F. ) ;
#275 = CARTESIAN_POINT ( 'NONE',  ( 3.094393116906199950E-15, -1.474999999999994982, 0.8862694130656576519 ) ) ;
#276 = MANIFOLD_SOLID_BREP ( 'Corps-Déplacer/Copier1[2]', #113 ) ;
#277 = APPROVAL_PERSON_ORGANIZATION ( #195, #173, #322 ) ;
#278 = DIRECTION ( 'NONE',  ( -3.491481338843133355E-15, 1.224646799147353207E-16, -1.000000000000000000 ) ) ;
#279 = DIRECTION ( 'NONE',  ( -3.491481338843133355E-15, 1.224646799147353207E-16, -1.000000000000000000 ) ) ;
#280 = DIRECTION ( 'NONE',  ( -3.491481338843133355E-15, 1.224646799147353207E-16, -1.000000000000000000 ) ) ;
#281 = DIRECTION ( 'NONE',  ( -3.491481338843133355E-15, 1.224646799147353207E-16, -1.000000000000000000 ) ) ;
#282 = DIRECTION ( 'NONE',  ( -3.491481338843133355E-15, 1.224646799147353207E-16, -1.000000000000000000 ) ) ;
#283 = AXIS2_PLACEMENT_3D ( 'NONE', #94, #175, #117 ) ;
#284 = DIRECTION ( 'NONE',  ( 5.222860866134895816E-31, 1.000000000000000000, 1.470104640658316424E-16 ) ) ;
#285 = CC_DESIGN_DATE_AND_TIME_ASSIGNMENT ( #95, #111, ( #53 ) ) ;
#286 = CYLINDRICAL_SURFACE ( 'NONE', #210, 1.474999999999998090 ) ;
#287 = ADVANCED_FACE ( 'NONE', ( #337 ), #204, .T. ) ;
#288 = AXIS2_PLACEMENT_3D ( 'NONE', #156, #37, #59 ) ;
#289 = EDGE_CURVE ( 'NONE', #200, #68, #212, .T. ) ;
#290 = APPROVAL_STATUS ( 'not_yet_approved' ) ;
#291 = DATE_AND_TIME ( #131, #3 ) ;
#292 = CIRCLE ( 'NONE', #78, 1.474999999999994760 ) ;
#293 = PRODUCT_RELATED_PRODUCT_CATEGORY ( 'detail', '', ( #307 ) ) ;
#294 = VERTEX_POINT ( 'NONE', #265 ) ;
#295 = ORIENTED_EDGE ( 'NONE', *, *, #312, .F. ) ;
#296 = SECURITY_CLASSIFICATION_LEVEL ( 'unclassified' ) ;
#297 = EDGE_LOOP ( 'NONE', ( #300, #87, #323, #163 ) ) ;
#298 = CONICAL_SURFACE ( 'NONE', #127, 1.175000000000000266, 0.7853981633974453924 ) ;
#299 = EDGE_CURVE ( 'NONE', #327, #82, #105, .T. ) ;
#300 = ORIENTED_EDGE ( 'NONE', *, *, #28, .F. ) ;
#301 = ORIENTED_EDGE ( 'NONE', *, *, #51, .T. ) ;
#302 = CIRCLE ( 'NONE', #18, 1.474999999999996092 ) ;
#303 = CARTESIAN_POINT ( 'NONE',  ( 1.009098720284985976E-13, -1.474999999999997646, 12.00000000000000000 ) ) ;
#304 = CARTESIAN_POINT ( 'NONE',  ( 1.606081415867841091E-13, -5.633375276077824704E-15, 46.00000000000000000 ) ) ;
#305 = CARTESIAN_POINT ( 'NONE',  ( 6.306851382697994195E-31, 1.474999999999995426, 1.806354028742340378E-16 ) ) ;
#306 = DIRECTION ( 'NONE',  ( -3.491481338843133355E-15, 1.224646799147353207E-16, -1.000000000000000000 ) ) ;
#307 = PRODUCT ( '54542', '54542', '', ( #132 ) ) ;
#308 = FACE_OUTER_BOUND ( 'NONE', #84, .T. ) ;
#309 = PLANE ( 'NONE',  #197 ) ;
#310 = ADVANCED_FACE ( 'NONE', ( #213 ), #66, .T. ) ;
#311 = DIRECTION ( 'NONE',  ( -3.491481338843133355E-15, 1.224646799147353207E-16, -1.000000000000000000 ) ) ;
#312 = EDGE_CURVE ( 'NONE', #294, #273, #238, .T. ) ;
#313 = APPLICATION_CONTEXT ( 'configuration controlled 3d designs of mechanical parts and assemblies' ) ;
#314 = CIRCLE ( 'NONE', #283, 1.474999999999996092 ) ;
#315 = CALENDAR_DATE ( 2021, 3, 9 ) ;
#316 = COORDINATED_UNIVERSAL_TIME_OFFSET ( 1, 0, .AHEAD. ) ;
#317 = CARTESIAN_POINT ( 'NONE',  ( 4.189777606611760026E-14, 1.106072839713114786E-32, 12.00000000000000000 ) ) ;
#318 = CIRCLE ( 'NONE', #25, 1.175000000000000266 ) ;
#319 = ORIENTED_EDGE ( 'NONE', *, *, #188, .T. ) ;
#320 = APPROVAL_STATUS ( 'not_yet_approved' ) ;
#321 = EDGE_LOOP ( 'NONE', ( #64, #36 ) ) ;
#322 = APPROVAL_ROLE ( '' ) ;
#323 = ORIENTED_EDGE ( 'NONE', *, *, #299, .T. ) ;
#324 = CARTESIAN_POINT ( 'NONE',  ( 4.189777606611760026E-14, -1.469576158976823947E-15, 12.00000000000000000 ) ) ;
#325 = ORGANIZATION ( 'UNSPECIFIED', 'UNSPECIFIED', '' ) ;
#326 = CALENDAR_DATE ( 2021, 3, 9 ) ;
#327 = VERTEX_POINT ( 'NONE', #83 ) ;
#328 = CARTESIAN_POINT ( 'NONE',  ( 1.606081415867841091E-13, 1.174999999999994715, 46.00000000000000000 ) ) ;
#329 = CARTESIAN_POINT ( 'NONE',  ( 0.0000000000000000000, 0.0000000000000000000, 0.0000000000000000000 ) ) ;
#330 = CC_DESIGN_PERSON_AND_ORGANIZATION_ASSIGNMENT ( #114, #245, ( #334 ) ) ;
#331 = PERSON_AND_ORGANIZATION ( #85, #325 ) ;
#332 = CARTESIAN_POINT ( 'NONE',  ( 1.606081415867841091E-13, -5.633375276077824704E-15, 46.00000000000000000 ) ) ;
#333 = FACE_OUTER_BOUND ( 'NONE', #321, .T. ) ;
#334 = PRODUCT_DEFINITION_FORMATION_WITH_SPECIFIED_SOURCE ( 'ANY', '', #307, .NOT_KNOWN. ) ;
#335 = APPROVAL_DATE_TIME ( #252, #223 ) ;
#336 = APPLICATION_CONTEXT ( 'configuration controlled 3d designs of mechanical parts and assemblies' ) ;
#337 = FACE_OUTER_BOUND ( 'NONE', #11, .T. ) ;
ENDSEC;
END-ISO-10303-21;
