ISO-10303-21;
HEADER;
FILE_DESCRIPTION (( 'STEP AP203' ),
    '1' );
FILE_NAME ('54541.step',
    '2021-09-03T07:49:38',
    ( '' ),
    ( '' ),
    'SwSTEP 2.0',
    'SolidWorks 2019',
    '' );
FILE_SCHEMA (( 'CONFIG_CONTROL_DESIGN' ));
ENDSEC;

DATA;
#1 = ORIENTED_EDGE ( 'NONE', *, *, #138, .F. ) ;
#2 = CARTESIAN_POINT ( 'NONE',  ( 0.0000000000000000000, 0.0000000000000000000, 0.0000000000000000000 ) ) ;
#3 = DIRECTION ( 'NONE',  ( -3.491481338843133355E-15, 1.224646799147353207E-16, -1.000000000000000000 ) ) ;
#4 = ORIENTED_EDGE ( 'NONE', *, *, #123, .T. ) ;
#5 = LINE ( 'NONE', #261, #99 ) ;
#6 = CONICAL_SURFACE ( 'NONE', #78, 1.149999999999999911, 0.7853981633974453924 ) ;
#7 = DIRECTION ( 'NONE',  ( 4.275831445896958607E-31, 1.000000000000000000, 1.224646799147353207E-16 ) ) ;
#8 = ORIENTED_EDGE ( 'NONE', *, *, #134, .F. ) ;
#9 = CARTESIAN_POINT ( 'NONE',  ( 6.199955596550568872E-31, 1.449999999999995071, 1.775737858763656246E-16 ) ) ;
#10 = APPLICATION_PROTOCOL_DEFINITION ( 'international standard', 'config_control_design', 1994, #168 ) ;
#11 = CALENDAR_DATE ( 2021, 3, 9 ) ;
#12 = AXIS2_PLACEMENT_3D ( 'NONE', #240, #319, #233 ) ;
#13 = ADVANCED_FACE ( 'NONE', ( #303 ), #153, .T. ) ;
#14 = CARTESIAN_POINT ( 'NONE',  ( 1.595606971851311880E-13, -5.596635872103403844E-15, 45.69999999999999574 ) ) ;
#15 = AXIS2_PLACEMENT_3D ( 'NONE', #292, #27, #266 ) ;
#16 = EDGE_CURVE ( 'NONE', #164, #220, #201, .T. ) ;
#17 = DIRECTION ( 'NONE',  ( -3.491481338843133355E-15, 1.224646799147353207E-16, -1.000000000000000000 ) ) ;
#18 = FACE_OUTER_BOUND ( 'NONE', #154, .T. ) ;
#19 = AXIS2_PLACEMENT_3D ( 'NONE', #14, #323, #264 ) ;
#20 = CC_DESIGN_APPROVAL ( #74, ( #71 ) ) ;
#21 = DIRECTION ( 'NONE',  ( 3.491481338843133355E-15, -1.224646799147353207E-16, 1.000000000000000000 ) ) ;
#22 = EDGE_LOOP ( 'NONE', ( #139, #34, #316 ) ) ;
#23 = CARTESIAN_POINT ( 'NONE',  ( 1.009068104115005973E-13, -1.450000000000005285, 45.69999999999999574 ) ) ;
#24 = ORIENTED_EDGE ( 'NONE', *, *, #155, .F. ) ;
#25 = CARTESIAN_POINT ( 'NONE',  ( 3.219519561818054579E-15, 1.449999999999994182, 0.8712478975899686784 ) ) ;
#26 = EDGE_LOOP ( 'NONE', ( #82, #294, #1, #192 ) ) ;
#27 = DIRECTION ( 'NONE',  ( 3.491481338843133355E-15, -1.224646799147353207E-16, 1.000000000000000000 ) ) ;
#28 = PRODUCT_DEFINITION_SHAPE ( 'NONE', 'NONE',  #172 ) ;
#29 = CC_DESIGN_DATE_AND_TIME_ASSIGNMENT ( #39, #147, ( #172 ) ) ;
#30 = CYLINDRICAL_SURFACE ( 'NONE', #285, 1.449999999999995071 ) ;
#31 = CARTESIAN_POINT ( 'NONE',  ( 4.189777606611760026E-14, 1.449999999999994182, 12.00000000000000000 ) ) ;
#32 = AXIS2_PLACEMENT_3D ( 'NONE', #277, #196, #225 ) ;
#33 = FACE_OUTER_BOUND ( 'NONE', #310, .T. ) ;
#34 = ORIENTED_EDGE ( 'NONE', *, *, #107, .T. ) ;
#35 = CARTESIAN_POINT ( 'NONE',  ( 4.189777606611760026E-14, -1.469576158976823947E-15, 12.00000000000000000 ) ) ;
#36 = CARTESIAN_POINT ( 'NONE',  ( 1.595606971851311880E-13, -5.596635872103403844E-15, 45.69999999999999574 ) ) ;
#37 = ORIENTED_EDGE ( 'NONE', *, *, #330, .F. ) ;
#38 = VERTEX_POINT ( 'NONE', #231 ) ;
#39 = DATE_AND_TIME ( #70, #269 ) ;
#40 = ADVANCED_FACE ( 'NONE', ( #328 ), #101, .T. ) ;
#41 = APPROVAL_PERSON_ORGANIZATION ( #247, #74, #189 ) ;
#42 = AXIS2_PLACEMENT_3D ( 'NONE', #332, #337, #75 ) ;
#43 = CALENDAR_DATE ( 2021, 3, 9 ) ;
#44 = AXIS2_PLACEMENT_3D ( 'NONE', #36, #296, #325 ) ;
#45 = ADVANCED_FACE ( 'NONE', ( #81 ), #104, .T. ) ;
#46 = PERSON_AND_ORGANIZATION ( #254, #132 ) ;
#47 = COORDINATED_UNIVERSAL_TIME_OFFSET ( 1, 0, .AHEAD. ) ;
#48 = LOCAL_TIME ( 9, 49, 38.00000000000000000, #187 ) ;
#49 = ORIENTED_EDGE ( 'NONE', *, *, #76, .T. ) ;
#50 = DIRECTION ( 'NONE',  ( -4.275831445896958607E-31, -1.000000000000000000, -1.224646799147353207E-16 ) ) ;
#51 = APPROVAL ( #272, 'UNSPECIFIED' ) ;
#52 = DIRECTION ( 'NONE',  ( -3.491481338843133355E-15, 1.224646799147353207E-16, -1.000000000000000000 ) ) ;
#53 = EDGE_LOOP ( 'NONE', ( #8, #146, #4, #177 ) ) ;
#54 = CARTESIAN_POINT ( 'NONE',  ( 1.009068104115007235E-13, -1.449999999999997291, 12.00000000000000000 ) ) ;
#55 = AXIS2_PLACEMENT_3D ( 'NONE', #297, #250, #143 ) ;
#56 = VERTEX_POINT ( 'NONE', #23 ) ;
#57 = MANIFOLD_SOLID_BREP ( 'Corps-Déplacer/Copier1[2]', #110 ) ;
#58 = CARTESIAN_POINT ( 'NONE',  ( 1.606081415867841091E-13, 1.149999999999994360, 46.00000000000000000 ) ) ;
#59 = ADVANCED_FACE ( 'NONE', ( #311 ), #176, .T. ) ;
#60 = EDGE_LOOP ( 'NONE', ( #290, #267, #66, #184 ) ) ;
#61 = CARTESIAN_POINT ( 'NONE',  ( 1.775737858763650330E-16, -1.449999999999995071, -1.775737858763662163E-16 ) ) ;
#62 = DIRECTION ( 'NONE',  ( 0.0000000000000000000, 1.000000000000000000, 0.0000000000000000000 ) ) ;
#63 = ORIENTED_EDGE ( 'NONE', *, *, #130, .T. ) ;
#64 = DIRECTION ( 'NONE',  ( -3.491481338843133355E-15, 1.224646799147353207E-16, -1.000000000000000000 ) ) ;
#65 = VECTOR ( 'NONE', #162, 1000.000000000000114 ) ;
#66 = ORIENTED_EDGE ( 'NONE', *, *, #155, .T. ) ;
#67 = PERSON_AND_ORGANIZATION_ROLE ( 'design_owner' ) ;
#68 = APPROVAL_DATE_TIME ( #125, #95 ) ;
#69 = MANIFOLD_SOLID_BREP ( 'Corps-Déplacer/Copier1[1]', #293 ) ;
#70 = CALENDAR_DATE ( 2021, 3, 9 ) ;
#71 = PRODUCT_DEFINITION_FORMATION_WITH_SPECIFIED_SOURCE ( 'ANY', '', #210, .NOT_KNOWN. ) ;
#72 = DIRECTION ( 'NONE',  ( 0.0000000000000000000, 1.000000000000000000, 0.0000000000000000000 ) ) ;
#73 = APPROVAL_PERSON_ORGANIZATION ( #129, #51, #133 ) ;
#74 = APPROVAL ( #93, 'UNSPECIFIED' ) ;
#75 = DIRECTION ( 'NONE',  ( 0.0000000000000000000, 1.000000000000000000, 0.0000000000000000000 ) ) ;
#76 = EDGE_CURVE ( 'NONE', #243, #207, #232, .T. ) ;
#77 = CARTESIAN_POINT ( 'NONE',  ( 0.0000000000000000000, 0.0000000000000000000, 0.0000000000000000000 ) ) ;
#78 = AXIS2_PLACEMENT_3D ( 'NONE', #171, #17, #327 ) ;
#79 = DIRECTION ( 'NONE',  ( -2.382254525458723780E-15, -0.7071067811865453523, -0.7071067811865496822 ) ) ;
#80 = ADVANCED_FACE ( 'NONE', ( #33 ), #186, .T. ) ;
#81 = FACE_OUTER_BOUND ( 'NONE', #166, .T. ) ;
#82 = ORIENTED_EDGE ( 'NONE', *, *, #279, .T. ) ;
#83 = CARTESIAN_POINT ( 'NONE',  ( 1.607489759686860634E-13, -1.150000000000005684, 46.00000000000000000 ) ) ;
#84 = ORIENTED_EDGE ( 'NONE', *, *, #134, .T. ) ;
#85 = DIRECTION ( 'NONE',  ( 4.275831445896958607E-31, 1.000000000000000000, 1.224646799147353207E-16 ) ) ;
#86 = CIRCLE ( 'NONE', #222, 1.449999999999995737 ) ;
#87 = ORIENTED_EDGE ( 'NONE', *, *, #178, .T. ) ;
#88 = ORIENTED_EDGE ( 'NONE', *, *, #123, .F. ) ;
#89 =( NAMED_UNIT ( * ) SI_UNIT ( $, .STERADIAN. ) SOLID_ANGLE_UNIT ( ) );
#90 = FACE_OUTER_BOUND ( 'NONE', #329, .T. ) ;
#91 = DIRECTION ( 'NONE',  ( 0.0000000000000000000, 1.000000000000000000, 0.0000000000000000000 ) ) ;
#92 = CARTESIAN_POINT ( 'NONE',  ( 1.606081415867841091E-13, -5.633375276077824704E-15, 46.00000000000000000 ) ) ;
#93 = APPROVAL_STATUS ( 'not_yet_approved' ) ;
#94 = CARTESIAN_POINT ( 'NONE',  ( 1.602436234698468093E-13, -1.150000000000005684, 46.00000000000000000 ) ) ;
#95 = APPROVAL ( #324, 'UNSPECIFIED' ) ;
#96 = APPROVAL_PERSON_ORGANIZATION ( #169, #95, #145 ) ;
#97 = AXIS2_PLACEMENT_3D ( 'NONE', #77, #174, #106 ) ;
#98 = APPROVAL_DATE_TIME ( #150, #74 ) ;
#99 = VECTOR ( 'NONE', #212, 1000.000000000000000 ) ;
#100 = ADVANCED_FACE ( 'NONE', ( #244 ), #30, .T. ) ;
#101 = CYLINDRICAL_SURFACE ( 'NONE', #97, 1.449999999999995071 ) ;
#102 = VECTOR ( 'NONE', #313, 999.9999999999998863 ) ;
#103 = AXIS2_PLACEMENT_3D ( 'NONE', #137, #283, #50 ) ;
#104 = PLANE ( 'NONE',  #103 ) ;
#105 = CALENDAR_DATE ( 2021, 3, 9 ) ;
#106 = DIRECTION ( 'NONE',  ( 4.275831445896958607E-31, 1.000000000000000000, 1.224646799147353207E-16 ) ) ;
#107 = EDGE_CURVE ( 'NONE', #151, #207, #242, .T. ) ;
#108 = DIRECTION ( 'NONE',  ( 0.0000000000000000000, 1.000000000000000000, 0.0000000000000000000 ) ) ;
#109 = CONICAL_SURFACE ( 'NONE', #15, 1.449999999999994182, 1.029744258676649649 ) ;
#110 = CLOSED_SHELL ( 'NONE', ( #100, #59, #173, #40, #45 ) ) ;
#111 = ORIENTED_EDGE ( 'NONE', *, *, #202, .F. ) ;
#112 = FACE_OUTER_BOUND ( 'NONE', #152, .T. ) ;
#113 = ORIENTED_EDGE ( 'NONE', *, *, #271, .F. ) ;
#114 = LINE ( 'NONE', #9, #208 ) ;
#115 = DIRECTION ( 'NONE',  ( 5.312910191413085714E-31, 1.000000000000000000, 1.495451272393805212E-16 ) ) ;
#116 = ORIENTED_EDGE ( 'NONE', *, *, #305, .F. ) ;
#117 = VECTOR ( 'NONE', #163, 1000.000000000000000 ) ;
#118 = ORIENTED_EDGE ( 'NONE', *, *, #305, .T. ) ;
#119 = DIRECTION ( 'NONE',  ( -3.491481338843133355E-15, 1.224646799147353207E-16, -1.000000000000000000 ) ) ;
#120 = CARTESIAN_POINT ( 'NONE',  ( 1.606081415867841091E-13, 8.623618750305597769E-33, 46.00000000000000000 ) ) ;
#121 = LINE ( 'NONE', #61, #117 ) ;
#122 = MECHANICAL_CONTEXT ( 'NONE', #168, 'mechanical' ) ;
#123 = EDGE_CURVE ( 'NONE', #38, #207, #114, .T. ) ;
#124 = DIRECTION ( 'NONE',  ( 4.275831445896958607E-31, 1.000000000000000000, 1.224646799147353207E-16 ) ) ;
#125 = DATE_AND_TIME ( #11, #48 ) ;
#126 = CARTESIAN_POINT ( 'NONE',  ( 1.775737858763653288E-16, -1.449999999999997735, -1.775737858763665367E-16 ) ) ;
#127 = ADVANCED_FACE ( 'NONE', ( #239 ), #215, .T. ) ;
#128 = CARTESIAN_POINT ( 'NONE',  ( 4.189777606611760026E-14, -1.469576158976823947E-15, 12.00000000000000000 ) ) ;
#129 = PERSON_AND_ORGANIZATION ( #254, #132 ) ;
#130 = EDGE_CURVE ( 'NONE', #151, #243, #5, .T. ) ;
#131 = CIRCLE ( 'NONE', #298, 1.149999999999999911 ) ;
#132 = ORGANIZATION ( 'UNSPECIFIED', 'UNSPECIFIED', '' ) ;
#133 = APPROVAL_ROLE ( '' ) ;
#134 = EDGE_CURVE ( 'NONE', #321, #243, #121, .T. ) ;
#135 = DIRECTION ( 'NONE',  ( -4.275831445896958607E-31, -1.000000000000000000, -1.224646799147353207E-16 ) ) ;
#136 = APPROVAL_DATE_TIME ( #227, #51 ) ;
#137 = CARTESIAN_POINT ( 'NONE',  ( 4.189777606611760026E-14, 1.087325842429841429E-32, 12.00000000000000000 ) ) ;
#138 = EDGE_CURVE ( 'NONE', #220, #258, #149, .T. ) ;
#139 = ORIENTED_EDGE ( 'NONE', *, *, #130, .F. ) ;
#140 = DIRECTION ( 'NONE',  ( -3.491481338843133355E-15, 1.224646799147353207E-16, -1.000000000000000000 ) ) ;
#141 = CC_DESIGN_SECURITY_CLASSIFICATION ( #211, ( #71 ) ) ;
#142 = DIRECTION ( 'NONE',  ( -3.491481338843133355E-15, 1.224646799147353207E-16, -1.000000000000000000 ) ) ;
#143 = DIRECTION ( 'NONE',  ( 1.000000000000000000, 0.0000000000000000000, 0.0000000000000000000 ) ) ;
#144 = ORIENTED_EDGE ( 'NONE', *, *, #301, .F. ) ;
#145 = APPROVAL_ROLE ( '' ) ;
#146 = ORIENTED_EDGE ( 'NONE', *, *, #202, .T. ) ;
#147 = DATE_TIME_ROLE ( 'creation_date' ) ;
#148 = VECTOR ( 'NONE', #64, 1000.000000000000000 ) ;
#149 = CIRCLE ( 'NONE', #308, 1.449999999999995737 ) ;
#150 = DATE_AND_TIME ( #43, #315 ) ;
#151 = VERTEX_POINT ( 'NONE', #286 ) ;
#152 = EDGE_LOOP ( 'NONE', ( #116, #194 ) ) ;
#153 = CONICAL_SURFACE ( 'NONE', #42, 1.149999999999999911, 0.7853981633974453924 ) ;
#154 = EDGE_LOOP ( 'NONE', ( #314, #87 ) ) ;
#155 = EDGE_CURVE ( 'NONE', #188, #164, #288, .T. ) ;
#156 = AXIS2_PLACEMENT_3D ( 'NONE', #306, #21, #135 ) ;
#157 = CALENDAR_DATE ( 2021, 3, 9 ) ;
#158 =( GEOMETRIC_REPRESENTATION_CONTEXT ( 3 ) GLOBAL_UNCERTAINTY_ASSIGNED_CONTEXT ( ( #302 ) ) GLOBAL_UNIT_ASSIGNED_CONTEXT ( ( #248, #318, #89 ) ) REPRESENTATION_CONTEXT ( 'NONE', 'WORKASPACE' ) );
#159 = CARTESIAN_POINT ( 'NONE',  ( 3.041945775941688535E-15, -1.066970949047415882E-16, 0.8712478975899685674 ) ) ;
#160 = CC_DESIGN_PERSON_AND_ORGANIZATION_ASSIGNMENT ( #216, #167, ( #172 ) ) ;
#161 = ORIENTED_EDGE ( 'NONE', *, *, #330, .T. ) ;
#162 = DIRECTION ( 'NONE',  ( -2.468850131082271655E-15, 0.7071067811865455743, -0.7071067811865493491 ) ) ;
#163 = DIRECTION ( 'NONE',  ( -3.491481338843133355E-15, 1.224646799147353207E-16, -1.000000000000000000 ) ) ;
#164 = VERTEX_POINT ( 'NONE', #322 ) ;
#165 = APPLICATION_PROTOCOL_DEFINITION ( 'international standard', 'config_control_design', 1994, #334 ) ;
#166 = EDGE_LOOP ( 'NONE', ( #37, #111 ) ) ;
#167 = PERSON_AND_ORGANIZATION_ROLE ( 'creator' ) ;
#168 = APPLICATION_CONTEXT ( 'configuration controlled 3d designs of mechanical parts and assemblies' ) ;
#169 = PERSON_AND_ORGANIZATION ( #254, #132 ) ;
#170 = LOCAL_TIME ( 9, 49, 38.00000000000000000, #281 ) ;
#171 = CARTESIAN_POINT ( 'NONE',  ( 1.606081415867841091E-13, -5.633375276077824704E-15, 46.00000000000000000 ) ) ;
#172 = PRODUCT_DEFINITION ( 'UNKNOWN', '', #71, #274 ) ;
#173 = ADVANCED_FACE ( 'NONE', ( #90 ), #109, .T. ) ;
#174 = DIRECTION ( 'NONE',  ( -3.491481338843133355E-15, 1.224646799147353207E-16, -1.000000000000000000 ) ) ;
#175 = CIRCLE ( 'NONE', #238, 1.449999999999995737 ) ;
#176 = CONICAL_SURFACE ( 'NONE', #32, 1.449999999999994182, 1.029744258676649649 ) ;
#177 = ORIENTED_EDGE ( 'NONE', *, *, #76, .F. ) ;
#178 = EDGE_CURVE ( 'NONE', #258, #220, #175, .T. ) ;
#179 = LOCAL_TIME ( 9, 49, 38.00000000000000000, #47 ) ;
#180 = CARTESIAN_POINT ( 'NONE',  ( 4.189777606611760026E-14, -1.469576158976823947E-15, 12.00000000000000000 ) ) ;
#181 = AXIS2_PLACEMENT_3D ( 'NONE', #128, #219, #72 ) ;
#182 = ORIENTED_EDGE ( 'NONE', *, *, #16, .T. ) ;
#183 = DIRECTION ( 'NONE',  ( -3.491481338843133355E-15, 1.224646799147353207E-16, -1.000000000000000000 ) ) ;
#184 = ORIENTED_EDGE ( 'NONE', *, *, #275, .F. ) ;
#185 = CARTESIAN_POINT ( 'NONE',  ( 0.0000000000000000000, 0.0000000000000000000, 0.0000000000000000000 ) ) ;
#186 = CYLINDRICAL_SURFACE ( 'NONE', #280, 1.449999999999997735 ) ;
#187 = COORDINATED_UNIVERSAL_TIME_OFFSET ( 1, 0, .AHEAD. ) ;
#188 = VERTEX_POINT ( 'NONE', #223 ) ;
#189 = APPROVAL_ROLE ( '' ) ;
#190 = DIRECTION ( 'NONE',  ( -3.491481338843133355E-15, 1.224646799147353207E-16, -1.000000000000000000 ) ) ;
#191 = AXIS2_PLACEMENT_3D ( 'NONE', #206, #119, #85 ) ;
#192 = ORIENTED_EDGE ( 'NONE', *, *, #16, .F. ) ;
#193 = CC_DESIGN_DATE_AND_TIME_ASSIGNMENT ( #195, #199, ( #211 ) ) ;
#194 = ORIENTED_EDGE ( 'NONE', *, *, #230, .F. ) ;
#195 = DATE_AND_TIME ( #157, #179 ) ;
#196 = DIRECTION ( 'NONE',  ( 3.491481338843133355E-15, -1.224646799147353207E-16, 1.000000000000000000 ) ) ;
#197 = CARTESIAN_POINT ( 'NONE',  ( 3.041945775941688535E-15, -1.066970949047415882E-16, 0.8712478975899685674 ) ) ;
#198 = PERSON_AND_ORGANIZATION ( #254, #132 ) ;
#199 = DATE_TIME_ROLE ( 'classification_date' ) ;
#200 = AXIS2_PLACEMENT_3D ( 'NONE', #159, #3, #115 ) ;
#201 = LINE ( 'NONE', #224, #336 ) ;
#202 = EDGE_CURVE ( 'NONE', #321, #38, #86, .T. ) ;
#203 = EDGE_LOOP ( 'NONE', ( #161, #84, #113, #88 ) ) ;
#204 = PLANE ( 'NONE',  #246 ) ;
#205 = ORIENTED_EDGE ( 'NONE', *, *, #275, .T. ) ;
#206 = CARTESIAN_POINT ( 'NONE',  ( 0.0000000000000000000, 0.0000000000000000000, 0.0000000000000000000 ) ) ;
#207 = VERTEX_POINT ( 'NONE', #241 ) ;
#208 = VECTOR ( 'NONE', #317, 1000.000000000000000 ) ;
#209 = ADVANCED_FACE ( 'NONE', ( #18 ), #226, .F. ) ;
#210 = PRODUCT ( '54541', '54541', '', ( #122 ) ) ;
#211 = SECURITY_CLASSIFICATION ( '', '', #229 ) ;
#212 = DIRECTION ( 'NONE',  ( 1.798245827342160317E-15, -0.8571673007021098911, 0.5150380749100582634 ) ) ;
#213 = DIRECTION ( 'NONE',  ( 0.0000000000000000000, 1.000000000000000000, 0.0000000000000000000 ) ) ;
#214 = PERSON_AND_ORGANIZATION ( #254, #132 ) ;
#215 = CYLINDRICAL_SURFACE ( 'NONE', #191, 1.449999999999997735 ) ;
#216 = PERSON_AND_ORGANIZATION ( #254, #132 ) ;
#217 = CC_DESIGN_PERSON_AND_ORGANIZATION_ASSIGNMENT ( #214, #67, ( #210 ) ) ;
#218 = PRODUCT_RELATED_PRODUCT_CATEGORY ( 'detail', '', ( #210 ) ) ;
#219 = DIRECTION ( 'NONE',  ( -3.491481338843133355E-15, 1.224646799147353207E-16, -1.000000000000000000 ) ) ;
#220 = VERTEX_POINT ( 'NONE', #31 ) ;
#221 = CC_DESIGN_PERSON_AND_ORGANIZATION_ASSIGNMENT ( #198, #326, ( #71 ) ) ;
#222 = AXIS2_PLACEMENT_3D ( 'NONE', #304, #52, #62 ) ;
#223 = CARTESIAN_POINT ( 'NONE',  ( 1.606081415867841091E-13, 1.149999999999994360, 46.00000000000000000 ) ) ;
#224 = CARTESIAN_POINT ( 'NONE',  ( 6.199955596550580258E-31, 1.449999999999997735, 1.775737858763659451E-16 ) ) ;
#225 = DIRECTION ( 'NONE',  ( -5.312910191413085714E-31, -1.000000000000000000, -1.495451272393805212E-16 ) ) ;
#226 = PLANE ( 'NONE',  #156 ) ;
#227 = DATE_AND_TIME ( #105, #170 ) ;
#228 = DIRECTION ( 'NONE',  ( -3.491481338843133355E-15, 1.224646799147353207E-16, -1.000000000000000000 ) ) ;
#229 = SECURITY_CLASSIFICATION_LEVEL ( 'unclassified' ) ;
#230 = EDGE_CURVE ( 'NONE', #287, #188, #252, .T. ) ;
#231 = CARTESIAN_POINT ( 'NONE',  ( 4.189777606611760026E-14, 1.449999999999994182, 12.00000000000000000 ) ) ;
#232 = CIRCLE ( 'NONE', #273, 1.449999999999994182 ) ;
#233 = DIRECTION ( 'NONE',  ( 0.0000000000000000000, 1.000000000000000000, 0.0000000000000000000 ) ) ;
#234 = DIRECTION ( 'NONE',  ( -3.491481338843133355E-15, 1.224646799147353207E-16, -1.000000000000000000 ) ) ;
#235 = ADVANCED_FACE ( 'NONE', ( #255 ), #6, .T. ) ;
#236 = DIRECTION ( 'NONE',  ( -3.491481338843133355E-15, 1.224646799147353207E-16, -1.000000000000000000 ) ) ;
#237 = ORIENTED_EDGE ( 'NONE', *, *, #279, .F. ) ;
#238 = AXIS2_PLACEMENT_3D ( 'NONE', #35, #236, #108 ) ;
#239 = FACE_OUTER_BOUND ( 'NONE', #26, .T. ) ;
#240 = CARTESIAN_POINT ( 'NONE',  ( 1.606081415867841091E-13, -5.633375276077824704E-15, 46.00000000000000000 ) ) ;
#241 = CARTESIAN_POINT ( 'NONE',  ( 3.219519561818054579E-15, 1.449999999999994182, 0.8712478975899686784 ) ) ;
#242 = LINE ( 'NONE', #25, #102 ) ;
#243 = VERTEX_POINT ( 'NONE', #257 ) ;
#244 = FACE_OUTER_BOUND ( 'NONE', #203, .T. ) ;
#245 = ADVANCED_FACE ( 'NONE', ( #112 ), #204, .F. ) ;
#246 = AXIS2_PLACEMENT_3D ( 'NONE', #120, #234, #7 ) ;
#247 = PERSON_AND_ORGANIZATION ( #254, #132 ) ;
#248 =( LENGTH_UNIT ( ) NAMED_UNIT ( * ) SI_UNIT ( .MILLI., .METRE. ) );
#249 = EDGE_CURVE ( 'NONE', #287, #56, #259, .T. ) ;
#250 = DIRECTION ( 'NONE',  ( 0.0000000000000000000, 0.0000000000000000000, 1.000000000000000000 ) ) ;
#251 = CIRCLE ( 'NONE', #200, 1.449999999999994182 ) ;
#252 = CIRCLE ( 'NONE', #12, 1.149999999999999911 ) ;
#253 = CC_DESIGN_APPROVAL ( #51, ( #211 ) ) ;
#254 = PERSON ( 'UNSPECIFIED', 'UNSPECIFIED', 'UNSPECIFIED', ('UNSPECIFIED'), ('UNSPECIFIED'), ('UNSPECIFIED') ) ;
#255 = FACE_OUTER_BOUND ( 'NONE', #60, .T. ) ;
#256 = CC_DESIGN_PERSON_AND_ORGANIZATION_ASSIGNMENT ( #282, #307, ( #211 ) ) ;
#257 = CARTESIAN_POINT ( 'NONE',  ( 3.041945775941687746E-15, -1.449999999999994182, 0.8712478975899683453 ) ) ;
#258 = VERTEX_POINT ( 'NONE', #54 ) ;
#259 = LINE ( 'NONE', #83, #263 ) ;
#260 = ORIENTED_EDGE ( 'NONE', *, *, #249, .T. ) ;
#261 = CARTESIAN_POINT ( 'NONE',  ( 3.041945775941687746E-15, -1.449999999999994182, 0.8712478975899683453 ) ) ;
#262 = DIRECTION ( 'NONE',  ( 5.312910191413085714E-31, 1.000000000000000000, 1.495451272393805212E-16 ) ) ;
#263 = VECTOR ( 'NONE', #79, 1000.000000000000000 ) ;
#264 = DIRECTION ( 'NONE',  ( 0.0000000000000000000, 1.000000000000000000, 0.0000000000000000000 ) ) ;
#265 = ORIENTED_EDGE ( 'NONE', *, *, #178, .F. ) ;
#266 = DIRECTION ( 'NONE',  ( -5.312910191413085714E-31, -1.000000000000000000, -1.495451272393805212E-16 ) ) ;
#267 = ORIENTED_EDGE ( 'NONE', *, *, #230, .T. ) ;
#268 = COORDINATED_UNIVERSAL_TIME_OFFSET ( 1, 0, .AHEAD. ) ;
#269 = LOCAL_TIME ( 9, 49, 38.00000000000000000, #268 ) ;
#270 = COORDINATED_UNIVERSAL_TIME_OFFSET ( 1, 0, .AHEAD. ) ;
#271 = EDGE_CURVE ( 'NONE', #207, #243, #251, .T. ) ;
#272 = APPROVAL_STATUS ( 'not_yet_approved' ) ;
#273 = AXIS2_PLACEMENT_3D ( 'NONE', #197, #228, #262 ) ;
#274 = DESIGN_CONTEXT ( 'detailed design', #334, 'design' ) ;
#275 = EDGE_CURVE ( 'NONE', #56, #164, #291, .T. ) ;
#276 = ADVANCED_BREP_SHAPE_REPRESENTATION ( '54541', ( #69, #57, #55 ), #158 ) ;
#277 = CARTESIAN_POINT ( 'NONE',  ( 3.041945775941688535E-15, -1.066970949047415882E-16, 0.8712478975899685674 ) ) ;
#278 = CC_DESIGN_APPROVAL ( #95, ( #172 ) ) ;
#279 = EDGE_CURVE ( 'NONE', #164, #56, #284, .T. ) ;
#280 = AXIS2_PLACEMENT_3D ( 'NONE', #185, #142, #295 ) ;
#281 = COORDINATED_UNIVERSAL_TIME_OFFSET ( 1, 0, .AHEAD. ) ;
#282 = PERSON_AND_ORGANIZATION ( #254, #132 ) ;
#283 = DIRECTION ( 'NONE',  ( 3.491481338843133355E-15, -1.224646799147353207E-16, 1.000000000000000000 ) ) ;
#284 = CIRCLE ( 'NONE', #44, 1.449999999999999956 ) ;
#285 = AXIS2_PLACEMENT_3D ( 'NONE', #2, #140, #124 ) ;
#286 = CARTESIAN_POINT ( 'NONE',  ( 0.0000000000000000000, 0.0000000000000000000, 0.0000000000000000000 ) ) ;
#287 = VERTEX_POINT ( 'NONE', #94 ) ;
#288 = LINE ( 'NONE', #58, #65 ) ;
#289 = LINE ( 'NONE', #126, #148 ) ;
#290 = ORIENTED_EDGE ( 'NONE', *, *, #249, .F. ) ;
#291 = CIRCLE ( 'NONE', #19, 1.449999999999999956 ) ;
#292 = CARTESIAN_POINT ( 'NONE',  ( 3.041945775941688535E-15, -1.066970949047415882E-16, 0.8712478975899685674 ) ) ;
#293 = CLOSED_SHELL ( 'NONE', ( #13, #127, #209, #80, #235, #245 ) ) ;
#294 = ORIENTED_EDGE ( 'NONE', *, *, #301, .T. ) ;
#295 = DIRECTION ( 'NONE',  ( 4.275831445896958607E-31, 1.000000000000000000, 1.224646799147353207E-16 ) ) ;
#296 = DIRECTION ( 'NONE',  ( -3.491481338843133355E-15, 1.224646799147353207E-16, -1.000000000000000000 ) ) ;
#297 = CARTESIAN_POINT ( 'NONE',  ( 0.0000000000000000000, 0.0000000000000000000, 0.0000000000000000000 ) ) ;
#298 = AXIS2_PLACEMENT_3D ( 'NONE', #92, #190, #91 ) ;
#299 = ORIENTED_EDGE ( 'NONE', *, *, #107, .F. ) ;
#300 = CARTESIAN_POINT ( 'NONE',  ( 2.264743470690599250E-14, -1.449999999999997291, 12.00000000000000000 ) ) ;
#301 = EDGE_CURVE ( 'NONE', #56, #258, #289, .T. ) ;
#302 = UNCERTAINTY_MEASURE_WITH_UNIT (LENGTH_MEASURE( 1.000000000000000082E-05 ), #248, 'distance_accuracy_value', 'NONE');
#303 = FACE_OUTER_BOUND ( 'NONE', #312, .T. ) ;
#304 = CARTESIAN_POINT ( 'NONE',  ( 4.189777606611760026E-14, -1.469576158976823947E-15, 12.00000000000000000 ) ) ;
#305 = EDGE_CURVE ( 'NONE', #188, #287, #131, .T. ) ;
#306 = CARTESIAN_POINT ( 'NONE',  ( 4.189777606611760026E-14, 1.087325842429841429E-32, 12.00000000000000000 ) ) ;
#307 = PERSON_AND_ORGANIZATION_ROLE ( 'classification_officer' ) ;
#308 = AXIS2_PLACEMENT_3D ( 'NONE', #180, #183, #213 ) ;
#309 = DIRECTION ( 'NONE',  ( -3.491481338843133355E-15, 1.224646799147353207E-16, -1.000000000000000000 ) ) ;
#310 = EDGE_LOOP ( 'NONE', ( #144, #205, #182, #265 ) ) ;
#311 = FACE_OUTER_BOUND ( 'NONE', #22, .T. ) ;
#312 = EDGE_LOOP ( 'NONE', ( #118, #260, #237, #24 ) ) ;
#313 = DIRECTION ( 'NONE',  ( 1.903218546456022717E-15, 0.8571673007021097801, 0.5150380749100585964 ) ) ;
#314 = ORIENTED_EDGE ( 'NONE', *, *, #138, .T. ) ;
#315 = LOCAL_TIME ( 9, 49, 38.00000000000000000, #270 ) ;
#316 = ORIENTED_EDGE ( 'NONE', *, *, #271, .T. ) ;
#317 = DIRECTION ( 'NONE',  ( -3.491481338843133355E-15, 1.224646799147353207E-16, -1.000000000000000000 ) ) ;
#318 =( NAMED_UNIT ( * ) PLANE_ANGLE_UNIT ( ) SI_UNIT ( $, .RADIAN. ) );
#319 = DIRECTION ( 'NONE',  ( -3.491481338843133355E-15, 1.224646799147353207E-16, -1.000000000000000000 ) ) ;
#320 = CC_DESIGN_PERSON_AND_ORGANIZATION_ASSIGNMENT ( #46, #331, ( #71 ) ) ;
#321 = VERTEX_POINT ( 'NONE', #300 ) ;
#322 = CARTESIAN_POINT ( 'NONE',  ( 1.595606971851311880E-13, 1.449999999999994182, 45.69999999999999574 ) ) ;
#323 = DIRECTION ( 'NONE',  ( -3.491481338843133355E-15, 1.224646799147353207E-16, -1.000000000000000000 ) ) ;
#324 = APPROVAL_STATUS ( 'not_yet_approved' ) ;
#325 = DIRECTION ( 'NONE',  ( 0.0000000000000000000, 1.000000000000000000, 0.0000000000000000000 ) ) ;
#326 = PERSON_AND_ORGANIZATION_ROLE ( 'creator' ) ;
#327 = DIRECTION ( 'NONE',  ( 0.0000000000000000000, 1.000000000000000000, 0.0000000000000000000 ) ) ;
#328 = FACE_OUTER_BOUND ( 'NONE', #53, .T. ) ;
#329 = EDGE_LOOP ( 'NONE', ( #299, #63, #49 ) ) ;
#330 = EDGE_CURVE ( 'NONE', #38, #321, #335, .T. ) ;
#331 = PERSON_AND_ORGANIZATION_ROLE ( 'design_supplier' ) ;
#332 = CARTESIAN_POINT ( 'NONE',  ( 1.606081415867841091E-13, -5.633375276077824704E-15, 46.00000000000000000 ) ) ;
#333 = SHAPE_DEFINITION_REPRESENTATION ( #28, #276 ) ;
#334 = APPLICATION_CONTEXT ( 'configuration controlled 3d designs of mechanical parts and assemblies' ) ;
#335 = CIRCLE ( 'NONE', #181, 1.449999999999995737 ) ;
#336 = VECTOR ( 'NONE', #309, 1000.000000000000000 ) ;
#337 = DIRECTION ( 'NONE',  ( -3.491481338843133355E-15, 1.224646799147353207E-16, -1.000000000000000000 ) ) ;
ENDSEC;
END-ISO-10303-21;
