ISO-10303-21;
HEADER;
FILE_DESCRIPTION (( 'STEP AP203' ),
    '1' );
FILE_NAME ('54540.step',
    '2021-09-03T07:49:36',
    ( '' ),
    ( '' ),
    'SwSTEP 2.0',
    'SolidWorks 2019',
    '' );
FILE_SCHEMA (( 'CONFIG_CONTROL_DESIGN' ));
ENDSEC;

DATA;
#1 = DIRECTION ( 'NONE',  ( -3.491481338843133355E-15, 1.224646799147353207E-16, -1.000000000000000000 ) ) ;
#2 = CARTESIAN_POINT ( 'NONE',  ( 2.989498434977176725E-15, -1.048574898201770861E-16, 0.8562263821142793718 ) ) ;
#3 = APPROVAL_ROLE ( '' ) ;
#4 = DIRECTION ( 'NONE',  ( 1.903218546456022717E-15, 0.8571673007021097801, 0.5150380749100585964 ) ) ;
#5 = CLOSED_SHELL ( 'NONE', ( #126, #145, #28, #282, #207, #138 ) ) ;
#6 = DIRECTION ( 'NONE',  ( 4.275831445896958607E-31, 1.000000000000000000, 1.224646799147353207E-16 ) ) ;
#7 = CALENDAR_DATE ( 2021, 3, 9 ) ;
#8 = DIRECTION ( 'NONE',  ( -3.491481338843133355E-15, 1.224646799147353207E-16, -1.000000000000000000 ) ) ;
#9 = EDGE_LOOP ( 'NONE', ( #48, #283, #227 ) ) ;
#10 = PERSON_AND_ORGANIZATION ( #201, #164 ) ;
#11 = VERTEX_POINT ( 'NONE', #251 ) ;
#12 = APPROVAL_DATE_TIME ( #243, #89 ) ;
#13 = ADVANCED_FACE ( 'NONE', ( #182 ), #232, .T. ) ;
#14 = APPROVAL_PERSON_ORGANIZATION ( #10, #112, #315 ) ;
#15 = ORIENTED_EDGE ( 'NONE', *, *, #291, .F. ) ;
#16 = EDGE_CURVE ( 'NONE', #198, #11, #309, .T. ) ;
#17 = AXIS2_PLACEMENT_3D ( 'NONE', #2, #88, #86 ) ;
#18 = DIRECTION ( 'NONE',  ( 0.0000000000000000000, 1.000000000000000000, 0.0000000000000000000 ) ) ;
#19 = VERTEX_POINT ( 'NONE', #208 ) ;
#20 = PRODUCT ( '54540', '54540', '', ( #218 ) ) ;
#21 = VERTEX_POINT ( 'NONE', #233 ) ;
#22 = EDGE_CURVE ( 'NONE', #11, #256, #258, .T. ) ;
#23 = ORIENTED_EDGE ( 'NONE', *, *, #181, .T. ) ;
#24 = AXIS2_PLACEMENT_3D ( 'NONE', #314, #93, #162 ) ;
#25 = CC_DESIGN_SECURITY_CLASSIFICATION ( #189, ( #64 ) ) ;
#26 = DIRECTION ( 'NONE',  ( -3.491481338843133355E-15, 1.224646799147353207E-16, -1.000000000000000000 ) ) ;
#27 = CARTESIAN_POINT ( 'NONE',  ( 4.189777606611760026E-14, 1.424999999999994493, 12.00000000000000000 ) ) ;
#28 = ADVANCED_FACE ( 'NONE', ( #134 ), #128, .F. ) ;
#29 = FACE_OUTER_BOUND ( 'NONE', #153, .T. ) ;
#30 = DIRECTION ( 'NONE',  ( 0.0000000000000000000, 1.000000000000000000, 0.0000000000000000000 ) ) ;
#31 = APPROVAL_DATE_TIME ( #61, #112 ) ;
#32 = CARTESIAN_POINT ( 'NONE',  ( 0.0000000000000000000, 0.0000000000000000000, 0.0000000000000000000 ) ) ;
#33 = DIRECTION ( 'NONE',  ( -2.382254525458723780E-15, -0.7071067811865453523, -0.7071067811865496822 ) ) ;
#34 = CIRCLE ( 'NONE', #24, 1.424999999999995826 ) ;
#35 = DIRECTION ( 'NONE',  ( 0.0000000000000000000, 1.000000000000000000, 0.0000000000000000000 ) ) ;
#36 = ORIENTED_EDGE ( 'NONE', *, *, #337, .T. ) ;
#37 = PERSON_AND_ORGANIZATION_ROLE ( 'design_owner' ) ;
#38 = DIRECTION ( 'NONE',  ( -3.491481338843133355E-15, 1.224646799147353207E-16, -1.000000000000000000 ) ) ;
#39 = CARTESIAN_POINT ( 'NONE',  ( 0.0000000000000000000, 0.0000000000000000000, 0.0000000000000000000 ) ) ;
#40 = CLOSED_SHELL ( 'NONE', ( #217, #114, #129, #203, #13 ) ) ;
#41 = EDGE_CURVE ( 'NONE', #275, #157, #130, .T. ) ;
#42 = DIRECTION ( 'NONE',  ( -2.468850131082271655E-15, 0.7071067811865455743, -0.7071067811865493491 ) ) ;
#43 = DATE_AND_TIME ( #267, #84 ) ;
#44 = ORIENTED_EDGE ( 'NONE', *, *, #58, .F. ) ;
#45 = MANIFOLD_SOLID_BREP ( 'Corps-Déplacer/Copier1[2]', #40 ) ;
#46 = ORIENTED_EDGE ( 'NONE', *, *, #159, .F. ) ;
#47 = EDGE_CURVE ( 'NONE', #11, #198, #241, .T. ) ;
#48 = ORIENTED_EDGE ( 'NONE', *, *, #96, .F. ) ;
#49 = ORIENTED_EDGE ( 'NONE', *, *, #58, .T. ) ;
#50 = AXIS2_PLACEMENT_3D ( 'NONE', #32, #235, #163 ) ;
#51 = CARTESIAN_POINT ( 'NONE',  ( 2.989498434977175936E-15, -1.424999999999994493, 0.8562263821142792608 ) ) ;
#52 = DESIGN_CONTEXT ( 'detailed design', #71, 'design' ) ;
#53 = DIRECTION ( 'NONE',  ( 0.0000000000000000000, 1.000000000000000000, 0.0000000000000000000 ) ) ;
#54 = APPLICATION_CONTEXT ( 'configuration controlled 3d designs of mechanical parts and assemblies' ) ;
#55 = DIRECTION ( 'NONE',  ( -5.406119142139629940E-31, -1.000000000000000000, -1.521687259628783931E-16 ) ) ;
#56 = LOCAL_TIME ( 9, 49, 36.00000000000000000, #274 ) ;
#57 = CARTESIAN_POINT ( 'NONE',  ( 1.595606971851311880E-13, -5.596635872103403844E-15, 45.69999999999999574 ) ) ;
#58 = EDGE_CURVE ( 'NONE', #107, #66, #202, .T. ) ;
#59 = PERSON_AND_ORGANIZATION ( #201, #164 ) ;
#60 = CARTESIAN_POINT ( 'NONE',  ( 2.989498434977176725E-15, -1.048574898201770861E-16, 0.8562263821142793718 ) ) ;
#61 = DATE_AND_TIME ( #118, #56 ) ;
#62 = VECTOR ( 'NONE', #284, 1000.000000000000000 ) ;
#63 = AXIS2_PLACEMENT_3D ( 'NONE', #104, #279, #106 ) ;
#64 = PRODUCT_DEFINITION_FORMATION_WITH_SPECIFIED_SOURCE ( 'ANY', '', #20, .NOT_KNOWN. ) ;
#65 = DIRECTION ( 'NONE',  ( 0.0000000000000000000, 1.000000000000000000, 0.0000000000000000000 ) ) ;
#66 = VERTEX_POINT ( 'NONE', #239 ) ;
#67 = APPLICATION_PROTOCOL_DEFINITION ( 'international standard', 'config_control_design', 1994, #54 ) ;
#68 = CYLINDRICAL_SURFACE ( 'NONE', #178, 1.424999999999997824 ) ;
#69 = ORIENTED_EDGE ( 'NONE', *, *, #96, .T. ) ;
#70 = COORDINATED_UNIVERSAL_TIME_OFFSET ( 1, 0, .AHEAD. ) ;
#71 = APPLICATION_CONTEXT ( 'configuration controlled 3d designs of mechanical parts and assemblies' ) ;
#72 = VECTOR ( 'NONE', #199, 1000.000000000000000 ) ;
#73 = CC_DESIGN_APPROVAL ( #332, ( #189 ) ) ;
#74 = ORIENTED_EDGE ( 'NONE', *, *, #47, .T. ) ;
#75 = ORIENTED_EDGE ( 'NONE', *, *, #176, .T. ) ;
#76 = CARTESIAN_POINT ( 'NONE',  ( 1.606081415867841091E-13, -5.633375276077824704E-15, 46.00000000000000000 ) ) ;
#77 = CIRCLE ( 'NONE', #327, 1.424999999999994493 ) ;
#78 = CC_DESIGN_PERSON_AND_ORGANIZATION_ASSIGNMENT ( #125, #225, ( #64 ) ) ;
#79 = DIRECTION ( 'NONE',  ( -3.491481338843133355E-15, 1.224646799147353207E-16, -1.000000000000000000 ) ) ;
#80 = EDGE_LOOP ( 'NONE', ( #23, #333, #44, #300 ) ) ;
#81 = ORIENTED_EDGE ( 'NONE', *, *, #181, .F. ) ;
#82 = CARTESIAN_POINT ( 'NONE',  ( 1.606081415867841091E-13, -5.633375276077824704E-15, 46.00000000000000000 ) ) ;
#83 = VECTOR ( 'NONE', #147, 1000.000000000000000 ) ;
#84 = LOCAL_TIME ( 9, 49, 36.00000000000000000, #168 ) ;
#85 = DIRECTION ( 'NONE',  ( 3.491481338843133355E-15, -1.224646799147353207E-16, 1.000000000000000000 ) ) ;
#86 = DIRECTION ( 'NONE',  ( -5.406119142139629940E-31, -1.000000000000000000, -1.521687259628783931E-16 ) ) ;
#87 = PRODUCT_RELATED_PRODUCT_CATEGORY ( 'detail', '', ( #20 ) ) ;
#88 = DIRECTION ( 'NONE',  ( 3.491481338843133355E-15, -1.224646799147353207E-16, 1.000000000000000000 ) ) ;
#89 = APPROVAL ( #100, 'UNSPECIFIED' ) ;
#90 = CONICAL_SURFACE ( 'NONE', #276, 1.125000000000000222, 0.7853981633974453924 ) ;
#91 = LOCAL_TIME ( 9, 49, 36.00000000000000000, #247 ) ;
#92 = APPROVAL_ROLE ( '' ) ;
#93 = DIRECTION ( 'NONE',  ( -3.491481338843133355E-15, 1.224646799147353207E-16, -1.000000000000000000 ) ) ;
#94 = COORDINATED_UNIVERSAL_TIME_OFFSET ( 1, 0, .AHEAD. ) ;
#95 = DIRECTION ( 'NONE',  ( -3.491481338843133355E-15, 1.224646799147353207E-16, -1.000000000000000000 ) ) ;
#96 = EDGE_CURVE ( 'NONE', #275, #19, #216, .T. ) ;
#97 = VECTOR ( 'NONE', #4, 999.9999999999998863 ) ;
#98 = DIRECTION ( 'NONE',  ( 1.000000000000000000, 0.0000000000000000000, 0.0000000000000000000 ) ) ;
#99 = DIRECTION ( 'NONE',  ( 4.275831445896958607E-31, 1.000000000000000000, 1.224646799147353207E-16 ) ) ;
#100 = APPROVAL_STATUS ( 'not_yet_approved' ) ;
#101 = AXIS2_PLACEMENT_3D ( 'NONE', #173, #8, #35 ) ;
#102 = EDGE_LOOP ( 'NONE', ( #187, #255, #131, #326 ) ) ;
#103 = DIRECTION ( 'NONE',  ( -4.275831445896958607E-31, -1.000000000000000000, -1.224646799147353207E-16 ) ) ;
#104 = CARTESIAN_POINT ( 'NONE',  ( 4.189777606611760026E-14, 1.068578845146568345E-32, 12.00000000000000000 ) ) ;
#105 = VECTOR ( 'NONE', #42, 1000.000000000000114 ) ;
#106 = DIRECTION ( 'NONE',  ( -4.275831445896958607E-31, -1.000000000000000000, -1.224646799147353207E-16 ) ) ;
#107 = VERTEX_POINT ( 'NONE', #27 ) ;
#108 = ORIENTED_EDGE ( 'NONE', *, *, #316, .T. ) ;
#109 = CIRCLE ( 'NONE', #144, 1.425000000000000044 ) ;
#110 = DIRECTION ( 'NONE',  ( -3.491481338843133355E-15, 1.224646799147353207E-16, -1.000000000000000000 ) ) ;
#111 = LINE ( 'NONE', #191, #252 ) ;
#112 = APPROVAL ( #121, 'UNSPECIFIED' ) ;
#113 = CARTESIAN_POINT ( 'NONE',  ( 1.606081415867841091E-13, 8.436148777472865568E-33, 46.00000000000000000 ) ) ;
#114 = ADVANCED_FACE ( 'NONE', ( #212 ), #116, .T. ) ;
#115 = FACE_OUTER_BOUND ( 'NONE', #9, .T. ) ;
#116 = CONICAL_SURFACE ( 'NONE', #17, 1.424999999999994493, 1.029744258676649649 ) ;
#117 = CARTESIAN_POINT ( 'NONE',  ( 1.745121688784966444E-16, -1.424999999999995381, -1.745121688784978524E-16 ) ) ;
#118 = CALENDAR_DATE ( 2021, 3, 9 ) ;
#119 = CARTESIAN_POINT ( 'NONE',  ( 4.189777606611760026E-14, 1.424999999999994493, 12.00000000000000000 ) ) ;
#120 = ORIENTED_EDGE ( 'NONE', *, *, #16, .T. ) ;
#121 = APPROVAL_STATUS ( 'not_yet_approved' ) ;
#122 =( NAMED_UNIT ( * ) SI_UNIT ( $, .STERADIAN. ) SOLID_ANGLE_UNIT ( ) );
#123 = ORIENTED_EDGE ( 'NONE', *, *, #47, .F. ) ;
#124 = CIRCLE ( 'NONE', #331, 1.425000000000000044 ) ;
#125 = PERSON_AND_ORGANIZATION ( #201, #164 ) ;
#126 = ADVANCED_FACE ( 'NONE', ( #190 ), #188, .T. ) ;
#127 = LOCAL_TIME ( 9, 49, 36.00000000000000000, #70 ) ;
#128 = PLANE ( 'NONE',  #132 ) ;
#129 = ADVANCED_FACE ( 'NONE', ( #115 ), #292, .T. ) ;
#130 = LINE ( 'NONE', #204, #62 ) ;
#131 = ORIENTED_EDGE ( 'NONE', *, *, #316, .F. ) ;
#132 = AXIS2_PLACEMENT_3D ( 'NONE', #280, #306, #103 ) ;
#133 = ORIENTED_EDGE ( 'NONE', *, *, #177, .T. ) ;
#134 = FACE_OUTER_BOUND ( 'NONE', #328, .T. ) ;
#135 = DIRECTION ( 'NONE',  ( 5.406119142139629940E-31, 1.000000000000000000, 1.521687259628783931E-16 ) ) ;
#136 = UNCERTAINTY_MEASURE_WITH_UNIT (LENGTH_MEASURE( 1.000000000000000082E-05 ), #148, 'distance_accuracy_value', 'NONE');
#137 = DIRECTION ( 'NONE',  ( -3.491481338843133355E-15, 1.224646799147353207E-16, -1.000000000000000000 ) ) ;
#138 = ADVANCED_FACE ( 'NONE', ( #192 ), #139, .F. ) ;
#139 = PLANE ( 'NONE',  #155 ) ;
#140 = PERSON_AND_ORGANIZATION_ROLE ( 'creator' ) ;
#141 = DIRECTION ( 'NONE',  ( 4.275831445896958607E-31, 1.000000000000000000, 1.224646799147353207E-16 ) ) ;
#142 = SECURITY_CLASSIFICATION_LEVEL ( 'unclassified' ) ;
#143 = CYLINDRICAL_SURFACE ( 'NONE', #286, 1.424999999999995381 ) ;
#144 = AXIS2_PLACEMENT_3D ( 'NONE', #213, #297, #65 ) ;
#145 = ADVANCED_FACE ( 'NONE', ( #214 ), #165, .T. ) ;
#146 = PERSON_AND_ORGANIZATION ( #201, #164 ) ;
#147 = DIRECTION ( 'NONE',  ( -3.491481338843133355E-15, 1.224646799147353207E-16, -1.000000000000000000 ) ) ;
#148 =( LENGTH_UNIT ( ) NAMED_UNIT ( * ) SI_UNIT ( .MILLI., .METRE. ) );
#149 = CALENDAR_DATE ( 2021, 3, 9 ) ;
#150 = AXIS2_PLACEMENT_3D ( 'NONE', #169, #308, #313 ) ;
#151 = PRODUCT_DEFINITION ( 'UNKNOWN', '', #64, #52 ) ;
#152 = ORIENTED_EDGE ( 'NONE', *, *, #176, .F. ) ;
#153 = EDGE_LOOP ( 'NONE', ( #152, #120, #330, #209 ) ) ;
#154 = APPROVAL_DATE_TIME ( #43, #332 ) ;
#155 = AXIS2_PLACEMENT_3D ( 'NONE', #113, #242, #141 ) ;
#156 = ORIENTED_EDGE ( 'NONE', *, *, #177, .F. ) ;
#157 = VERTEX_POINT ( 'NONE', #51 ) ;
#158 = ORIENTED_EDGE ( 'NONE', *, *, #222, .F. ) ;
#159 = EDGE_CURVE ( 'NONE', #157, #19, #262, .T. ) ;
#160 = VECTOR ( 'NONE', #33, 1000.000000000000000 ) ;
#161 = DIRECTION ( 'NONE',  ( -3.491481338843133355E-15, 1.224646799147353207E-16, -1.000000000000000000 ) ) ;
#162 = DIRECTION ( 'NONE',  ( 0.0000000000000000000, 1.000000000000000000, 0.0000000000000000000 ) ) ;
#163 = DIRECTION ( 'NONE',  ( 4.275831445896958607E-31, 1.000000000000000000, 1.224646799147353207E-16 ) ) ;
#164 = ORGANIZATION ( 'UNSPECIFIED', 'UNSPECIFIED', '' ) ;
#165 = CYLINDRICAL_SURFACE ( 'NONE', #150, 1.424999999999997824 ) ;
#166 = LOCAL_TIME ( 9, 49, 36.00000000000000000, #94 ) ;
#167 = CARTESIAN_POINT ( 'NONE',  ( 1.602405618528489352E-13, -1.125000000000005773, 46.00000000000000000 ) ) ;
#168 = COORDINATED_UNIVERSAL_TIME_OFFSET ( 1, 0, .AHEAD. ) ;
#169 = CARTESIAN_POINT ( 'NONE',  ( 0.0000000000000000000, 0.0000000000000000000, 0.0000000000000000000 ) ) ;
#170 = DIRECTION ( 'NONE',  ( 5.406119142139629940E-31, 1.000000000000000000, 1.521687259628783931E-16 ) ) ;
#171 = AXIS2_PLACEMENT_3D ( 'NONE', #82, #289, #30 ) ;
#172 = APPROVAL_PERSON_ORGANIZATION ( #146, #89, #92 ) ;
#173 = CARTESIAN_POINT ( 'NONE',  ( 4.189777606611760026E-14, -1.469576158976823947E-15, 12.00000000000000000 ) ) ;
#174 = VERTEX_POINT ( 'NONE', #293 ) ;
#175 = DIRECTION ( 'NONE',  ( -3.491481338843133355E-15, 1.224646799147353207E-16, -1.000000000000000000 ) ) ;
#176 = EDGE_CURVE ( 'NONE', #198, #21, #263, .T. ) ;
#177 = EDGE_CURVE ( 'NONE', #66, #107, #34, .T. ) ;
#178 = AXIS2_PLACEMENT_3D ( 'NONE', #273, #175, #99 ) ;
#179 = ORIENTED_EDGE ( 'NONE', *, *, #22, .F. ) ;
#180 = EDGE_LOOP ( 'NONE', ( #74, #75, #81, #179 ) ) ;
#181 = EDGE_CURVE ( 'NONE', #256, #21, #124, .T. ) ;
#182 = FACE_OUTER_BOUND ( 'NONE', #224, .T. ) ;
#183 =( GEOMETRIC_REPRESENTATION_CONTEXT ( 3 ) GLOBAL_UNCERTAINTY_ASSIGNED_CONTEXT ( ( #136 ) ) GLOBAL_UNIT_ASSIGNED_CONTEXT ( ( #148, #322, #122 ) ) REPRESENTATION_CONTEXT ( 'NONE', 'WORKASPACE' ) );
#184 = DIRECTION ( 'NONE',  ( 0.0000000000000000000, 1.000000000000000000, 0.0000000000000000000 ) ) ;
#185 = CARTESIAN_POINT ( 'NONE',  ( 1.606081415867841091E-13, -5.633375276077824704E-15, 46.00000000000000000 ) ) ;
#186 = CC_DESIGN_PERSON_AND_ORGANIZATION_ASSIGNMENT ( #240, #140, ( #151 ) ) ;
#187 = ORIENTED_EDGE ( 'NONE', *, *, #259, .T. ) ;
#188 = CONICAL_SURFACE ( 'NONE', #171, 1.125000000000000222, 0.7853981633974453924 ) ;
#189 = SECURITY_CLASSIFICATION ( '', '', #142 ) ;
#190 = FACE_OUTER_BOUND ( 'NONE', #180, .T. ) ;
#191 = CARTESIAN_POINT ( 'NONE',  ( 6.093059810403156687E-31, 1.424999999999997824, 1.745121688784975812E-16 ) ) ;
#192 = FACE_OUTER_BOUND ( 'NONE', #303, .T. ) ;
#193 = PERSON_AND_ORGANIZATION_ROLE ( 'classification_officer' ) ;
#194 = FACE_OUTER_BOUND ( 'NONE', #102, .T. ) ;
#195 = DATE_TIME_ROLE ( 'creation_date' ) ;
#196 = CARTESIAN_POINT ( 'NONE',  ( 0.0000000000000000000, 0.0000000000000000000, 0.0000000000000000000 ) ) ;
#197 = LINE ( 'NONE', #117, #72 ) ;
#198 = VERTEX_POINT ( 'NONE', #167 ) ;
#199 = DIRECTION ( 'NONE',  ( -3.491481338843133355E-15, 1.224646799147353207E-16, -1.000000000000000000 ) ) ;
#200 = PERSON_AND_ORGANIZATION_ROLE ( 'design_supplier' ) ;
#201 = PERSON ( 'UNSPECIFIED', 'UNSPECIFIED', 'UNSPECIFIED', ('UNSPECIFIED'), ('UNSPECIFIED'), ('UNSPECIFIED') ) ;
#202 = CIRCLE ( 'NONE', #253, 1.424999999999995826 ) ;
#203 = ADVANCED_FACE ( 'NONE', ( #265 ), #287, .T. ) ;
#204 = CARTESIAN_POINT ( 'NONE',  ( 2.989498434977175936E-15, -1.424999999999994493, 0.8562263821142792608 ) ) ;
#205 = DIRECTION ( 'NONE',  ( 0.0000000000000000000, 1.000000000000000000, 0.0000000000000000000 ) ) ;
#206 = AXIS2_PLACEMENT_3D ( 'NONE', #39, #245, #98 ) ;
#207 = ADVANCED_FACE ( 'NONE', ( #29 ), #90, .T. ) ;
#208 = CARTESIAN_POINT ( 'NONE',  ( 3.164010603855674626E-15, 1.424999999999994493, 0.8562263821142795939 ) ) ;
#209 = ORIENTED_EDGE ( 'NONE', *, *, #246, .F. ) ;
#210 = CARTESIAN_POINT ( 'NONE',  ( 4.189777606611760026E-14, -1.469576158976823947E-15, 12.00000000000000000 ) ) ;
#211 = AXIS2_PLACEMENT_3D ( 'NONE', #236, #85, #55 ) ;
#212 = FACE_OUTER_BOUND ( 'NONE', #254, .T. ) ;
#213 = CARTESIAN_POINT ( 'NONE',  ( 1.595606971851311880E-13, -5.596635872103403844E-15, 45.69999999999999574 ) ) ;
#214 = FACE_OUTER_BOUND ( 'NONE', #80, .T. ) ;
#215 = AXIS2_PLACEMENT_3D ( 'NONE', #210, #110, #311 ) ;
#216 = LINE ( 'NONE', #260, #97 ) ;
#217 = ADVANCED_FACE ( 'NONE', ( #194 ), #143, .T. ) ;
#218 = MECHANICAL_CONTEXT ( 'NONE', #54, 'mechanical' ) ;
#219 = CARTESIAN_POINT ( 'NONE',  ( 1.745121688784969649E-16, -1.424999999999997824, -1.745121688784981728E-16 ) ) ;
#220 = DATE_AND_TIME ( #294, #127 ) ;
#221 = CARTESIAN_POINT ( 'NONE',  ( 6.093059810403146177E-31, 1.424999999999995381, 1.745121688784972607E-16 ) ) ;
#222 = EDGE_CURVE ( 'NONE', #174, #329, #226, .T. ) ;
#223 = AXIS2_PLACEMENT_3D ( 'NONE', #185, #161, #18 ) ;
#224 = EDGE_LOOP ( 'NONE', ( #278, #158 ) ) ;
#225 = PERSON_AND_ORGANIZATION_ROLE ( 'creator' ) ;
#226 = CIRCLE ( 'NONE', #215, 1.424999999999995826 ) ;
#227 = ORIENTED_EDGE ( 'NONE', *, *, #159, .T. ) ;
#228 = ORIENTED_EDGE ( 'NONE', *, *, #16, .F. ) ;
#229 = CC_DESIGN_PERSON_AND_ORGANIZATION_ASSIGNMENT ( #272, #37, ( #20 ) ) ;
#230 = ORIENTED_EDGE ( 'NONE', *, *, #231, .T. ) ;
#231 = EDGE_CURVE ( 'NONE', #256, #107, #111, .T. ) ;
#232 = PLANE ( 'NONE',  #63 ) ;
#233 = CARTESIAN_POINT ( 'NONE',  ( 1.009037487945027106E-13, -1.425000000000005596, 45.69999999999999574 ) ) ;
#234 = DIRECTION ( 'NONE',  ( -3.491481338843133355E-15, 1.224646799147353207E-16, -1.000000000000000000 ) ) ;
#235 = DIRECTION ( 'NONE',  ( -3.491481338843133355E-15, 1.224646799147353207E-16, -1.000000000000000000 ) ) ;
#236 = CARTESIAN_POINT ( 'NONE',  ( 2.989498434977176725E-15, -1.048574898201770861E-16, 0.8562263821142793718 ) ) ;
#237 = DATE_TIME_ROLE ( 'classification_date' ) ;
#238 = CC_DESIGN_DATE_AND_TIME_ASSIGNMENT ( #220, #237, ( #189 ) ) ;
#239 = CARTESIAN_POINT ( 'NONE',  ( 1.009037487945028621E-13, -1.424999999999997380, 12.00000000000000000 ) ) ;
#240 = PERSON_AND_ORGANIZATION ( #201, #164 ) ;
#241 = CIRCLE ( 'NONE', #281, 1.125000000000000222 ) ;
#242 = DIRECTION ( 'NONE',  ( -3.491481338843133355E-15, 1.224646799147353207E-16, -1.000000000000000000 ) ) ;
#243 = DATE_AND_TIME ( #7, #91 ) ;
#244 = LINE ( 'NONE', #221, #83 ) ;
#245 = DIRECTION ( 'NONE',  ( 0.0000000000000000000, 0.0000000000000000000, 1.000000000000000000 ) ) ;
#246 = EDGE_CURVE ( 'NONE', #21, #256, #109, .T. ) ;
#247 = COORDINATED_UNIVERSAL_TIME_OFFSET ( 1, 0, .AHEAD. ) ;
#248 = CC_DESIGN_APPROVAL ( #112, ( #151 ) ) ;
#249 = ORIENTED_EDGE ( 'NONE', *, *, #290, .F. ) ;
#250 = SHAPE_DEFINITION_REPRESENTATION ( #318, #277 ) ;
#251 = CARTESIAN_POINT ( 'NONE',  ( 1.606081415867841091E-13, 1.124999999999994449, 46.00000000000000000 ) ) ;
#252 = VECTOR ( 'NONE', #137, 1000.000000000000000 ) ;
#253 = AXIS2_PLACEMENT_3D ( 'NONE', #305, #79, #184 ) ;
#254 = EDGE_LOOP ( 'NONE', ( #334, #69, #108 ) ) ;
#255 = ORIENTED_EDGE ( 'NONE', *, *, #290, .T. ) ;
#256 = VERTEX_POINT ( 'NONE', #320 ) ;
#257 = VECTOR ( 'NONE', #38, 1000.000000000000000 ) ;
#258 = LINE ( 'NONE', #304, #105 ) ;
#259 = EDGE_CURVE ( 'NONE', #329, #174, #336, .T. ) ;
#260 = CARTESIAN_POINT ( 'NONE',  ( 3.164010603855674626E-15, 1.424999999999994493, 0.8562263821142795939 ) ) ;
#261 = DIRECTION ( 'NONE',  ( -3.491481338843133355E-15, 1.224646799147353207E-16, -1.000000000000000000 ) ) ;
#262 = CIRCLE ( 'NONE', #270, 1.424999999999994493 ) ;
#263 = LINE ( 'NONE', #268, #160 ) ;
#264 = CC_DESIGN_PERSON_AND_ORGANIZATION_ASSIGNMENT ( #324, #200, ( #64 ) ) ;
#265 = FACE_OUTER_BOUND ( 'NONE', #298, .T. ) ;
#266 = MANIFOLD_SOLID_BREP ( 'Corps-Déplacer/Copier1[1]', #5 ) ;
#267 = CALENDAR_DATE ( 2021, 3, 9 ) ;
#268 = CARTESIAN_POINT ( 'NONE',  ( 1.607459143516881893E-13, -1.125000000000005773, 46.00000000000000000 ) ) ;
#269 = DATE_AND_TIME ( #149, #166 ) ;
#270 = AXIS2_PLACEMENT_3D ( 'NONE', #60, #312, #135 ) ;
#271 = FACE_OUTER_BOUND ( 'NONE', #285, .T. ) ;
#272 = PERSON_AND_ORGANIZATION ( #201, #164 ) ;
#273 = CARTESIAN_POINT ( 'NONE',  ( 0.0000000000000000000, 0.0000000000000000000, 0.0000000000000000000 ) ) ;
#274 = COORDINATED_UNIVERSAL_TIME_OFFSET ( 1, 0, .AHEAD. ) ;
#275 = VERTEX_POINT ( 'NONE', #196 ) ;
#276 = AXIS2_PLACEMENT_3D ( 'NONE', #335, #1, #288 ) ;
#277 = ADVANCED_BREP_SHAPE_REPRESENTATION ( '54540', ( #266, #45, #206 ), #183 ) ;
#278 = ORIENTED_EDGE ( 'NONE', *, *, #259, .F. ) ;
#279 = DIRECTION ( 'NONE',  ( 3.491481338843133355E-15, -1.224646799147353207E-16, 1.000000000000000000 ) ) ;
#280 = CARTESIAN_POINT ( 'NONE',  ( 4.189777606611760026E-14, 1.068578845146568345E-32, 12.00000000000000000 ) ) ;
#281 = AXIS2_PLACEMENT_3D ( 'NONE', #76, #26, #205 ) ;
#282 = ADVANCED_FACE ( 'NONE', ( #271 ), #68, .T. ) ;
#283 = ORIENTED_EDGE ( 'NONE', *, *, #41, .T. ) ;
#284 = DIRECTION ( 'NONE',  ( 1.798245827342160317E-15, -0.8571673007021098911, 0.5150380749100582634 ) ) ;
#285 = EDGE_LOOP ( 'NONE', ( #15, #307, #230, #156 ) ) ;
#286 = AXIS2_PLACEMENT_3D ( 'NONE', #295, #261, #6 ) ;
#287 = CYLINDRICAL_SURFACE ( 'NONE', #50, 1.424999999999995381 ) ;
#288 = DIRECTION ( 'NONE',  ( 0.0000000000000000000, 1.000000000000000000, 0.0000000000000000000 ) ) ;
#289 = DIRECTION ( 'NONE',  ( -3.491481338843133355E-15, 1.224646799147353207E-16, -1.000000000000000000 ) ) ;
#290 = EDGE_CURVE ( 'NONE', #174, #157, #197, .T. ) ;
#291 = EDGE_CURVE ( 'NONE', #21, #66, #299, .T. ) ;
#292 = CONICAL_SURFACE ( 'NONE', #211, 1.424999999999994493, 1.029744258676649649 ) ;
#293 = CARTESIAN_POINT ( 'NONE',  ( 2.261814941942586490E-14, -1.424999999999997380, 12.00000000000000000 ) ) ;
#294 = CALENDAR_DATE ( 2021, 3, 9 ) ;
#295 = CARTESIAN_POINT ( 'NONE',  ( 0.0000000000000000000, 0.0000000000000000000, 0.0000000000000000000 ) ) ;
#296 = APPLICATION_PROTOCOL_DEFINITION ( 'international standard', 'config_control_design', 1994, #71 ) ;
#297 = DIRECTION ( 'NONE',  ( -3.491481338843133355E-15, 1.224646799147353207E-16, -1.000000000000000000 ) ) ;
#298 = EDGE_LOOP ( 'NONE', ( #249, #323, #36, #46 ) ) ;
#299 = LINE ( 'NONE', #219, #257 ) ;
#300 = ORIENTED_EDGE ( 'NONE', *, *, #231, .F. ) ;
#301 = PERSON_AND_ORGANIZATION ( #201, #164 ) ;
#302 = CC_DESIGN_PERSON_AND_ORGANIZATION_ASSIGNMENT ( #301, #193, ( #189 ) ) ;
#303 = EDGE_LOOP ( 'NONE', ( #123, #228 ) ) ;
#304 = CARTESIAN_POINT ( 'NONE',  ( 1.606081415867841091E-13, 1.124999999999994449, 46.00000000000000000 ) ) ;
#305 = CARTESIAN_POINT ( 'NONE',  ( 4.189777606611760026E-14, -1.469576158976823947E-15, 12.00000000000000000 ) ) ;
#306 = DIRECTION ( 'NONE',  ( 3.491481338843133355E-15, -1.224646799147353207E-16, 1.000000000000000000 ) ) ;
#307 = ORIENTED_EDGE ( 'NONE', *, *, #246, .T. ) ;
#308 = DIRECTION ( 'NONE',  ( -3.491481338843133355E-15, 1.224646799147353207E-16, -1.000000000000000000 ) ) ;
#309 = CIRCLE ( 'NONE', #223, 1.125000000000000222 ) ;
#310 = APPROVAL_PERSON_ORGANIZATION ( #59, #332, #3 ) ;
#311 = DIRECTION ( 'NONE',  ( 0.0000000000000000000, 1.000000000000000000, 0.0000000000000000000 ) ) ;
#312 = DIRECTION ( 'NONE',  ( -3.491481338843133355E-15, 1.224646799147353207E-16, -1.000000000000000000 ) ) ;
#313 = DIRECTION ( 'NONE',  ( 4.275831445896958607E-31, 1.000000000000000000, 1.224646799147353207E-16 ) ) ;
#314 = CARTESIAN_POINT ( 'NONE',  ( 4.189777606611760026E-14, -1.469576158976823947E-15, 12.00000000000000000 ) ) ;
#315 = APPROVAL_ROLE ( '' ) ;
#316 = EDGE_CURVE ( 'NONE', #19, #157, #77, .T. ) ;
#317 = CARTESIAN_POINT ( 'NONE',  ( 2.989498434977176725E-15, -1.048574898201770861E-16, 0.8562263821142793718 ) ) ;
#318 = PRODUCT_DEFINITION_SHAPE ( 'NONE', 'NONE',  #151 ) ;
#319 = APPROVAL_STATUS ( 'not_yet_approved' ) ;
#320 = CARTESIAN_POINT ( 'NONE',  ( 1.595606971851311880E-13, 1.424999999999994493, 45.69999999999999574 ) ) ;
#321 = CC_DESIGN_APPROVAL ( #89, ( #64 ) ) ;
#322 =( NAMED_UNIT ( * ) PLANE_ANGLE_UNIT ( ) SI_UNIT ( $, .RADIAN. ) );
#323 = ORIENTED_EDGE ( 'NONE', *, *, #222, .T. ) ;
#324 = PERSON_AND_ORGANIZATION ( #201, #164 ) ;
#325 = CC_DESIGN_DATE_AND_TIME_ASSIGNMENT ( #269, #195, ( #151 ) ) ;
#326 = ORIENTED_EDGE ( 'NONE', *, *, #337, .F. ) ;
#327 = AXIS2_PLACEMENT_3D ( 'NONE', #317, #95, #170 ) ;
#328 = EDGE_LOOP ( 'NONE', ( #49, #133 ) ) ;
#329 = VERTEX_POINT ( 'NONE', #119 ) ;
#330 = ORIENTED_EDGE ( 'NONE', *, *, #22, .T. ) ;
#331 = AXIS2_PLACEMENT_3D ( 'NONE', #57, #234, #53 ) ;
#332 = APPROVAL ( #319, 'UNSPECIFIED' ) ;
#333 = ORIENTED_EDGE ( 'NONE', *, *, #291, .T. ) ;
#334 = ORIENTED_EDGE ( 'NONE', *, *, #41, .F. ) ;
#335 = CARTESIAN_POINT ( 'NONE',  ( 1.606081415867841091E-13, -5.633375276077824704E-15, 46.00000000000000000 ) ) ;
#336 = CIRCLE ( 'NONE', #101, 1.424999999999995826 ) ;
#337 = EDGE_CURVE ( 'NONE', #329, #19, #244, .T. ) ;
ENDSEC;
END-ISO-10303-21;
