ISO-10303-21;
HEADER;
FILE_DESCRIPTION (( 'STEP AP203' ),
    '1' );
FILE_NAME ('54539.step',
    '2021-09-03T07:49:33',
    ( '' ),
    ( '' ),
    'SwSTEP 2.0',
    'SolidWorks 2019',
    '' );
FILE_SCHEMA (( 'CONFIG_CONTROL_DESIGN' ));
ENDSEC;

DATA;
#1 = CARTESIAN_POINT ( 'NONE',  ( 2.997483729968533192E-15, 1.349999999999994538, 0.8111618356872121183 ) ) ;
#2 = PERSON_AND_ORGANIZATION ( #23, #204 ) ;
#3 = EDGE_LOOP ( 'NONE', ( #55, #286, #154 ) ) ;
#4 = FACE_OUTER_BOUND ( 'NONE', #241, .T. ) ;
#5 = AXIS2_PLACEMENT_3D ( 'NONE', #70, #56, #111 ) ;
#6 = ORIENTED_EDGE ( 'NONE', *, *, #105, .F. ) ;
#7 = DIRECTION ( 'NONE',  ( -3.491481338843133355E-15, 1.224646799147353207E-16, -1.000000000000000000 ) ) ;
#8 = ORIENTED_EDGE ( 'NONE', *, *, #38, .F. ) ;
#9 = DIRECTION ( 'NONE',  ( 0.0000000000000000000, 1.000000000000000000, 0.0000000000000000000 ) ) ;
#10 = DIRECTION ( 'NONE',  ( -3.491481338843133355E-15, 1.224646799147353207E-16, -1.000000000000000000 ) ) ;
#11 = DIRECTION ( 'NONE',  ( 0.0000000000000000000, 1.000000000000000000, 0.0000000000000000000 ) ) ;
#12 = APPROVAL ( #183, 'UNSPECIFIED' ) ;
#13 = DIRECTION ( 'NONE',  ( -3.491481338843133355E-15, 1.224646799147353207E-16, -1.000000000000000000 ) ) ;
#14 = DIRECTION ( 'NONE',  ( -2.382254525458723780E-15, -0.7071067811865453523, -0.7071067811865496822 ) ) ;
#15 = EDGE_CURVE ( 'NONE', #32, #232, #91, .T. ) ;
#16 = AXIS2_PLACEMENT_3D ( 'NONE', #86, #190, #60 ) ;
#17 = DIRECTION ( 'NONE',  ( 0.0000000000000000000, 1.000000000000000000, 0.0000000000000000000 ) ) ;
#18 = LOCAL_TIME ( 9, 49, 33.00000000000000000, #25 ) ;
#19 = EDGE_LOOP ( 'NONE', ( #6, #62, #316, #85 ) ) ;
#20 = CYLINDRICAL_SURFACE ( 'NONE', #194, 1.349999999999995204 ) ;
#21 = DESIGN_CONTEXT ( 'detailed design', #278, 'design' ) ;
#22 = EDGE_CURVE ( 'NONE', #292, #88, #63, .T. ) ;
#23 = PERSON ( 'UNSPECIFIED', 'UNSPECIFIED', 'UNSPECIFIED', ('UNSPECIFIED'), ('UNSPECIFIED'), ('UNSPECIFIED') ) ;
#24 = CARTESIAN_POINT ( 'NONE',  ( 1.606081415867841091E-13, -5.633375276077824704E-15, 46.00000000000000000 ) ) ;
#25 = COORDINATED_UNIVERSAL_TIME_OFFSET ( 1, 0, .AHEAD. ) ;
#26 = CARTESIAN_POINT ( 'NONE',  ( 1.008945639435092651E-13, -1.349999999999997424, 12.00000000000000000 ) ) ;
#27 = DIRECTION ( 'NONE',  ( 3.491481338843133355E-15, -1.224646799147353207E-16, 1.000000000000000000 ) ) ;
#28 = EDGE_CURVE ( 'NONE', #309, #88, #207, .T. ) ;
#29 = LOCAL_TIME ( 9, 49, 33.00000000000000000, #200 ) ;
#30 = DIRECTION ( 'NONE',  ( -3.491481338843133355E-15, 1.224646799147353207E-16, -1.000000000000000000 ) ) ;
#31 = COORDINATED_UNIVERSAL_TIME_OFFSET ( 1, 0, .AHEAD. ) ;
#32 = VERTEX_POINT ( 'NONE', #142 ) ;
#33 = FACE_OUTER_BOUND ( 'NONE', #159, .T. ) ;
#34 = VERTEX_POINT ( 'NONE', #66 ) ;
#35 = EDGE_CURVE ( 'NONE', #32, #34, #76, .T. ) ;
#36 = CARTESIAN_POINT ( 'NONE',  ( 1.606081415867841091E-13, 7.873738858974668965E-33, 46.00000000000000000 ) ) ;
#37 = CARTESIAN_POINT ( 'NONE',  ( 4.189777606611760026E-14, -1.469576158976823947E-15, 12.00000000000000000 ) ) ;
#38 = EDGE_CURVE ( 'NONE', #309, #195, #169, .T. ) ;
#39 = CARTESIAN_POINT ( 'NONE',  ( 1.606081415867841091E-13, 1.049999999999994493, 46.00000000000000000 ) ) ;
#40 = CONICAL_SURFACE ( 'NONE', #331, 1.050000000000000044, 0.7853981633974453924 ) ;
#41 = CIRCLE ( 'NONE', #64, 1.050000000000000044 ) ;
#42 = DIRECTION ( 'NONE',  ( -3.491481338843133355E-15, 1.224646799147353207E-16, -1.000000000000000000 ) ) ;
#43 = DIRECTION ( 'NONE',  ( 2.853229547240360879E-31, 1.000000000000000000, 1.606225440719272283E-16 ) ) ;
#44 = EDGE_CURVE ( 'NONE', #34, #79, #93, .T. ) ;
#45 = EDGE_LOOP ( 'NONE', ( #262, #254, #300 ) ) ;
#46 = CIRCLE ( 'NONE', #203, 1.349999999999995870 ) ;
#47 = CARTESIAN_POINT ( 'NONE',  ( 4.189777606611760026E-14, 1.012337853296748685E-32, 12.00000000000000000 ) ) ;
#48 = CC_DESIGN_APPROVAL ( #54, ( #305 ) ) ;
#49 = DATE_TIME_ROLE ( 'classification_date' ) ;
#50 = LINE ( 'NONE', #163, #147 ) ;
#51 = PERSON_AND_ORGANIZATION_ROLE ( 'classification_officer' ) ;
#52 = ORIENTED_EDGE ( 'NONE', *, *, #35, .F. ) ;
#53 = CARTESIAN_POINT ( 'NONE',  ( 1.606081415867841091E-13, 1.049999999999994493, 46.00000000000000000 ) ) ;
#54 = APPROVAL ( #315, 'UNSPECIFIED' ) ;
#55 = ORIENTED_EDGE ( 'NONE', *, *, #301, .F. ) ;
#56 = DIRECTION ( 'NONE',  ( -3.491481338843133355E-15, 1.224646799147353207E-16, -1.000000000000000000 ) ) ;
#57 = PRODUCT_DEFINITION_FORMATION_WITH_SPECIFIED_SOURCE ( 'ANY', '', #156, .NOT_KNOWN. ) ;
#58 = DATE_AND_TIME ( #129, #332 ) ;
#59 = VERTEX_POINT ( 'NONE', #115 ) ;
#60 = DIRECTION ( 'NONE',  ( 0.0000000000000000000, 1.000000000000000000, 0.0000000000000000000 ) ) ;
#61 = ADVANCED_FACE ( 'NONE', ( #217 ), #92, .T. ) ;
#62 = ORIENTED_EDGE ( 'NONE', *, *, #250, .T. ) ;
#63 = LINE ( 'NONE', #39, #334 ) ;
#64 = AXIS2_PLACEMENT_3D ( 'NONE', #186, #210, #314 ) ;
#65 = CARTESIAN_POINT ( 'NONE',  ( 2.832156412083640111E-15, -1.349999999999994538, 0.8111618356872116742 ) ) ;
#66 = CARTESIAN_POINT ( 'NONE',  ( 2.253029355698549473E-14, -1.349999999999997424, 12.00000000000000000 ) ) ;
#67 = ORIENTED_EDGE ( 'NONE', *, *, #98, .T. ) ;
#68 =( NAMED_UNIT ( * ) PLANE_ANGLE_UNIT ( ) SI_UNIT ( $, .RADIAN. ) );
#69 = CIRCLE ( 'NONE', #281, 1.349999999999995870 ) ;
#70 = CARTESIAN_POINT ( 'NONE',  ( 0.0000000000000000000, 0.0000000000000000000, 0.0000000000000000000 ) ) ;
#71 = CARTESIAN_POINT ( 'NONE',  ( 0.0000000000000000000, 0.0000000000000000000, 0.0000000000000000000 ) ) ;
#72 = APPROVAL ( #279, 'UNSPECIFIED' ) ;
#73 = CALENDAR_DATE ( 2021, 3, 9 ) ;
#74 = DATE_AND_TIME ( #73, #29 ) ;
#75 = ADVANCED_BREP_SHAPE_REPRESENTATION ( '54539', ( #268, #264, #312 ), #252 ) ;
#76 = CIRCLE ( 'NONE', #128, 1.349999999999995870 ) ;
#77 = CC_DESIGN_PERSON_AND_ORGANIZATION_ASSIGNMENT ( #124, #179, ( #156 ) ) ;
#78 = MECHANICAL_CONTEXT ( 'NONE', #224, 'mechanical' ) ;
#79 = VERTEX_POINT ( 'NONE', #65 ) ;
#80 = CARTESIAN_POINT ( 'NONE',  ( 1.606081415867841091E-13, -5.633375276077824704E-15, 46.00000000000000000 ) ) ;
#81 = VERTEX_POINT ( 'NONE', #322 ) ;
#82 = CARTESIAN_POINT ( 'NONE',  ( 4.189777606611760026E-14, 1.012337853296748685E-32, 12.00000000000000000 ) ) ;
#83 = ORIENTED_EDGE ( 'NONE', *, *, #250, .F. ) ;
#84 = CARTESIAN_POINT ( 'NONE',  ( 2.832156412083640506E-15, -9.933867456648354297E-17, 0.8111618356872118962 ) ) ;
#85 = ORIENTED_EDGE ( 'NONE', *, *, #28, .F. ) ;
#86 = CARTESIAN_POINT ( 'NONE',  ( 1.595606971851311880E-13, -5.596635872103403844E-15, 45.69999999999999574 ) ) ;
#87 = AXIS2_PLACEMENT_3D ( 'NONE', #139, #7, #214 ) ;
#88 = VERTEX_POINT ( 'NONE', #192 ) ;
#89 = DIRECTION ( 'NONE',  ( 0.0000000000000000000, 1.000000000000000000, 0.0000000000000000000 ) ) ;
#90 = AXIS2_PLACEMENT_3D ( 'NONE', #117, #219, #330 ) ;
#91 = LINE ( 'NONE', #271, #127 ) ;
#92 = CYLINDRICAL_SURFACE ( 'NONE', #178, 1.349999999999997868 ) ;
#93 = LINE ( 'NONE', #327, #172 ) ;
#94 = ADVANCED_FACE ( 'NONE', ( #242 ), #295, .F. ) ;
#95 = VECTOR ( 'NONE', #42, 1000.000000000000000 ) ;
#96 = PERSON_AND_ORGANIZATION_ROLE ( 'creator' ) ;
#97 = COORDINATED_UNIVERSAL_TIME_OFFSET ( 1, 0, .AHEAD. ) ;
#98 = EDGE_CURVE ( 'NONE', #34, #32, #69, .T. ) ;
#99 = PRODUCT_DEFINITION_SHAPE ( 'NONE', 'NONE',  #125 ) ;
#100 = UNCERTAINTY_MEASURE_WITH_UNIT (LENGTH_MEASURE( 1.000000000000000082E-05 ), #196, 'distance_accuracy_value', 'NONE');
#101 = AXIS2_PLACEMENT_3D ( 'NONE', #247, #121, #43 ) ;
#102 = APPROVAL_DATE_TIME ( #248, #72 ) ;
#103 = CALENDAR_DATE ( 2021, 3, 9 ) ;
#104 = FACE_OUTER_BOUND ( 'NONE', #134, .T. ) ;
#105 = EDGE_CURVE ( 'NONE', #267, #309, #269, .T. ) ;
#106 = DIRECTION ( 'NONE',  ( -3.491481338843133355E-15, 1.224646799147353207E-16, -1.000000000000000000 ) ) ;
#107 = SECURITY_CLASSIFICATION_LEVEL ( 'unclassified' ) ;
#108 = ORIENTED_EDGE ( 'NONE', *, *, #98, .F. ) ;
#109 = CARTESIAN_POINT ( 'NONE',  ( 2.832156412083640506E-15, -9.933867456648354297E-17, 0.8111618356872118962 ) ) ;
#110 = PERSON_AND_ORGANIZATION ( #23, #204 ) ;
#111 = DIRECTION ( 'NONE',  ( 4.275831445896958607E-31, 1.000000000000000000, 1.224646799147353207E-16 ) ) ;
#112 = DIRECTION ( 'NONE',  ( -2.853229547240360879E-31, -1.000000000000000000, -1.606225440719272283E-16 ) ) ;
#113 = AXIS2_PLACEMENT_3D ( 'NONE', #24, #321, #9 ) ;
#114 = CC_DESIGN_APPROVAL ( #72, ( #125 ) ) ;
#115 = CARTESIAN_POINT ( 'NONE',  ( 0.0000000000000000000, 0.0000000000000000000, 0.0000000000000000000 ) ) ;
#116 = DIRECTION ( 'NONE',  ( 4.275831445896958607E-31, 1.000000000000000000, 1.224646799147353207E-16 ) ) ;
#117 = CARTESIAN_POINT ( 'NONE',  ( 2.832156412083640506E-15, -9.933867456648354297E-17, 0.8111618356872118962 ) ) ;
#118 = AXIS2_PLACEMENT_3D ( 'NONE', #318, #106, #233 ) ;
#119 = ORIENTED_EDGE ( 'NONE', *, *, #44, .T. ) ;
#120 = ORIENTED_EDGE ( 'NONE', *, *, #28, .T. ) ;
#121 = DIRECTION ( 'NONE',  ( -3.491481338843133355E-15, 1.224646799147353207E-16, -1.000000000000000000 ) ) ;
#122 = APPLICATION_PROTOCOL_DEFINITION ( 'international standard', 'config_control_design', 1994, #224 ) ;
#123 = CIRCLE ( 'NONE', #113, 1.050000000000000044 ) ;
#124 = PERSON_AND_ORGANIZATION ( #23, #204 ) ;
#125 = PRODUCT_DEFINITION ( 'UNKNOWN', '', #57, #21 ) ;
#126 = DIRECTION ( 'NONE',  ( 0.0000000000000000000, 0.0000000000000000000, 1.000000000000000000 ) ) ;
#127 = VECTOR ( 'NONE', #326, 1000.000000000000000 ) ;
#128 = AXIS2_PLACEMENT_3D ( 'NONE', #37, #193, #11 ) ;
#129 = CALENDAR_DATE ( 2021, 3, 9 ) ;
#130 = EDGE_LOOP ( 'NONE', ( #243, #67, #230, #299 ) ) ;
#131 = CYLINDRICAL_SURFACE ( 'NONE', #87, 1.349999999999995204 ) ;
#132 = EDGE_CURVE ( 'NONE', #232, #79, #245, .T. ) ;
#133 = PERSON_AND_ORGANIZATION_ROLE ( 'creator' ) ;
#134 = EDGE_LOOP ( 'NONE', ( #140, #205 ) ) ;
#135 = FACE_OUTER_BOUND ( 'NONE', #45, .T. ) ;
#136 = DIRECTION ( 'NONE',  ( 3.491481338843133355E-15, -1.224646799147353207E-16, 1.000000000000000000 ) ) ;
#137 = PERSON_AND_ORGANIZATION ( #23, #204 ) ;
#138 = ORIENTED_EDGE ( 'NONE', *, *, #132, .F. ) ;
#139 = CARTESIAN_POINT ( 'NONE',  ( 0.0000000000000000000, 0.0000000000000000000, 0.0000000000000000000 ) ) ;
#140 = ORIENTED_EDGE ( 'NONE', *, *, #317, .T. ) ;
#141 = DIRECTION ( 'NONE',  ( 0.0000000000000000000, 1.000000000000000000, 0.0000000000000000000 ) ) ;
#142 = CARTESIAN_POINT ( 'NONE',  ( 4.189777606611760026E-14, 1.349999999999994538, 12.00000000000000000 ) ) ;
#143 = AXIS2_PLACEMENT_3D ( 'NONE', #109, #284, #160 ) ;
#144 = ORIENTED_EDGE ( 'NONE', *, *, #105, .T. ) ;
#145 = CARTESIAN_POINT ( 'NONE',  ( 1.607367295006945924E-13, -1.050000000000005818, 46.00000000000000000 ) ) ;
#146 = DIRECTION ( 'NONE',  ( -3.491481338843133355E-15, 1.224646799147353207E-16, -1.000000000000000000 ) ) ;
#147 = VECTOR ( 'NONE', #180, 1000.000000000000000 ) ;
#148 = CARTESIAN_POINT ( 'NONE',  ( 0.0000000000000000000, 0.0000000000000000000, 0.0000000000000000000 ) ) ;
#149 = FACE_OUTER_BOUND ( 'NONE', #187, .T. ) ;
#150 = AXIS2_PLACEMENT_3D ( 'NONE', #255, #238, #141 ) ;
#151 = APPLICATION_PROTOCOL_DEFINITION ( 'international standard', 'config_control_design', 1994, #278 ) ;
#152 = ADVANCED_FACE ( 'NONE', ( #149 ), #20, .T. ) ;
#153 = APPROVAL_ROLE ( '' ) ;
#154 = ORIENTED_EDGE ( 'NONE', *, *, #161, .T. ) ;
#155 = LINE ( 'NONE', #259, #227 ) ;
#156 = PRODUCT ( '54539', '54539', '', ( #78 ) ) ;
#157 = DIRECTION ( 'NONE',  ( 0.0000000000000000000, 1.000000000000000000, 0.0000000000000000000 ) ) ;
#158 = SHAPE_DEFINITION_REPRESENTATION ( #99, #75 ) ;
#159 = EDGE_LOOP ( 'NONE', ( #52, #108 ) ) ;
#160 = DIRECTION ( 'NONE',  ( -2.853229547240360879E-31, -1.000000000000000000, -1.606225440719272283E-16 ) ) ;
#161 = EDGE_CURVE ( 'NONE', #79, #232, #325, .T. ) ;
#162 = EDGE_LOOP ( 'NONE', ( #244, #83 ) ) ;
#163 = CARTESIAN_POINT ( 'NONE',  ( 2.832156412083640111E-15, -1.349999999999994538, 0.8111618356872116742 ) ) ;
#164 = DIRECTION ( 'NONE',  ( -3.491481338843133355E-15, 1.224646799147353207E-16, -1.000000000000000000 ) ) ;
#165 = CARTESIAN_POINT ( 'NONE',  ( 1.595606971851311880E-13, -5.596635872103403844E-15, 45.69999999999999574 ) ) ;
#166 = ADVANCED_FACE ( 'NONE', ( #225 ), #199, .T. ) ;
#167 = CONICAL_SURFACE ( 'NONE', #118, 1.050000000000000044, 0.7853981633974453924 ) ;
#168 = LOCAL_TIME ( 9, 49, 33.00000000000000000, #97 ) ;
#169 = LINE ( 'NONE', #222, #95 ) ;
#170 = ORIENTED_EDGE ( 'NONE', *, *, #15, .F. ) ;
#171 = ORIENTED_EDGE ( 'NONE', *, *, #323, .F. ) ;
#172 = VECTOR ( 'NONE', #164, 1000.000000000000000 ) ;
#173 = DIRECTION ( 'NONE',  ( 4.275831445896958607E-31, 1.000000000000000000, 1.224646799147353454E-16 ) ) ;
#174 = CALENDAR_DATE ( 2021, 3, 9 ) ;
#175 = CLOSED_SHELL ( 'NONE', ( #152, #228, #216, #308, #282 ) ) ;
#176 = DATE_TIME_ROLE ( 'creation_date' ) ;
#177 = CC_DESIGN_DATE_AND_TIME_ASSIGNMENT ( #319, #49, ( #305 ) ) ;
#178 = AXIS2_PLACEMENT_3D ( 'NONE', #148, #223, #329 ) ;
#179 = PERSON_AND_ORGANIZATION_ROLE ( 'design_owner' ) ;
#180 = DIRECTION ( 'NONE',  ( 1.798245827342160317E-15, -0.8571673007021098911, 0.5150380749100582634 ) ) ;
#181 = AXIS2_PLACEMENT_3D ( 'NONE', #47, #27, #265 ) ;
#182 = CC_DESIGN_APPROVAL ( #12, ( #57 ) ) ;
#183 = APPROVAL_STATUS ( 'not_yet_approved' ) ;
#184 = DIRECTION ( 'NONE',  ( -4.275831445896958607E-31, -1.000000000000000000, -1.224646799147353207E-16 ) ) ;
#185 = ORIENTED_EDGE ( 'NONE', *, *, #323, .T. ) ;
#186 = CARTESIAN_POINT ( 'NONE',  ( 1.606081415867841091E-13, -5.633375276077824704E-15, 46.00000000000000000 ) ) ;
#187 = EDGE_LOOP ( 'NONE', ( #294, #119, #138, #170 ) ) ;
#188 = CARTESIAN_POINT ( 'NONE',  ( 4.189777606611760026E-14, -1.469576158976823947E-15, 12.00000000000000000 ) ) ;
#189 = AXIS2_PLACEMENT_3D ( 'NONE', #82, #263, #184 ) ;
#190 = DIRECTION ( 'NONE',  ( -3.491481338843133355E-15, 1.224646799147353207E-16, -1.000000000000000000 ) ) ;
#191 = EDGE_CURVE ( 'NONE', #59, #79, #50, .T. ) ;
#192 = CARTESIAN_POINT ( 'NONE',  ( 1.595606971851311880E-13, 1.349999999999994538, 45.69999999999999574 ) ) ;
#193 = DIRECTION ( 'NONE',  ( -3.491481338843133355E-15, 1.224646799147353207E-16, -1.000000000000000000 ) ) ;
#194 = AXIS2_PLACEMENT_3D ( 'NONE', #302, #275, #173 ) ;
#195 = VERTEX_POINT ( 'NONE', #26 ) ;
#196 =( LENGTH_UNIT ( ) NAMED_UNIT ( * ) SI_UNIT ( .MILLI., .METRE. ) );
#197 = EDGE_CURVE ( 'NONE', #195, #81, #46, .T. ) ;
#198 = ORIENTED_EDGE ( 'NONE', *, *, #38, .T. ) ;
#199 = CYLINDRICAL_SURFACE ( 'NONE', #5, 1.349999999999997868 ) ;
#200 = COORDINATED_UNIVERSAL_TIME_OFFSET ( 1, 0, .AHEAD. ) ;
#201 = CC_DESIGN_PERSON_AND_ORGANIZATION_ASSIGNMENT ( #2, #133, ( #57 ) ) ;
#202 = APPROVAL_ROLE ( '' ) ;
#203 = AXIS2_PLACEMENT_3D ( 'NONE', #188, #30, #157 ) ;
#204 = ORGANIZATION ( 'UNSPECIFIED', 'UNSPECIFIED', '' ) ;
#205 = ORIENTED_EDGE ( 'NONE', *, *, #197, .T. ) ;
#206 = FACE_OUTER_BOUND ( 'NONE', #130, .T. ) ;
#207 = CIRCLE ( 'NONE', #273, 1.350000000000000089 ) ;
#208 = APPROVAL_ROLE ( '' ) ;
#209 = ORIENTED_EDGE ( 'NONE', *, *, #197, .F. ) ;
#210 = DIRECTION ( 'NONE',  ( -3.491481338843133355E-15, 1.224646799147353207E-16, -1.000000000000000000 ) ) ;
#211 = PERSON_AND_ORGANIZATION ( #23, #204 ) ;
#212 = ORIENTED_EDGE ( 'NONE', *, *, #22, .F. ) ;
#213 = PLANE ( 'NONE',  #189 ) ;
#214 = DIRECTION ( 'NONE',  ( 4.275831445896958607E-31, 1.000000000000000000, 1.224646799147353454E-16 ) ) ;
#215 = CARTESIAN_POINT ( 'NONE',  ( 1.602313770018553383E-13, -1.050000000000005818, 46.00000000000000000 ) ) ;
#216 = ADVANCED_FACE ( 'NONE', ( #257 ), #335, .T. ) ;
#217 = FACE_OUTER_BOUND ( 'NONE', #297, .T. ) ;
#218 = CARTESIAN_POINT ( 'NONE',  ( 4.189777606611760026E-14, -1.469576158976823947E-15, 12.00000000000000000 ) ) ;
#219 = DIRECTION ( 'NONE',  ( -3.491481338843133355E-15, 1.224646799147353207E-16, -1.000000000000000000 ) ) ;
#220 = AXIS2_PLACEMENT_3D ( 'NONE', #84, #136, #112 ) ;
#221 = APPROVAL_PERSON_ORGANIZATION ( #110, #54, #153 ) ;
#222 = CARTESIAN_POINT ( 'NONE',  ( 1.653273178848918732E-16, -1.349999999999997868, -1.653273178848930071E-16 ) ) ;
#223 = DIRECTION ( 'NONE',  ( -3.491481338843133355E-15, 1.224646799147353207E-16, -1.000000000000000000 ) ) ;
#224 = APPLICATION_CONTEXT ( 'configuration controlled 3d designs of mechanical parts and assemblies' ) ;
#225 = FACE_OUTER_BOUND ( 'NONE', #287, .T. ) ;
#226 = PERSON_AND_ORGANIZATION ( #23, #204 ) ;
#227 = VECTOR ( 'NONE', #236, 999.9999999999998863 ) ;
#228 = ADVANCED_FACE ( 'NONE', ( #135 ), #303, .T. ) ;
#229 = CC_DESIGN_DATE_AND_TIME_ASSIGNMENT ( #74, #176, ( #125 ) ) ;
#230 = ORIENTED_EDGE ( 'NONE', *, *, #15, .T. ) ;
#231 = LINE ( 'NONE', #310, #234 ) ;
#232 = VERTEX_POINT ( 'NONE', #1 ) ;
#233 = DIRECTION ( 'NONE',  ( 0.0000000000000000000, 1.000000000000000000, 0.0000000000000000000 ) ) ;
#234 = VECTOR ( 'NONE', #320, 1000.000000000000000 ) ;
#235 = ORIENTED_EDGE ( 'NONE', *, *, #317, .F. ) ;
#236 = DIRECTION ( 'NONE',  ( 1.903218546456022717E-15, 0.8571673007021097801, 0.5150380749100585964 ) ) ;
#237 = PERSON_AND_ORGANIZATION_ROLE ( 'design_supplier' ) ;
#238 = DIRECTION ( 'NONE',  ( -3.491481338843133355E-15, 1.224646799147353207E-16, -1.000000000000000000 ) ) ;
#239 = ADVANCED_FACE ( 'NONE', ( #240 ), #40, .T. ) ;
#240 = FACE_OUTER_BOUND ( 'NONE', #19, .T. ) ;
#241 = EDGE_LOOP ( 'NONE', ( #313, #144, #246, #212 ) ) ;
#242 = FACE_OUTER_BOUND ( 'NONE', #162, .T. ) ;
#243 = ORIENTED_EDGE ( 'NONE', *, *, #44, .F. ) ;
#244 = ORIENTED_EDGE ( 'NONE', *, *, #289, .F. ) ;
#245 = CIRCLE ( 'NONE', #90, 1.349999999999994538 ) ;
#246 = ORIENTED_EDGE ( 'NONE', *, *, #337, .F. ) ;
#247 = CARTESIAN_POINT ( 'NONE',  ( 2.832156412083640506E-15, -9.933867456648354297E-17, 0.8111618356872118962 ) ) ;
#248 = DATE_AND_TIME ( #174, #168 ) ;
#249 = CIRCLE ( 'NONE', #150, 1.349999999999995870 ) ;
#250 = EDGE_CURVE ( 'NONE', #267, #292, #123, .T. ) ;
#251 = PERSON_AND_ORGANIZATION ( #23, #204 ) ;
#252 =( GEOMETRIC_REPRESENTATION_CONTEXT ( 3 ) GLOBAL_UNCERTAINTY_ASSIGNED_CONTEXT ( ( #100 ) ) GLOBAL_UNIT_ASSIGNED_CONTEXT ( ( #196, #68, #304 ) ) REPRESENTATION_CONTEXT ( 'NONE', 'WORKASPACE' ) );
#253 = APPROVAL_DATE_TIME ( #256, #54 ) ;
#254 = ORIENTED_EDGE ( 'NONE', *, *, #301, .T. ) ;
#255 = CARTESIAN_POINT ( 'NONE',  ( 4.189777606611760026E-14, -1.469576158976823947E-15, 12.00000000000000000 ) ) ;
#256 = DATE_AND_TIME ( #283, #18 ) ;
#257 = FACE_OUTER_BOUND ( 'NONE', #3, .T. ) ;
#258 = CC_DESIGN_PERSON_AND_ORGANIZATION_ASSIGNMENT ( #226, #96, ( #125 ) ) ;
#259 = CARTESIAN_POINT ( 'NONE',  ( 2.997483729968533192E-15, 1.349999999999994538, 0.8111618356872121183 ) ) ;
#260 = APPROVAL_PERSON_ORGANIZATION ( #251, #72, #202 ) ;
#261 = PERSON_AND_ORGANIZATION ( #23, #204 ) ;
#262 = ORIENTED_EDGE ( 'NONE', *, *, #191, .F. ) ;
#263 = DIRECTION ( 'NONE',  ( 3.491481338843133355E-15, -1.224646799147353207E-16, 1.000000000000000000 ) ) ;
#264 = MANIFOLD_SOLID_BREP ( 'Corps-Déplacer/Copier1[2]', #175 ) ;
#265 = DIRECTION ( 'NONE',  ( -4.275831445896958607E-31, -1.000000000000000000, -1.224646799147353207E-16 ) ) ;
#266 = ORIENTED_EDGE ( 'NONE', *, *, #337, .T. ) ;
#267 = VERTEX_POINT ( 'NONE', #215 ) ;
#268 = MANIFOLD_SOLID_BREP ( 'Corps-Déplacer/Copier1[1]', #276 ) ;
#269 = LINE ( 'NONE', #145, #296 ) ;
#270 = ADVANCED_FACE ( 'NONE', ( #104 ), #213, .F. ) ;
#271 = CARTESIAN_POINT ( 'NONE',  ( 5.772372451960873712E-31, 1.349999999999995204, 1.653273178848921197E-16 ) ) ;
#272 = DIRECTION ( 'NONE',  ( -2.468850131082271655E-15, 0.7071067811865455743, -0.7071067811865493491 ) ) ;
#273 = AXIS2_PLACEMENT_3D ( 'NONE', #165, #146, #17 ) ;
#274 = ADVANCED_FACE ( 'NONE', ( #4 ), #167, .T. ) ;
#275 = DIRECTION ( 'NONE',  ( -3.491481338843133355E-15, 1.224646799147353207E-16, -1.000000000000000000 ) ) ;
#276 = CLOSED_SHELL ( 'NONE', ( #274, #166, #270, #61, #239, #94 ) ) ;
#277 = LOCAL_TIME ( 9, 49, 33.00000000000000000, #285 ) ;
#278 = APPLICATION_CONTEXT ( 'configuration controlled 3d designs of mechanical parts and assemblies' ) ;
#279 = APPROVAL_STATUS ( 'not_yet_approved' ) ;
#280 = PLANE ( 'NONE',  #181 ) ;
#281 = AXIS2_PLACEMENT_3D ( 'NONE', #218, #324, #89 ) ;
#282 = ADVANCED_FACE ( 'NONE', ( #33 ), #280, .T. ) ;
#283 = CALENDAR_DATE ( 2021, 3, 9 ) ;
#284 = DIRECTION ( 'NONE',  ( 3.491481338843133355E-15, -1.224646799147353207E-16, 1.000000000000000000 ) ) ;
#285 = COORDINATED_UNIVERSAL_TIME_OFFSET ( 1, 0, .AHEAD. ) ;
#286 = ORIENTED_EDGE ( 'NONE', *, *, #191, .T. ) ;
#287 = EDGE_LOOP ( 'NONE', ( #266, #198, #235, #171 ) ) ;
#288 = CARTESIAN_POINT ( 'NONE',  ( 1.008945639435091137E-13, -1.350000000000005418, 45.69999999999999574 ) ) ;
#289 = EDGE_CURVE ( 'NONE', #292, #267, #41, .T. ) ;
#290 = CC_DESIGN_SECURITY_CLASSIFICATION ( #305, ( #57 ) ) ;
#291 = APPROVAL_DATE_TIME ( #58, #12 ) ;
#292 = VERTEX_POINT ( 'NONE', #53 ) ;
#293 = DIRECTION ( 'NONE',  ( 0.0000000000000000000, 1.000000000000000000, 0.0000000000000000000 ) ) ;
#294 = ORIENTED_EDGE ( 'NONE', *, *, #35, .T. ) ;
#295 = PLANE ( 'NONE',  #311 ) ;
#296 = VECTOR ( 'NONE', #14, 1000.000000000000000 ) ;
#297 = EDGE_LOOP ( 'NONE', ( #8, #120, #185, #209 ) ) ;
#298 = CC_DESIGN_PERSON_AND_ORGANIZATION_ASSIGNMENT ( #211, #237, ( #57 ) ) ;
#299 = ORIENTED_EDGE ( 'NONE', *, *, #161, .F. ) ;
#300 = ORIENTED_EDGE ( 'NONE', *, *, #132, .T. ) ;
#301 = EDGE_CURVE ( 'NONE', #59, #232, #155, .T. ) ;
#302 = CARTESIAN_POINT ( 'NONE',  ( 0.0000000000000000000, 0.0000000000000000000, 0.0000000000000000000 ) ) ;
#303 = CONICAL_SURFACE ( 'NONE', #143, 1.349999999999994538, 1.029744258676649649 ) ;
#304 =( NAMED_UNIT ( * ) SI_UNIT ( $, .STERADIAN. ) SOLID_ANGLE_UNIT ( ) );
#305 = SECURITY_CLASSIFICATION ( '', '', #107 ) ;
#306 = DIRECTION ( 'NONE',  ( 1.000000000000000000, 0.0000000000000000000, 0.0000000000000000000 ) ) ;
#307 = CIRCLE ( 'NONE', #16, 1.350000000000000089 ) ;
#308 = ADVANCED_FACE ( 'NONE', ( #206 ), #131, .T. ) ;
#309 = VERTEX_POINT ( 'NONE', #288 ) ;
#310 = CARTESIAN_POINT ( 'NONE',  ( 5.772372451960885098E-31, 1.349999999999997868, 1.653273178848924155E-16 ) ) ;
#311 = AXIS2_PLACEMENT_3D ( 'NONE', #36, #13, #116 ) ;
#312 = AXIS2_PLACEMENT_3D ( 'NONE', #71, #126, #306 ) ;
#313 = ORIENTED_EDGE ( 'NONE', *, *, #289, .T. ) ;
#314 = DIRECTION ( 'NONE',  ( 0.0000000000000000000, 1.000000000000000000, 0.0000000000000000000 ) ) ;
#315 = APPROVAL_STATUS ( 'not_yet_approved' ) ;
#316 = ORIENTED_EDGE ( 'NONE', *, *, #22, .T. ) ;
#317 = EDGE_CURVE ( 'NONE', #81, #195, #249, .T. ) ;
#318 = CARTESIAN_POINT ( 'NONE',  ( 1.606081415867841091E-13, -5.633375276077824704E-15, 46.00000000000000000 ) ) ;
#319 = DATE_AND_TIME ( #103, #277 ) ;
#320 = DIRECTION ( 'NONE',  ( -3.491481338843133355E-15, 1.224646799147353207E-16, -1.000000000000000000 ) ) ;
#321 = DIRECTION ( 'NONE',  ( -3.491481338843133355E-15, 1.224646799147353207E-16, -1.000000000000000000 ) ) ;
#322 = CARTESIAN_POINT ( 'NONE',  ( 4.189777606611760026E-14, 1.349999999999994538, 12.00000000000000000 ) ) ;
#323 = EDGE_CURVE ( 'NONE', #88, #81, #231, .T. ) ;
#324 = DIRECTION ( 'NONE',  ( -3.491481338843133355E-15, 1.224646799147353207E-16, -1.000000000000000000 ) ) ;
#325 = CIRCLE ( 'NONE', #101, 1.349999999999994538 ) ;
#326 = DIRECTION ( 'NONE',  ( -3.491481338843133355E-15, 1.224646799147353207E-16, -1.000000000000000000 ) ) ;
#327 = CARTESIAN_POINT ( 'NONE',  ( 1.653273178848915280E-16, -1.349999999999995204, -1.653273178848926620E-16 ) ) ;
#328 = CC_DESIGN_PERSON_AND_ORGANIZATION_ASSIGNMENT ( #261, #51, ( #305 ) ) ;
#329 = DIRECTION ( 'NONE',  ( 4.275831445896958607E-31, 1.000000000000000000, 1.224646799147353207E-16 ) ) ;
#330 = DIRECTION ( 'NONE',  ( 2.853229547240360879E-31, 1.000000000000000000, 1.606225440719272283E-16 ) ) ;
#331 = AXIS2_PLACEMENT_3D ( 'NONE', #80, #10, #293 ) ;
#332 = LOCAL_TIME ( 9, 49, 33.00000000000000000, #31 ) ;
#333 = PRODUCT_RELATED_PRODUCT_CATEGORY ( 'detail', '', ( #156 ) ) ;
#334 = VECTOR ( 'NONE', #272, 1000.000000000000114 ) ;
#335 = CONICAL_SURFACE ( 'NONE', #220, 1.349999999999994538, 1.029744258676649649 ) ;
#336 = APPROVAL_PERSON_ORGANIZATION ( #137, #12, #208 ) ;
#337 = EDGE_CURVE ( 'NONE', #88, #309, #307, .T. ) ;
ENDSEC;
END-ISO-10303-21;
