ISO-10303-21;
HEADER;
FILE_DESCRIPTION (( 'STEP AP203' ),
    '1' );
FILE_NAME ('54538.step',
    '2021-09-03T07:49:31',
    ( '' ),
    ( '' ),
    'SwSTEP 2.0',
    'SolidWorks 2019',
    '' );
FILE_SCHEMA (( 'CONFIG_CONTROL_DESIGN' ));
ENDSEC;

DATA;
#1 = FACE_OUTER_BOUND ( 'NONE', #98, .T. ) ;
#2 = DATE_TIME_ROLE ( 'creation_date' ) ;
#3 = DIRECTION ( 'NONE',  ( 0.0000000000000000000, 1.000000000000000000, 0.0000000000000000000 ) ) ;
#4 = SHAPE_DEFINITION_REPRESENTATION ( #14, #152 ) ;
#5 = AXIS2_PLACEMENT_3D ( 'NONE', #102, #134, #3 ) ;
#6 = EDGE_CURVE ( 'NONE', #256, #229, #309, .T. ) ;
#7 = CARTESIAN_POINT ( 'NONE',  ( 2.937051094012664520E-15, -1.030178847356125594E-16, 0.8412048666385901763 ) ) ;
#8 = APPROVAL_ROLE ( '' ) ;
#9 = DIRECTION ( 'NONE',  ( 1.000000000000000000, 0.0000000000000000000, 0.0000000000000000000 ) ) ;
#10 = AXIS2_PLACEMENT_3D ( 'NONE', #83, #289, #9 ) ;
#11 = ORIENTED_EDGE ( 'NONE', *, *, #250, .F. ) ;
#12 = ORIENTED_EDGE ( 'NONE', *, *, #307, .T. ) ;
#13 = ORIENTED_EDGE ( 'NONE', *, *, #143, .F. ) ;
#14 = PRODUCT_DEFINITION_SHAPE ( 'NONE', 'NONE',  #139 ) ;
#15 = VECTOR ( 'NONE', #50, 1000.000000000000000 ) ;
#16 = PRODUCT_DEFINITION_FORMATION_WITH_SPECIFIED_SOURCE ( 'ANY', '', #199, .NOT_KNOWN. ) ;
#17 = DIRECTION ( 'NONE',  ( 4.275831445896958607E-31, 1.000000000000000000, 1.224646799147353207E-16 ) ) ;
#18 = DIRECTION ( 'NONE',  ( 4.275831445896957731E-31, 1.000000000000000000, 1.224646799147352961E-16 ) ) ;
#19 = FACE_OUTER_BOUND ( 'NONE', #20, .T. ) ;
#20 = EDGE_LOOP ( 'NONE', ( #99, #327, #324, #233 ) ) ;
#21 = CARTESIAN_POINT ( 'NONE',  ( 1.009006871775048618E-13, -1.400000000000005684, 45.69999999999999574 ) ) ;
#22 = CARTESIAN_POINT ( 'NONE',  ( 4.189777606611760026E-14, 1.399999999999994360, 12.00000000000000000 ) ) ;
#23 = CARTESIAN_POINT ( 'NONE',  ( 0.0000000000000000000, 0.0000000000000000000, 0.0000000000000000000 ) ) ;
#24 = EDGE_CURVE ( 'NONE', #331, #277, #302, .T. ) ;
#25 = SECURITY_CLASSIFICATION ( '', '', #241 ) ;
#26 = CARTESIAN_POINT ( 'NONE',  ( 4.189777606611760026E-14, 1.049831847863294989E-32, 12.00000000000000000 ) ) ;
#27 = PERSON_AND_ORGANIZATION_ROLE ( 'design_owner' ) ;
#28 = FACE_OUTER_BOUND ( 'NONE', #278, .T. ) ;
#29 = CALENDAR_DATE ( 2021, 3, 9 ) ;
#30 = DIRECTION ( 'NONE',  ( 5.502656983963553279E-31, 1.000000000000000000, 1.548860246407869746E-16 ) ) ;
#31 = COORDINATED_UNIVERSAL_TIME_OFFSET ( 1, 0, .AHEAD. ) ;
#32 = CARTESIAN_POINT ( 'NONE',  ( 1.595606971851311880E-13, -5.596635872103403844E-15, 45.69999999999999574 ) ) ;
#33 = ORIENTED_EDGE ( 'NONE', *, *, #276, .F. ) ;
#34 = ORIENTED_EDGE ( 'NONE', *, *, #90, .F. ) ;
#35 = MANIFOLD_SOLID_BREP ( 'Corps-Déplacer/Copier1[2]', #74 ) ;
#36 = ORIENTED_EDGE ( 'NONE', *, *, #6, .T. ) ;
#37 = AXIS2_PLACEMENT_3D ( 'NONE', #46, #160, #260 ) ;
#38 = ORIENTED_EDGE ( 'NONE', *, *, #209, .T. ) ;
#39 = AXIS2_PLACEMENT_3D ( 'NONE', #336, #82, #163 ) ;
#40 = DIRECTION ( 'NONE',  ( -3.491481338843133355E-15, 1.224646799147353207E-16, -1.000000000000000000 ) ) ;
#41 = LINE ( 'NONE', #232, #92 ) ;
#42 = CARTESIAN_POINT ( 'NONE',  ( 1.714505518806282312E-16, -1.399999999999995026, -1.714505518806294145E-16 ) ) ;
#43 = ADVANCED_FACE ( 'NONE', ( #19 ), #299, .T. ) ;
#44 = DIRECTION ( 'NONE',  ( -3.491481338843133355E-15, 1.224646799147353207E-16, -1.000000000000000000 ) ) ;
#45 = EDGE_LOOP ( 'NONE', ( #12, #36, #59, #201 ) ) ;
#46 = CARTESIAN_POINT ( 'NONE',  ( 1.595606971851311880E-13, -5.596635872103403844E-15, 45.69999999999999574 ) ) ;
#47 = CIRCLE ( 'NONE', #252, 1.399999999999994360 ) ;
#48 = LINE ( 'NONE', #314, #334 ) ;
#49 = CARTESIAN_POINT ( 'NONE',  ( 1.602375002358510612E-13, -1.100000000000005640, 46.00000000000000000 ) ) ;
#50 = DIRECTION ( 'NONE',  ( -3.491481338843133355E-15, 1.224646799147353207E-16, -1.000000000000000000 ) ) ;
#51 = MECHANICAL_CONTEXT ( 'NONE', #320, 'mechanical' ) ;
#52 = CIRCLE ( 'NONE', #329, 1.399999999999995914 ) ;
#53 = FACE_OUTER_BOUND ( 'NONE', #116, .T. ) ;
#54 = APPROVAL_DATE_TIME ( #216, #279 ) ;
#55 = CARTESIAN_POINT ( 'NONE',  ( 4.189777606611760026E-14, -1.469576158976823947E-15, 12.00000000000000000 ) ) ;
#56 = DIRECTION ( 'NONE',  ( 0.0000000000000000000, 1.000000000000000000, 0.0000000000000000000 ) ) ;
#57 = CALENDAR_DATE ( 2021, 3, 9 ) ;
#58 = CIRCLE ( 'NONE', #5, 1.100000000000000089 ) ;
#59 = ORIENTED_EDGE ( 'NONE', *, *, #246, .F. ) ;
#60 = CARTESIAN_POINT ( 'NONE',  ( 2.937051094012663731E-15, -1.399999999999994360, 0.8412048666385900653 ) ) ;
#61 = COORDINATED_UNIVERSAL_TIME_OFFSET ( 1, 0, .AHEAD. ) ;
#62 = VERTEX_POINT ( 'NONE', #120 ) ;
#63 = LINE ( 'NONE', #325, #193 ) ;
#64 = VERTEX_POINT ( 'NONE', #22 ) ;
#65 = DIRECTION ( 'NONE',  ( 4.275831445896958607E-31, 1.000000000000000000, 1.224646799147353207E-16 ) ) ;
#66 = DIRECTION ( 'NONE',  ( 5.502656983963553279E-31, 1.000000000000000000, 1.548860246407869746E-16 ) ) ;
#67 = EDGE_LOOP ( 'NONE', ( #194, #38, #145 ) ) ;
#68 = CARTESIAN_POINT ( 'NONE',  ( 4.189777606611760026E-14, -1.469576158976823947E-15, 12.00000000000000000 ) ) ;
#69 = DIRECTION ( 'NONE',  ( -3.491481338843133355E-15, 1.224646799147353207E-16, -1.000000000000000000 ) ) ;
#70 = PRODUCT_RELATED_PRODUCT_CATEGORY ( 'detail', '', ( #199 ) ) ;
#71 = ORIENTED_EDGE ( 'NONE', *, *, #240, .F. ) ;
#72 = CARTESIAN_POINT ( 'NONE',  ( 0.0000000000000000000, 0.0000000000000000000, 0.0000000000000000000 ) ) ;
#73 = PERSON ( 'UNSPECIFIED', 'UNSPECIFIED', 'UNSPECIFIED', ('UNSPECIFIED'), ('UNSPECIFIED'), ('UNSPECIFIED') ) ;
#74 = CLOSED_SHELL ( 'NONE', ( #84, #107, #206, #178, #150 ) ) ;
#75 = CC_DESIGN_PERSON_AND_ORGANIZATION_ASSIGNMENT ( #272, #317, ( #16 ) ) ;
#76 = CARTESIAN_POINT ( 'NONE',  ( 1.606081415867841091E-13, 1.099999999999994538, 46.00000000000000000 ) ) ;
#77 = EDGE_CURVE ( 'NONE', #62, #202, #131, .T. ) ;
#78 = APPROVAL_ROLE ( '' ) ;
#79 = CARTESIAN_POINT ( 'NONE',  ( 0.0000000000000000000, 0.0000000000000000000, 0.0000000000000000000 ) ) ;
#80 = DIRECTION ( 'NONE',  ( 3.491481338843133355E-15, -1.224646799147353207E-16, 1.000000000000000000 ) ) ;
#81 = DATE_AND_TIME ( #29, #200 ) ;
#82 = DIRECTION ( 'NONE',  ( -3.491481338843133355E-15, 1.224646799147353207E-16, -1.000000000000000000 ) ) ;
#83 = CARTESIAN_POINT ( 'NONE',  ( 0.0000000000000000000, 0.0000000000000000000, 0.0000000000000000000 ) ) ;
#84 = ADVANCED_FACE ( 'NONE', ( #128 ), #95, .T. ) ;
#85 = AXIS2_PLACEMENT_3D ( 'NONE', #284, #80, #318 ) ;
#86 = ORGANIZATION ( 'UNSPECIFIED', 'UNSPECIFIED', '' ) ;
#87 = APPROVAL ( #319, 'UNSPECIFIED' ) ;
#88 = VERTEX_POINT ( 'NONE', #23 ) ;
#89 = PERSON_AND_ORGANIZATION_ROLE ( 'creator' ) ;
#90 = EDGE_CURVE ( 'NONE', #256, #64, #269, .T. ) ;
#91 = EDGE_LOOP ( 'NONE', ( #71, #33 ) ) ;
#92 = VECTOR ( 'NONE', #153, 1000.000000000000000 ) ;
#93 = APPLICATION_PROTOCOL_DEFINITION ( 'international standard', 'config_control_design', 1994, #320 ) ;
#94 = ORIENTED_EDGE ( 'NONE', *, *, #174, .T. ) ;
#95 = CYLINDRICAL_SURFACE ( 'NONE', #275, 1.399999999999995026 ) ;
#96 = VERTEX_POINT ( 'NONE', #333 ) ;
#97 =( NAMED_UNIT ( * ) SI_UNIT ( $, .STERADIAN. ) SOLID_ANGLE_UNIT ( ) );
#98 = EDGE_LOOP ( 'NONE', ( #223, #119, #113 ) ) ;
#99 = ORIENTED_EDGE ( 'NONE', *, *, #174, .F. ) ;
#100 = VECTOR ( 'NONE', #40, 1000.000000000000000 ) ;
#101 = DIRECTION ( 'NONE',  ( -4.275831445896958607E-31, -1.000000000000000000, -1.224646799147353207E-16 ) ) ;
#102 = CARTESIAN_POINT ( 'NONE',  ( 1.606081415867841091E-13, -5.633375276077824704E-15, 46.00000000000000000 ) ) ;
#103 = PERSON_AND_ORGANIZATION ( #73, #86 ) ;
#104 = CARTESIAN_POINT ( 'NONE',  ( 2.937051094012664520E-15, -1.030178847356125594E-16, 0.8412048666385901763 ) ) ;
#105 = DIRECTION ( 'NONE',  ( -3.491481338843133355E-15, 1.224646799147353207E-16, -1.000000000000000000 ) ) ;
#106 = APPROVAL_STATUS ( 'not_yet_approved' ) ;
#107 = ADVANCED_FACE ( 'NONE', ( #177 ), #263, .T. ) ;
#108 = CARTESIAN_POINT ( 'NONE',  ( 1.714505518806286256E-16, -1.399999999999998135, -1.714505518806298089E-16 ) ) ;
#109 = COORDINATED_UNIVERSAL_TIME_OFFSET ( 1, 0, .AHEAD. ) ;
#110 = VERTEX_POINT ( 'NONE', #49 ) ;
#111 = DATE_AND_TIME ( #57, #321 ) ;
#112 = AXIS2_PLACEMENT_3D ( 'NONE', #213, #137, #238 ) ;
#113 = ORIENTED_EDGE ( 'NONE', *, *, #127, .T. ) ;
#114 = EDGE_CURVE ( 'NONE', #202, #62, #52, .T. ) ;
#115 = ORIENTED_EDGE ( 'NONE', *, *, #24, .F. ) ;
#116 = EDGE_LOOP ( 'NONE', ( #255, #176, #261, #13 ) ) ;
#117 = CC_DESIGN_PERSON_AND_ORGANIZATION_ASSIGNMENT ( #287, #167, ( #16 ) ) ;
#118 = AXIS2_PLACEMENT_3D ( 'NONE', #32, #271, #311 ) ;
#119 = ORIENTED_EDGE ( 'NONE', *, *, #300, .T. ) ;
#120 = CARTESIAN_POINT ( 'NONE',  ( 1.009006871775049754E-13, -1.399999999999997469, 12.00000000000000000 ) ) ;
#121 = CC_DESIGN_PERSON_AND_ORGANIZATION_ASSIGNMENT ( #322, #247, ( #25 ) ) ;
#122 = DIRECTION ( 'NONE',  ( -3.491481338843133355E-15, 1.224646799147353207E-16, -1.000000000000000000 ) ) ;
#123 = AXIS2_PLACEMENT_3D ( 'NONE', #7, #273, #30 ) ;
#124 = ORIENTED_EDGE ( 'NONE', *, *, #114, .F. ) ;
#125 = CARTESIAN_POINT ( 'NONE',  ( 5.986164024255733116E-31, 1.399999999999998135, 1.714505518806291926E-16 ) ) ;
#126 =( LENGTH_UNIT ( ) NAMED_UNIT ( * ) SI_UNIT ( .MILLI., .METRE. ) );
#127 = EDGE_CURVE ( 'NONE', #229, #96, #235, .T. ) ;
#128 = FACE_OUTER_BOUND ( 'NONE', #45, .T. ) ;
#129 = CARTESIAN_POINT ( 'NONE',  ( 1.595606971851311880E-13, 1.399999999999994360, 45.69999999999999574 ) ) ;
#130 = DIRECTION ( 'NONE',  ( 0.0000000000000000000, 1.000000000000000000, 0.0000000000000000000 ) ) ;
#131 = CIRCLE ( 'NONE', #144, 1.399999999999995914 ) ;
#132 = DIRECTION ( 'NONE',  ( 4.275831445896958607E-31, 1.000000000000000000, 1.224646799147353207E-16 ) ) ;
#133 = PERSON_AND_ORGANIZATION ( #73, #86 ) ;
#134 = DIRECTION ( 'NONE',  ( -3.491481338843133355E-15, 1.224646799147353207E-16, -1.000000000000000000 ) ) ;
#135 = PERSON_AND_ORGANIZATION ( #73, #86 ) ;
#136 = DIRECTION ( 'NONE',  ( -2.382254525458723780E-15, -0.7071067811865453523, -0.7071067811865496822 ) ) ;
#137 = DIRECTION ( 'NONE',  ( 3.491481338843133355E-15, -1.224646799147353207E-16, 1.000000000000000000 ) ) ;
#138 = EDGE_CURVE ( 'NONE', #277, #331, #248, .T. ) ;
#139 = PRODUCT_DEFINITION ( 'UNKNOWN', '', #16, #228 ) ;
#140 = LINE ( 'NONE', #76, #227 ) ;
#141 = CALENDAR_DATE ( 2021, 3, 9 ) ;
#142 = LINE ( 'NONE', #125, #100 ) ;
#143 = EDGE_CURVE ( 'NONE', #274, #277, #140, .T. ) ;
#144 = AXIS2_PLACEMENT_3D ( 'NONE', #183, #122, #226 ) ;
#145 = ORIENTED_EDGE ( 'NONE', *, *, #246, .T. ) ;
#146 = DIRECTION ( 'NONE',  ( -3.491481338843133355E-15, 1.224646799147353207E-16, -1.000000000000000000 ) ) ;
#147 = FACE_OUTER_BOUND ( 'NONE', #198, .T. ) ;
#148 = AXIS2_PLACEMENT_3D ( 'NONE', #315, #214, #222 ) ;
#149 =( GEOMETRIC_REPRESENTATION_CONTEXT ( 3 ) GLOBAL_UNCERTAINTY_ASSIGNED_CONTEXT ( ( #219 ) ) GLOBAL_UNIT_ASSIGNED_CONTEXT ( ( #126, #230, #97 ) ) REPRESENTATION_CONTEXT ( 'NONE', 'WORKASPACE' ) );
#150 = ADVANCED_FACE ( 'NONE', ( #237 ), #207, .T. ) ;
#151 = DIRECTION ( 'NONE',  ( -3.491481338843133355E-15, 1.224646799147353207E-16, -1.000000000000000000 ) ) ;
#152 = ADVANCED_BREP_SHAPE_REPRESENTATION ( '54538', ( #262, #35, #10 ), #149 ) ;
#153 = DIRECTION ( 'NONE',  ( -3.491481338843133355E-15, 1.224646799147353207E-16, -1.000000000000000000 ) ) ;
#154 = ORIENTED_EDGE ( 'NONE', *, *, #291, .T. ) ;
#155 = CARTESIAN_POINT ( 'NONE',  ( 0.0000000000000000000, 0.0000000000000000000, 0.0000000000000000000 ) ) ;
#156 = DIRECTION ( 'NONE',  ( 3.491481338843133355E-15, -1.224646799147353207E-16, 1.000000000000000000 ) ) ;
#157 = ADVANCED_FACE ( 'NONE', ( #53 ), #159, .T. ) ;
#158 = CYLINDRICAL_SURFACE ( 'NONE', #244, 1.399999999999998135 ) ;
#159 = CONICAL_SURFACE ( 'NONE', #310, 1.100000000000000089, 0.7853981633974453924 ) ;
#160 = DIRECTION ( 'NONE',  ( -3.491481338843133355E-15, 1.224646799147353207E-16, -1.000000000000000000 ) ) ;
#161 = ORIENTED_EDGE ( 'NONE', *, *, #6, .F. ) ;
#162 = CC_DESIGN_APPROVAL ( #87, ( #25 ) ) ;
#163 = DIRECTION ( 'NONE',  ( 0.0000000000000000000, 1.000000000000000000, 0.0000000000000000000 ) ) ;
#164 = APPLICATION_PROTOCOL_DEFINITION ( 'international standard', 'config_control_design', 1994, #253 ) ;
#165 = DATE_AND_TIME ( #141, #283 ) ;
#166 = DIRECTION ( 'NONE',  ( -2.468850131082271655E-15, 0.7071067811865455743, -0.7071067811865493491 ) ) ;
#167 = PERSON_AND_ORGANIZATION_ROLE ( 'creator' ) ;
#168 = APPROVAL_PERSON_ORGANIZATION ( #133, #190, #8 ) ;
#169 = PLANE ( 'NONE',  #210 ) ;
#170 = COORDINATED_UNIVERSAL_TIME_OFFSET ( 1, 0, .AHEAD. ) ;
#171 = ORIENTED_EDGE ( 'NONE', *, *, #143, .T. ) ;
#172 = CONICAL_SURFACE ( 'NONE', #85, 1.399999999999994360, 1.029744258676649649 ) ;
#173 = AXIS2_PLACEMENT_3D ( 'NONE', #308, #146, #17 ) ;
#174 = EDGE_CURVE ( 'NONE', #331, #62, #266, .T. ) ;
#175 = CC_DESIGN_APPROVAL ( #190, ( #139 ) ) ;
#176 = ORIENTED_EDGE ( 'NONE', *, *, #295, .T. ) ;
#177 = FACE_OUTER_BOUND ( 'NONE', #67, .T. ) ;
#178 = ADVANCED_FACE ( 'NONE', ( #286 ), #215, .T. ) ;
#179 = ORIENTED_EDGE ( 'NONE', *, *, #127, .F. ) ;
#180 = CC_DESIGN_DATE_AND_TIME_ASSIGNMENT ( #265, #2, ( #139 ) ) ;
#181 = DIRECTION ( 'NONE',  ( 4.275831445896957731E-31, 1.000000000000000000, 1.224646799147352961E-16 ) ) ;
#182 = AXIS2_PLACEMENT_3D ( 'NONE', #281, #156, #257 ) ;
#183 = CARTESIAN_POINT ( 'NONE',  ( 4.189777606611760026E-14, -1.469576158976823947E-15, 12.00000000000000000 ) ) ;
#184 = ADVANCED_FACE ( 'NONE', ( #268 ), #204, .T. ) ;
#185 = CARTESIAN_POINT ( 'NONE',  ( 4.189777606611760026E-14, 1.399999999999994360, 12.00000000000000000 ) ) ;
#186 = DIRECTION ( 'NONE',  ( -3.491481338843133355E-15, 1.224646799147353207E-16, -1.000000000000000000 ) ) ;
#187 = APPROVAL_STATUS ( 'not_yet_approved' ) ;
#188 = CARTESIAN_POINT ( 'NONE',  ( 3.108501645893293885E-15, 1.399999999999994360, 0.8412048666385903983 ) ) ;
#189 = APPROVAL_DATE_TIME ( #81, #87 ) ;
#190 = APPROVAL ( #106, 'UNSPECIFIED' ) ;
#191 = LINE ( 'NONE', #188, #197 ) ;
#192 = DATE_TIME_ROLE ( 'classification_date' ) ;
#193 = VECTOR ( 'NONE', #285, 1000.000000000000000 ) ;
#194 = ORIENTED_EDGE ( 'NONE', *, *, #300, .F. ) ;
#195 = CC_DESIGN_PERSON_AND_ORGANIZATION_ASSIGNMENT ( #239, #27, ( #199 ) ) ;
#196 = ORIENTED_EDGE ( 'NONE', *, *, #90, .T. ) ;
#197 = VECTOR ( 'NONE', #292, 999.9999999999998863 ) ;
#198 = EDGE_LOOP ( 'NONE', ( #296, #94, #124, #11 ) ) ;
#199 = PRODUCT ( '54538', '54538', '', ( #51 ) ) ;
#200 = LOCAL_TIME ( 9, 49, 31.00000000000000000, #267 ) ;
#201 = ORIENTED_EDGE ( 'NONE', *, *, #291, .F. ) ;
#202 = VERTEX_POINT ( 'NONE', #185 ) ;
#203 = DIRECTION ( 'NONE',  ( -3.491481338843133355E-15, 1.224646799147353207E-16, -1.000000000000000000 ) ) ;
#204 = CONICAL_SURFACE ( 'NONE', #39, 1.100000000000000089, 0.7853981633974453924 ) ;
#205 = LOCAL_TIME ( 9, 49, 31.00000000000000000, #31 ) ;
#206 = ADVANCED_FACE ( 'NONE', ( #1 ), #172, .T. ) ;
#207 = PLANE ( 'NONE',  #112 ) ;
#208 = APPROVAL_ROLE ( '' ) ;
#209 = EDGE_CURVE ( 'NONE', #88, #96, #191, .T. ) ;
#210 = AXIS2_PLACEMENT_3D ( 'NONE', #26, #264, #101 ) ;
#211 = LOCAL_TIME ( 9, 49, 31.00000000000000000, #61 ) ;
#212 = DIRECTION ( 'NONE',  ( -3.491481338843133355E-15, 1.224646799147353207E-16, -1.000000000000000000 ) ) ;
#213 = CARTESIAN_POINT ( 'NONE',  ( 4.189777606611760026E-14, 1.049831847863294989E-32, 12.00000000000000000 ) ) ;
#214 = DIRECTION ( 'NONE',  ( -3.491481338843133355E-15, 1.224646799147353207E-16, -1.000000000000000000 ) ) ;
#215 = CYLINDRICAL_SURFACE ( 'NONE', #313, 1.399999999999995026 ) ;
#216 = DATE_AND_TIME ( #290, #205 ) ;
#217 = CALENDAR_DATE ( 2021, 3, 9 ) ;
#218 = CC_DESIGN_SECURITY_CLASSIFICATION ( #25, ( #16 ) ) ;
#219 = UNCERTAINTY_MEASURE_WITH_UNIT (LENGTH_MEASURE( 1.000000000000000082E-05 ), #126, 'distance_accuracy_value', 'NONE');
#220 = ORIENTED_EDGE ( 'NONE', *, *, #77, .T. ) ;
#221 = VECTOR ( 'NONE', #203, 1000.000000000000000 ) ;
#222 = DIRECTION ( 'NONE',  ( 0.0000000000000000000, 1.000000000000000000, 0.0000000000000000000 ) ) ;
#223 = ORIENTED_EDGE ( 'NONE', *, *, #209, .F. ) ;
#224 = CC_DESIGN_DATE_AND_TIME_ASSIGNMENT ( #165, #192, ( #25 ) ) ;
#225 = EDGE_LOOP ( 'NONE', ( #305, #282, #171, #115 ) ) ;
#226 = DIRECTION ( 'NONE',  ( 0.0000000000000000000, 1.000000000000000000, 0.0000000000000000000 ) ) ;
#227 = VECTOR ( 'NONE', #166, 1000.000000000000114 ) ;
#228 = DESIGN_CONTEXT ( 'detailed design', #253, 'design' ) ;
#229 = VERTEX_POINT ( 'NONE', #60 ) ;
#230 =( NAMED_UNIT ( * ) PLANE_ANGLE_UNIT ( ) SI_UNIT ( $, .RADIAN. ) );
#231 = CARTESIAN_POINT ( 'NONE',  ( 4.189777606611760026E-14, -1.469576158976823947E-15, 12.00000000000000000 ) ) ;
#232 = CARTESIAN_POINT ( 'NONE',  ( 5.986164024255720855E-31, 1.399999999999995026, 1.714505518806288475E-16 ) ) ;
#233 = ORIENTED_EDGE ( 'NONE', *, *, #77, .F. ) ;
#234 = ADVANCED_FACE ( 'NONE', ( #28 ), #169, .F. ) ;
#235 = CIRCLE ( 'NONE', #123, 1.399999999999994360 ) ;
#236 = CIRCLE ( 'NONE', #270, 1.399999999999995914 ) ;
#237 = FACE_OUTER_BOUND ( 'NONE', #249, .T. ) ;
#238 = DIRECTION ( 'NONE',  ( -4.275831445896958607E-31, -1.000000000000000000, -1.224646799147353207E-16 ) ) ;
#239 = PERSON_AND_ORGANIZATION ( #73, #86 ) ;
#240 = EDGE_CURVE ( 'NONE', #274, #110, #58, .T. ) ;
#241 = SECURITY_CLASSIFICATION_LEVEL ( 'unclassified' ) ;
#242 = CARTESIAN_POINT ( 'NONE',  ( 1.606081415867841091E-13, 1.099999999999994538, 46.00000000000000000 ) ) ;
#243 = CIRCLE ( 'NONE', #148, 1.100000000000000089 ) ;
#244 = AXIS2_PLACEMENT_3D ( 'NONE', #155, #280, #181 ) ;
#245 = CARTESIAN_POINT ( 'NONE',  ( 1.606081415867841091E-13, -5.633375276077824704E-15, 46.00000000000000000 ) ) ;
#246 = EDGE_CURVE ( 'NONE', #96, #229, #47, .T. ) ;
#247 = PERSON_AND_ORGANIZATION_ROLE ( 'classification_officer' ) ;
#248 = CIRCLE ( 'NONE', #118, 1.399999999999999911 ) ;
#249 = EDGE_LOOP ( 'NONE', ( #301, #34 ) ) ;
#250 = EDGE_CURVE ( 'NONE', #277, #202, #142, .T. ) ;
#251 = DIRECTION ( 'NONE',  ( 0.0000000000000000000, 1.000000000000000000, 0.0000000000000000000 ) ) ;
#252 = AXIS2_PLACEMENT_3D ( 'NONE', #104, #212, #66 ) ;
#253 = APPLICATION_CONTEXT ( 'configuration controlled 3d designs of mechanical parts and assemblies' ) ;
#254 = FACE_OUTER_BOUND ( 'NONE', #91, .T. ) ;
#255 = ORIENTED_EDGE ( 'NONE', *, *, #240, .T. ) ;
#256 = VERTEX_POINT ( 'NONE', #306 ) ;
#257 = DIRECTION ( 'NONE',  ( -5.502656983963553279E-31, -1.000000000000000000, -1.548860246407869746E-16 ) ) ;
#258 = AXIS2_PLACEMENT_3D ( 'NONE', #231, #332, #130 ) ;
#259 = PLANE ( 'NONE',  #173 ) ;
#260 = DIRECTION ( 'NONE',  ( 0.0000000000000000000, 1.000000000000000000, 0.0000000000000000000 ) ) ;
#261 = ORIENTED_EDGE ( 'NONE', *, *, #138, .F. ) ;
#262 = MANIFOLD_SOLID_BREP ( 'Corps-Déplacer/Copier1[1]', #297 ) ;
#263 = CONICAL_SURFACE ( 'NONE', #182, 1.399999999999994360, 1.029744258676649649 ) ;
#264 = DIRECTION ( 'NONE',  ( 3.491481338843133355E-15, -1.224646799147353207E-16, 1.000000000000000000 ) ) ;
#265 = DATE_AND_TIME ( #217, #211 ) ;
#266 = LINE ( 'NONE', #108, #15 ) ;
#267 = COORDINATED_UNIVERSAL_TIME_OFFSET ( 1, 0, .AHEAD. ) ;
#268 = FACE_OUTER_BOUND ( 'NONE', #225, .T. ) ;
#269 = CIRCLE ( 'NONE', #258, 1.399999999999995914 ) ;
#270 = AXIS2_PLACEMENT_3D ( 'NONE', #68, #44, #251 ) ;
#271 = DIRECTION ( 'NONE',  ( -3.491481338843133355E-15, 1.224646799147353207E-16, -1.000000000000000000 ) ) ;
#272 = PERSON_AND_ORGANIZATION ( #73, #86 ) ;
#273 = DIRECTION ( 'NONE',  ( -3.491481338843133355E-15, 1.224646799147353207E-16, -1.000000000000000000 ) ) ;
#274 = VERTEX_POINT ( 'NONE', #242 ) ;
#275 = AXIS2_PLACEMENT_3D ( 'NONE', #304, #69, #65 ) ;
#276 = EDGE_CURVE ( 'NONE', #110, #274, #243, .T. ) ;
#277 = VERTEX_POINT ( 'NONE', #129 ) ;
#278 = EDGE_LOOP ( 'NONE', ( #328, #220 ) ) ;
#279 = APPROVAL ( #187, 'UNSPECIFIED' ) ;
#280 = DIRECTION ( 'NONE',  ( -3.491481338843133355E-15, 1.224646799147353207E-16, -1.000000000000000000 ) ) ;
#281 = CARTESIAN_POINT ( 'NONE',  ( 2.937051094012664520E-15, -1.030178847356125594E-16, 0.8412048666385901763 ) ) ;
#282 = ORIENTED_EDGE ( 'NONE', *, *, #276, .T. ) ;
#283 = LOCAL_TIME ( 9, 49, 31.00000000000000000, #170 ) ;
#284 = CARTESIAN_POINT ( 'NONE',  ( 2.937051094012664520E-15, -1.030178847356125594E-16, 0.8412048666385901763 ) ) ;
#285 = DIRECTION ( 'NONE',  ( 1.798245827342160317E-15, -0.8571673007021098911, 0.5150380749100582634 ) ) ;
#286 = FACE_OUTER_BOUND ( 'NONE', #294, .T. ) ;
#287 = PERSON_AND_ORGANIZATION ( #73, #86 ) ;
#288 = DIRECTION ( 'NONE',  ( -3.491481338843133355E-15, 1.224646799147353207E-16, -1.000000000000000000 ) ) ;
#289 = DIRECTION ( 'NONE',  ( 0.0000000000000000000, 0.0000000000000000000, 1.000000000000000000 ) ) ;
#290 = CALENDAR_DATE ( 2021, 3, 9 ) ;
#291 = EDGE_CURVE ( 'NONE', #64, #96, #41, .T. ) ;
#292 = DIRECTION ( 'NONE',  ( 1.903218546456022717E-15, 0.8571673007021097801, 0.5150380749100585964 ) ) ;
#293 = APPROVAL_DATE_TIME ( #111, #190 ) ;
#294 = EDGE_LOOP ( 'NONE', ( #161, #196, #154, #179 ) ) ;
#295 = EDGE_CURVE ( 'NONE', #110, #331, #48, .T. ) ;
#296 = ORIENTED_EDGE ( 'NONE', *, *, #138, .T. ) ;
#297 = CLOSED_SHELL ( 'NONE', ( #157, #323, #234, #43, #184, #330 ) ) ;
#298 = CC_DESIGN_APPROVAL ( #279, ( #16 ) ) ;
#299 = CYLINDRICAL_SURFACE ( 'NONE', #326, 1.399999999999998135 ) ;
#300 = EDGE_CURVE ( 'NONE', #88, #229, #63, .T. ) ;
#301 = ORIENTED_EDGE ( 'NONE', *, *, #307, .F. ) ;
#302 = CIRCLE ( 'NONE', #37, 1.399999999999999911 ) ;
#303 = APPROVAL_PERSON_ORGANIZATION ( #103, #279, #208 ) ;
#304 = CARTESIAN_POINT ( 'NONE',  ( 0.0000000000000000000, 0.0000000000000000000, 0.0000000000000000000 ) ) ;
#305 = ORIENTED_EDGE ( 'NONE', *, *, #295, .F. ) ;
#306 = CARTESIAN_POINT ( 'NONE',  ( 2.258886413194573730E-14, -1.399999999999997469, 12.00000000000000000 ) ) ;
#307 = EDGE_CURVE ( 'NONE', #64, #256, #236, .T. ) ;
#308 = CARTESIAN_POINT ( 'NONE',  ( 1.606081415867841091E-13, 8.248678804640133367E-33, 46.00000000000000000 ) ) ;
#309 = LINE ( 'NONE', #42, #221 ) ;
#310 = AXIS2_PLACEMENT_3D ( 'NONE', #245, #186, #316 ) ;
#311 = DIRECTION ( 'NONE',  ( 0.0000000000000000000, 1.000000000000000000, 0.0000000000000000000 ) ) ;
#312 = PERSON_AND_ORGANIZATION ( #73, #86 ) ;
#313 = AXIS2_PLACEMENT_3D ( 'NONE', #79, #105, #132 ) ;
#314 = CARTESIAN_POINT ( 'NONE',  ( 1.607428527346903405E-13, -1.100000000000005640, 46.00000000000000000 ) ) ;
#315 = CARTESIAN_POINT ( 'NONE',  ( 1.606081415867841091E-13, -5.633375276077824704E-15, 46.00000000000000000 ) ) ;
#316 = DIRECTION ( 'NONE',  ( 0.0000000000000000000, 1.000000000000000000, 0.0000000000000000000 ) ) ;
#317 = PERSON_AND_ORGANIZATION_ROLE ( 'design_supplier' ) ;
#318 = DIRECTION ( 'NONE',  ( -5.502656983963553279E-31, -1.000000000000000000, -1.548860246407869746E-16 ) ) ;
#319 = APPROVAL_STATUS ( 'not_yet_approved' ) ;
#320 = APPLICATION_CONTEXT ( 'configuration controlled 3d designs of mechanical parts and assemblies' ) ;
#321 = LOCAL_TIME ( 9, 49, 31.00000000000000000, #109 ) ;
#322 = PERSON_AND_ORGANIZATION ( #73, #86 ) ;
#323 = ADVANCED_FACE ( 'NONE', ( #147 ), #158, .T. ) ;
#324 = ORIENTED_EDGE ( 'NONE', *, *, #250, .T. ) ;
#325 = CARTESIAN_POINT ( 'NONE',  ( 2.937051094012663731E-15, -1.399999999999994360, 0.8412048666385900653 ) ) ;
#326 = AXIS2_PLACEMENT_3D ( 'NONE', #72, #151, #18 ) ;
#327 = ORIENTED_EDGE ( 'NONE', *, *, #24, .T. ) ;
#328 = ORIENTED_EDGE ( 'NONE', *, *, #114, .T. ) ;
#329 = AXIS2_PLACEMENT_3D ( 'NONE', #55, #288, #56 ) ;
#330 = ADVANCED_FACE ( 'NONE', ( #254 ), #259, .F. ) ;
#331 = VERTEX_POINT ( 'NONE', #21 ) ;
#332 = DIRECTION ( 'NONE',  ( -3.491481338843133355E-15, 1.224646799147353207E-16, -1.000000000000000000 ) ) ;
#333 = CARTESIAN_POINT ( 'NONE',  ( 3.108501645893293885E-15, 1.399999999999994360, 0.8412048666385903983 ) ) ;
#334 = VECTOR ( 'NONE', #136, 1000.000000000000000 ) ;
#335 = APPROVAL_PERSON_ORGANIZATION ( #312, #87, #78 ) ;
#336 = CARTESIAN_POINT ( 'NONE',  ( 1.606081415867841091E-13, -5.633375276077824704E-15, 46.00000000000000000 ) ) ;
#337 = CC_DESIGN_PERSON_AND_ORGANIZATION_ASSIGNMENT ( #135, #89, ( #139 ) ) ;
ENDSEC;
END-ISO-10303-21;
