ISO-10303-21;
HEADER;
FILE_DESCRIPTION (( 'STEP AP203' ),
    '1' );
FILE_NAME ('54537.step',
    '2021-09-03T07:49:28',
    ( '' ),
    ( '' ),
    'SwSTEP 2.0',
    'SolidWorks 2019',
    '' );
FILE_SCHEMA (( 'CONFIG_CONTROL_DESIGN' ));
ENDSEC;

DATA;
#1 = DIRECTION ( 'NONE',  ( -3.491481338843133355E-15, 1.224646799147353207E-16, -1.000000000000000000 ) ) ;
#2 = LINE ( 'NONE', #319, #286 ) ;
#3 = EDGE_CURVE ( 'NONE', #186, #38, #149, .T. ) ;
#4 = DIRECTION ( 'NONE',  ( -3.491481338843133355E-15, 1.224646799147353207E-16, -1.000000000000000000 ) ) ;
#5 = DIRECTION ( 'NONE',  ( 0.0000000000000000000, 1.000000000000000000, 0.0000000000000000000 ) ) ;
#6 = VECTOR ( 'NONE', #299, 1000.000000000000114 ) ;
#7 = DIRECTION ( 'NONE',  ( -3.491481338843133355E-15, 1.224646799147353207E-16, -1.000000000000000000 ) ) ;
#8 = APPROVAL_DATE_TIME ( #273, #17 ) ;
#9 = DIRECTION ( 'NONE',  ( -3.491481338843133355E-15, 1.224646799147353207E-16, -1.000000000000000000 ) ) ;
#10 = CC_DESIGN_DATE_AND_TIME_ASSIGNMENT ( #164, #144, ( #196 ) ) ;
#11 = COORDINATED_UNIVERSAL_TIME_OFFSET ( 1, 0, .AHEAD. ) ;
#12 = DATE_AND_TIME ( #300, #161 ) ;
#13 = CIRCLE ( 'NONE', #229, 1.374999999999994671 ) ;
#14 = EDGE_CURVE ( 'NONE', #331, #25, #85, .T. ) ;
#15 = CONICAL_SURFACE ( 'NONE', #279, 1.374999999999994671, 1.029744258676649649 ) ;
#16 = ORIENTED_EDGE ( 'NONE', *, *, #119, .F. ) ;
#17 = APPROVAL ( #169, 'UNSPECIFIED' ) ;
#18 = CARTESIAN_POINT ( 'NONE',  ( 3.052992687930913933E-15, 1.374999999999994671, 0.8261833511629014248 ) ) ;
#19 = CARTESIAN_POINT ( 'NONE',  ( 3.052992687930913933E-15, 1.374999999999994671, 0.8261833511629014248 ) ) ;
#20 = AXIS2_PLACEMENT_3D ( 'NONE', #231, #308, #71 ) ;
#21 = EDGE_CURVE ( 'NONE', #73, #124, #260, .T. ) ;
#22 = ADVANCED_BREP_SHAPE_REPRESENTATION ( '54537', ( #39, #147, #42 ), #60 ) ;
#23 = ORIENTED_EDGE ( 'NONE', *, *, #86, .F. ) ;
#24 = FACE_OUTER_BOUND ( 'NONE', #54, .T. ) ;
#25 = VERTEX_POINT ( 'NONE', #97 ) ;
#26 = FACE_OUTER_BOUND ( 'NONE', #180, .T. ) ;
#27 = DIRECTION ( 'NONE',  ( -4.275831445896958607E-31, -1.000000000000000000, -1.224646799147353207E-16 ) ) ;
#28 = CIRCLE ( 'NONE', #226, 1.374999999999996225 ) ;
#29 = APPROVAL_PERSON_ORGANIZATION ( #114, #179, #116 ) ;
#30 = PLANE ( 'NONE',  #329 ) ;
#31 = APPROVAL ( #249, 'UNSPECIFIED' ) ;
#32 = DIRECTION ( 'NONE',  ( -3.491481338843133355E-15, 1.224646799147353207E-16, -1.000000000000000000 ) ) ;
#33 = DATE_AND_TIME ( #218, #154 ) ;
#34 = CARTESIAN_POINT ( 'NONE',  ( 4.189777606611760026E-14, -1.469576158976823947E-15, 12.00000000000000000 ) ) ;
#35 = DIRECTION ( 'NONE',  ( -3.491481338843133355E-15, 1.224646799147353207E-16, -1.000000000000000000 ) ) ;
#36 = APPROVAL_STATUS ( 'not_yet_approved' ) ;
#37 = PERSON_AND_ORGANIZATION ( #82, #173 ) ;
#38 = VERTEX_POINT ( 'NONE', #19 ) ;
#39 = MANIFOLD_SOLID_BREP ( 'Corps-Déplacer/Copier1[1]', #318 ) ;
#40 = PERSON_AND_ORGANIZATION ( #82, #173 ) ;
#41 = AXIS2_PLACEMENT_3D ( 'NONE', #185, #235, #289 ) ;
#42 = AXIS2_PLACEMENT_3D ( 'NONE', #128, #240, #132 ) ;
#43 = EDGE_CURVE ( 'NONE', #181, #288, #219, .T. ) ;
#44 = AXIS2_PLACEMENT_3D ( 'NONE', #290, #35, #140 ) ;
#45 = CIRCLE ( 'NONE', #192, 1.075000000000000400 ) ;
#46 = EDGE_LOOP ( 'NONE', ( #201, #334 ) ) ;
#47 = EDGE_LOOP ( 'NONE', ( #98, #309, #118 ) ) ;
#48 = ORIENTED_EDGE ( 'NONE', *, *, #171, .F. ) ;
#49 = CYLINDRICAL_SURFACE ( 'NONE', #312, 1.374999999999995559 ) ;
#50 = VERTEX_POINT ( 'NONE', #246 ) ;
#51 = CIRCLE ( 'NONE', #145, 1.374999999999996225 ) ;
#52 = PRODUCT_DEFINITION_FORMATION_WITH_SPECIFIED_SOURCE ( 'ANY', '', #126, .NOT_KNOWN. ) ;
#53 = DIRECTION ( 'NONE',  ( -5.602705292762889672E-31, -1.000000000000000000, -1.577021341797103477E-16 ) ) ;
#54 = EDGE_LOOP ( 'NONE', ( #183, #199 ) ) ;
#55 = CARTESIAN_POINT ( 'NONE',  ( 1.606081415867841091E-13, -5.633375276077824704E-15, 46.00000000000000000 ) ) ;
#56 = CARTESIAN_POINT ( 'NONE',  ( 1.008976255605071266E-13, -1.374999999999997780, 12.00000000000000000 ) ) ;
#57 = PRODUCT_RELATED_PRODUCT_CATEGORY ( 'detail', '', ( #126 ) ) ;
#58 = DIRECTION ( 'NONE',  ( -3.491481338843133355E-15, 1.224646799147353207E-16, -1.000000000000000000 ) ) ;
#59 = AXIS2_PLACEMENT_3D ( 'NONE', #62, #134, #174 ) ;
#60 =( GEOMETRIC_REPRESENTATION_CONTEXT ( 3 ) GLOBAL_UNCERTAINTY_ASSIGNED_CONTEXT ( ( #61 ) ) GLOBAL_UNIT_ASSIGNED_CONTEXT ( ( #123, #335, #106 ) ) REPRESENTATION_CONTEXT ( 'NONE', 'WORKASPACE' ) );
#61 = UNCERTAINTY_MEASURE_WITH_UNIT (LENGTH_MEASURE( 1.000000000000000082E-05 ), #123, 'distance_accuracy_value', 'NONE');
#62 = CARTESIAN_POINT ( 'NONE',  ( 0.0000000000000000000, 0.0000000000000000000, 0.0000000000000000000 ) ) ;
#63 = PERSON_AND_ORGANIZATION ( #82, #173 ) ;
#64 = DIRECTION ( 'NONE',  ( 0.0000000000000000000, 1.000000000000000000, 0.0000000000000000000 ) ) ;
#65 = CARTESIAN_POINT ( 'NONE',  ( 4.189777606611760026E-14, -1.469576158976823947E-15, 12.00000000000000000 ) ) ;
#66 = PERSON_AND_ORGANIZATION ( #82, #173 ) ;
#67 = PERSON_AND_ORGANIZATION ( #82, #173 ) ;
#68 = COORDINATED_UNIVERSAL_TIME_OFFSET ( 1, 0, .AHEAD. ) ;
#69 = LOCAL_TIME ( 9, 49, 28.00000000000000000, #170 ) ;
#70 = CC_DESIGN_APPROVAL ( #179, ( #196 ) ) ;
#71 = DIRECTION ( 'NONE',  ( 0.0000000000000000000, 1.000000000000000000, 0.0000000000000000000 ) ) ;
#72 = EDGE_LOOP ( 'NONE', ( #48, #102, #234, #100 ) ) ;
#73 = VERTEX_POINT ( 'NONE', #217 ) ;
#74 = DIRECTION ( 'NONE',  ( -3.491481338843133355E-15, 1.224646799147353207E-16, -1.000000000000000000 ) ) ;
#75 = EDGE_LOOP ( 'NONE', ( #253, #256, #122, #278 ) ) ;
#76 = DIRECTION ( 'NONE',  ( -3.491481338843133355E-15, 1.224646799147353207E-16, -1.000000000000000000 ) ) ;
#77 = ORIENTED_EDGE ( 'NONE', *, *, #251, .F. ) ;
#78 = CIRCLE ( 'NONE', #202, 1.374999999999994671 ) ;
#79 = EDGE_CURVE ( 'NONE', #262, #73, #243, .T. ) ;
#80 = DIRECTION ( 'NONE',  ( -3.491481338843133355E-15, 1.224646799147353207E-16, -1.000000000000000000 ) ) ;
#81 = FACE_OUTER_BOUND ( 'NONE', #46, .T. ) ;
#82 = PERSON ( 'UNSPECIFIED', 'UNSPECIFIED', 'UNSPECIFIED', ('UNSPECIFIED'), ('UNSPECIFIED'), ('UNSPECIFIED') ) ;
#83 = DIRECTION ( 'NONE',  ( 4.275831445896958607E-31, 1.000000000000000000, 1.224646799147353207E-16 ) ) ;
#84 = FACE_OUTER_BOUND ( 'NONE', #72, .T. ) ;
#85 = CIRCLE ( 'NONE', #20, 1.374999999999996225 ) ;
#86 = EDGE_CURVE ( 'NONE', #73, #181, #220, .T. ) ;
#87 = DIRECTION ( 'NONE',  ( -3.491481338843133355E-15, 1.224646799147353207E-16, -1.000000000000000000 ) ) ;
#88 = CARTESIAN_POINT ( 'NONE',  ( 1.683889348827602617E-16, -1.374999999999998224, -1.683889348827614204E-16 ) ) ;
#89 = PERSON_AND_ORGANIZATION_ROLE ( 'creator' ) ;
#90 = PERSON_AND_ORGANIZATION_ROLE ( 'design_supplier' ) ;
#91 = EDGE_CURVE ( 'NONE', #25, #38, #2, .T. ) ;
#92 = CONICAL_SURFACE ( 'NONE', #261, 1.075000000000000400, 0.7853981633974453924 ) ;
#93 = ORIENTED_EDGE ( 'NONE', *, *, #21, .F. ) ;
#94 = CIRCLE ( 'NONE', #137, 1.375000000000000444 ) ;
#95 = ORIENTED_EDGE ( 'NONE', *, *, #148, .T. ) ;
#96 = VECTOR ( 'NONE', #87, 1000.000000000000000 ) ;
#97 = CARTESIAN_POINT ( 'NONE',  ( 4.189777606611760026E-14, 1.374999999999994671, 12.00000000000000000 ) ) ;
#98 = ORIENTED_EDGE ( 'NONE', *, *, #3, .F. ) ;
#99 = PLANE ( 'NONE',  #117 ) ;
#100 = ORIENTED_EDGE ( 'NONE', *, *, #108, .F. ) ;
#101 = FACE_OUTER_BOUND ( 'NONE', #282, .T. ) ;
#102 = ORIENTED_EDGE ( 'NONE', *, *, #133, .T. ) ;
#103 = CLOSED_SHELL ( 'NONE', ( #205, #305, #139, #295, #306 ) ) ;
#104 = CARTESIAN_POINT ( 'NONE',  ( 2.255957884446561917E-14, -1.374999999999997780, 12.00000000000000000 ) ) ;
#105 = DIRECTION ( 'NONE',  ( -3.491481338843133355E-15, 1.224646799147353207E-16, -1.000000000000000000 ) ) ;
#106 =( NAMED_UNIT ( * ) SI_UNIT ( $, .STERADIAN. ) SOLID_ANGLE_UNIT ( ) );
#107 = DIRECTION ( 'NONE',  ( 4.275831445896958607E-31, 1.000000000000000000, 1.224646799147352961E-16 ) ) ;
#108 = EDGE_CURVE ( 'NONE', #288, #181, #51, .T. ) ;
#109 = DIRECTION ( 'NONE',  ( -3.491481338843133355E-15, 1.224646799147353207E-16, -1.000000000000000000 ) ) ;
#110 = LOCAL_TIME ( 9, 49, 28.00000000000000000, #320 ) ;
#111 = DIRECTION ( 'NONE',  ( 5.602705292762889672E-31, 1.000000000000000000, 1.577021341797103477E-16 ) ) ;
#112 = APPLICATION_CONTEXT ( 'configuration controlled 3d designs of mechanical parts and assemblies' ) ;
#113 = FACE_OUTER_BOUND ( 'NONE', #239, .T. ) ;
#114 = PERSON_AND_ORGANIZATION ( #82, #173 ) ;
#115 = LINE ( 'NONE', #225, #172 ) ;
#116 = APPROVAL_ROLE ( '' ) ;
#117 = AXIS2_PLACEMENT_3D ( 'NONE', #291, #212, #207 ) ;
#118 = ORIENTED_EDGE ( 'NONE', *, *, #213, .T. ) ;
#119 = EDGE_CURVE ( 'NONE', #336, #262, #325, .T. ) ;
#120 = DIRECTION ( 'NONE',  ( 1.903218546456022717E-15, 0.8571673007021097801, 0.5150380749100585964 ) ) ;
#121 = AXIS2_PLACEMENT_3D ( 'NONE', #317, #136, #248 ) ;
#122 = ORIENTED_EDGE ( 'NONE', *, *, #79, .T. ) ;
#123 =( LENGTH_UNIT ( ) NAMED_UNIT ( * ) SI_UNIT ( .MILLI., .METRE. ) );
#124 = VERTEX_POINT ( 'NONE', #268 ) ;
#125 = CARTESIAN_POINT ( 'NONE',  ( 2.884603753048152316E-15, -1.374999999999994671, 0.8261833511629009807 ) ) ;
#126 = PRODUCT ( '54537', '54537', '', ( #323 ) ) ;
#127 = ORIENTED_EDGE ( 'NONE', *, *, #146, .F. ) ;
#128 = CARTESIAN_POINT ( 'NONE',  ( 0.0000000000000000000, 0.0000000000000000000, 0.0000000000000000000 ) ) ;
#129 = DIRECTION ( 'NONE',  ( -3.491481338843133355E-15, 1.224646799147353207E-16, -1.000000000000000000 ) ) ;
#130 = CARTESIAN_POINT ( 'NONE',  ( 0.0000000000000000000, 0.0000000000000000000, 0.0000000000000000000 ) ) ;
#131 = CARTESIAN_POINT ( 'NONE',  ( 1.606081415867841091E-13, 8.061208831807403903E-33, 46.00000000000000000 ) ) ;
#132 = DIRECTION ( 'NONE',  ( 1.000000000000000000, 0.0000000000000000000, 0.0000000000000000000 ) ) ;
#133 = EDGE_CURVE ( 'NONE', #124, #73, #94, .T. ) ;
#134 = DIRECTION ( 'NONE',  ( -3.491481338843133355E-15, 1.224646799147353207E-16, -1.000000000000000000 ) ) ;
#135 = DATE_TIME_ROLE ( 'classification_date' ) ;
#136 = DIRECTION ( 'NONE',  ( 3.491481338843133355E-15, -1.224646799147353207E-16, 1.000000000000000000 ) ) ;
#137 = AXIS2_PLACEMENT_3D ( 'NONE', #270, #109, #64 ) ;
#138 = COORDINATED_UNIVERSAL_TIME_OFFSET ( 1, 0, .AHEAD. ) ;
#139 = ADVANCED_FACE ( 'NONE', ( #165 ), #177, .T. ) ;
#140 = DIRECTION ( 'NONE',  ( 4.275831445896959482E-31, 1.000000000000000000, 1.224646799147353207E-16 ) ) ;
#141 = APPROVAL_DATE_TIME ( #33, #31 ) ;
#142 = CC_DESIGN_PERSON_AND_ORGANIZATION_ASSIGNMENT ( #37, #198, ( #126 ) ) ;
#143 = DATE_AND_TIME ( #297, #280 ) ;
#144 = DATE_TIME_ROLE ( 'creation_date' ) ;
#145 = AXIS2_PLACEMENT_3D ( 'NONE', #271, #58, #193 ) ;
#146 = EDGE_CURVE ( 'NONE', #38, #50, #13, .T. ) ;
#147 = MANIFOLD_SOLID_BREP ( 'Corps-Déplacer/Copier1[2]', #103 ) ;
#148 = EDGE_CURVE ( 'NONE', #336, #124, #222, .T. ) ;
#149 = LINE ( 'NONE', #18, #197 ) ;
#150 = ORIENTED_EDGE ( 'NONE', *, *, #213, .F. ) ;
#151 = PRODUCT_DEFINITION_SHAPE ( 'NONE', 'NONE',  #196 ) ;
#152 = ORIENTED_EDGE ( 'NONE', *, *, #79, .F. ) ;
#153 = PLANE ( 'NONE',  #210 ) ;
#154 = LOCAL_TIME ( 9, 49, 28.00000000000000000, #68 ) ;
#155 = ORIENTED_EDGE ( 'NONE', *, *, #171, .T. ) ;
#156 = ORIENTED_EDGE ( 'NONE', *, *, #251, .T. ) ;
#157 = CARTESIAN_POINT ( 'NONE',  ( 1.606081415867841091E-13, 1.074999999999994849, 46.00000000000000000 ) ) ;
#158 = DIRECTION ( 'NONE',  ( 5.602705292762889672E-31, 1.000000000000000000, 1.577021341797103477E-16 ) ) ;
#159 = DIRECTION ( 'NONE',  ( 1.798245827342160317E-15, -0.8571673007021098911, 0.5150380749100582634 ) ) ;
#160 = LINE ( 'NONE', #88, #233 ) ;
#161 = LOCAL_TIME ( 9, 49, 28.00000000000000000, #138 ) ;
#162 = CARTESIAN_POINT ( 'NONE',  ( 4.189777606611760026E-14, 1.031084850580022042E-32, 12.00000000000000000 ) ) ;
#163 = DIRECTION ( 'NONE',  ( 0.0000000000000000000, 1.000000000000000000, 0.0000000000000000000 ) ) ;
#164 = DATE_AND_TIME ( #221, #110 ) ;
#165 = FACE_OUTER_BOUND ( 'NONE', #47, .T. ) ;
#166 = CARTESIAN_POINT ( 'NONE',  ( 5.879268238108310421E-31, 1.374999999999998224, 1.683889348827608287E-16 ) ) ;
#167 = VECTOR ( 'NONE', #159, 1000.000000000000000 ) ;
#168 = APPROVAL_ROLE ( '' ) ;
#169 = APPROVAL_STATUS ( 'not_yet_approved' ) ;
#170 = COORDINATED_UNIVERSAL_TIME_OFFSET ( 1, 0, .AHEAD. ) ;
#171 = EDGE_CURVE ( 'NONE', #124, #288, #160, .T. ) ;
#172 = VECTOR ( 'NONE', #263, 1000.000000000000000 ) ;
#173 = ORGANIZATION ( 'UNSPECIFIED', 'UNSPECIFIED', '' ) ;
#174 = DIRECTION ( 'NONE',  ( 4.275831445896958607E-31, 1.000000000000000000, 1.224646799147352961E-16 ) ) ;
#175 = ADVANCED_FACE ( 'NONE', ( #195 ), #30, .F. ) ;
#176 = EDGE_LOOP ( 'NONE', ( #206, #95, #93, #152 ) ) ;
#177 = CONICAL_SURFACE ( 'NONE', #121, 1.374999999999994671, 1.029744258676649649 ) ;
#178 = APPROVAL_PERSON_ORGANIZATION ( #227, #31, #224 ) ;
#179 = APPROVAL ( #36, 'UNSPECIFIED' ) ;
#180 = EDGE_LOOP ( 'NONE', ( #230, #156, #127, #203 ) ) ;
#181 = VERTEX_POINT ( 'NONE', #265 ) ;
#182 = CARTESIAN_POINT ( 'NONE',  ( 1.606081415867841091E-13, -5.633375276077824704E-15, 46.00000000000000000 ) ) ;
#183 = ORIENTED_EDGE ( 'NONE', *, *, #184, .F. ) ;
#184 = EDGE_CURVE ( 'NONE', #25, #331, #28, .T. ) ;
#185 = CARTESIAN_POINT ( 'NONE',  ( 1.606081415867841091E-13, -5.633375276077824704E-15, 46.00000000000000000 ) ) ;
#186 = VERTEX_POINT ( 'NONE', #189 ) ;
#187 = APPLICATION_CONTEXT ( 'configuration controlled 3d designs of mechanical parts and assemblies' ) ;
#188 = CYLINDRICAL_SURFACE ( 'NONE', #44, 1.374999999999995559 ) ;
#189 = CARTESIAN_POINT ( 'NONE',  ( 0.0000000000000000000, 0.0000000000000000000, 0.0000000000000000000 ) ) ;
#190 = CARTESIAN_POINT ( 'NONE',  ( 1.607397911176924664E-13, -1.075000000000006173, 46.00000000000000000 ) ) ;
#191 = CONICAL_SURFACE ( 'NONE', #41, 1.075000000000000400, 0.7853981633974453924 ) ;
#192 = AXIS2_PLACEMENT_3D ( 'NONE', #182, #204, #215 ) ;
#193 = DIRECTION ( 'NONE',  ( 0.0000000000000000000, 1.000000000000000000, 0.0000000000000000000 ) ) ;
#194 = CALENDAR_DATE ( 2021, 3, 9 ) ;
#195 = FACE_OUTER_BOUND ( 'NONE', #284, .T. ) ;
#196 = PRODUCT_DEFINITION ( 'UNKNOWN', '', #52, #223 ) ;
#197 = VECTOR ( 'NONE', #120, 999.9999999999998863 ) ;
#198 = PERSON_AND_ORGANIZATION_ROLE ( 'design_owner' ) ;
#199 = ORIENTED_EDGE ( 'NONE', *, *, #14, .F. ) ;
#200 = CC_DESIGN_PERSON_AND_ORGANIZATION_ASSIGNMENT ( #67, #89, ( #196 ) ) ;
#201 = ORIENTED_EDGE ( 'NONE', *, *, #43, .T. ) ;
#202 = AXIS2_PLACEMENT_3D ( 'NONE', #250, #9, #158 ) ;
#203 = ORIENTED_EDGE ( 'NONE', *, *, #91, .F. ) ;
#204 = DIRECTION ( 'NONE',  ( -3.491481338843133355E-15, 1.224646799147353207E-16, -1.000000000000000000 ) ) ;
#205 = ADVANCED_FACE ( 'NONE', ( #26 ), #188, .T. ) ;
#206 = ORIENTED_EDGE ( 'NONE', *, *, #330, .T. ) ;
#207 = DIRECTION ( 'NONE',  ( -4.275831445896958607E-31, -1.000000000000000000, -1.224646799147353207E-16 ) ) ;
#208 = DIRECTION ( 'NONE',  ( 0.0000000000000000000, 1.000000000000000000, 0.0000000000000000000 ) ) ;
#209 = DIRECTION ( 'NONE',  ( 0.0000000000000000000, 1.000000000000000000, 0.0000000000000000000 ) ) ;
#210 = AXIS2_PLACEMENT_3D ( 'NONE', #162, #266, #27 ) ;
#211 = ORIENTED_EDGE ( 'NONE', *, *, #301, .F. ) ;
#212 = DIRECTION ( 'NONE',  ( 3.491481338843133355E-15, -1.224646799147353207E-16, 1.000000000000000000 ) ) ;
#213 = EDGE_CURVE ( 'NONE', #50, #38, #78, .T. ) ;
#214 = DIRECTION ( 'NONE',  ( -3.491481338843133355E-15, 1.224646799147353207E-16, -1.000000000000000000 ) ) ;
#215 = DIRECTION ( 'NONE',  ( 0.0000000000000000000, 1.000000000000000000, 0.0000000000000000000 ) ) ;
#216 = CC_DESIGN_PERSON_AND_ORGANIZATION_ASSIGNMENT ( #66, #90, ( #52 ) ) ;
#217 = CARTESIAN_POINT ( 'NONE',  ( 1.595606971851311880E-13, 1.374999999999994671, 45.69999999999999574 ) ) ;
#218 = CALENDAR_DATE ( 2021, 3, 9 ) ;
#219 = CIRCLE ( 'NONE', #254, 1.374999999999996225 ) ;
#220 = LINE ( 'NONE', #166, #96 ) ;
#221 = CALENDAR_DATE ( 2021, 3, 9 ) ;
#222 = LINE ( 'NONE', #190, #241 ) ;
#223 = DESIGN_CONTEXT ( 'detailed design', #112, 'design' ) ;
#224 = APPROVAL_ROLE ( '' ) ;
#225 = CARTESIAN_POINT ( 'NONE',  ( 1.683889348827599412E-16, -1.374999999999995559, -1.683889348827610999E-16 ) ) ;
#226 = AXIS2_PLACEMENT_3D ( 'NONE', #65, #32, #267 ) ;
#227 = PERSON_AND_ORGANIZATION ( #82, #173 ) ;
#228 = CC_DESIGN_DATE_AND_TIME_ASSIGNMENT ( #12, #135, ( #287 ) ) ;
#229 = AXIS2_PLACEMENT_3D ( 'NONE', #315, #7, #111 ) ;
#230 = ORIENTED_EDGE ( 'NONE', *, *, #184, .T. ) ;
#231 = CARTESIAN_POINT ( 'NONE',  ( 4.189777606611760026E-14, -1.469576158976823947E-15, 12.00000000000000000 ) ) ;
#232 = ADVANCED_FACE ( 'NONE', ( #113 ), #292, .T. ) ;
#233 = VECTOR ( 'NONE', #313, 1000.000000000000000 ) ;
#234 = ORIENTED_EDGE ( 'NONE', *, *, #86, .T. ) ;
#235 = DIRECTION ( 'NONE',  ( -3.491481338843133355E-15, 1.224646799147353207E-16, -1.000000000000000000 ) ) ;
#236 = ORIENTED_EDGE ( 'NONE', *, *, #91, .T. ) ;
#237 = FACE_OUTER_BOUND ( 'NONE', #75, .T. ) ;
#238 = ADVANCED_FACE ( 'NONE', ( #84 ), #296, .T. ) ;
#239 = EDGE_LOOP ( 'NONE', ( #307, #155, #264, #23 ) ) ;
#240 = DIRECTION ( 'NONE',  ( 0.0000000000000000000, 0.0000000000000000000, 1.000000000000000000 ) ) ;
#241 = VECTOR ( 'NONE', #321, 1000.000000000000000 ) ;
#242 = CC_DESIGN_APPROVAL ( #31, ( #52 ) ) ;
#243 = LINE ( 'NONE', #298, #6 ) ;
#244 = CARTESIAN_POINT ( 'NONE',  ( 0.0000000000000000000, 0.0000000000000000000, 0.0000000000000000000 ) ) ;
#245 = CARTESIAN_POINT ( 'NONE',  ( 2.884603753048152710E-15, -1.011782796510480697E-16, 0.8261833511629012028 ) ) ;
#246 = CARTESIAN_POINT ( 'NONE',  ( 2.884603753048152316E-15, -1.374999999999994671, 0.8261833511629009807 ) ) ;
#247 = SHAPE_DEFINITION_REPRESENTATION ( #151, #22 ) ;
#248 = DIRECTION ( 'NONE',  ( -5.602705292762889672E-31, -1.000000000000000000, -1.577021341797103477E-16 ) ) ;
#249 = APPROVAL_STATUS ( 'not_yet_approved' ) ;
#250 = CARTESIAN_POINT ( 'NONE',  ( 2.884603753048152710E-15, -1.011782796510480697E-16, 0.8261833511629012028 ) ) ;
#251 = EDGE_CURVE ( 'NONE', #331, #50, #115, .T. ) ;
#252 = SECURITY_CLASSIFICATION_LEVEL ( 'unclassified' ) ;
#253 = ORIENTED_EDGE ( 'NONE', *, *, #148, .F. ) ;
#254 = AXIS2_PLACEMENT_3D ( 'NONE', #34, #129, #5 ) ;
#255 = ORIENTED_EDGE ( 'NONE', *, *, #14, .T. ) ;
#256 = ORIENTED_EDGE ( 'NONE', *, *, #119, .T. ) ;
#257 = ADVANCED_FACE ( 'NONE', ( #81 ), #99, .F. ) ;
#258 = ORIENTED_EDGE ( 'NONE', *, *, #330, .F. ) ;
#259 = DIRECTION ( 'NONE',  ( 4.275831445896959482E-31, 1.000000000000000000, 1.224646799147353207E-16 ) ) ;
#260 = CIRCLE ( 'NONE', #302, 1.375000000000000444 ) ;
#261 = AXIS2_PLACEMENT_3D ( 'NONE', #337, #76, #209 ) ;
#262 = VERTEX_POINT ( 'NONE', #157 ) ;
#263 = DIRECTION ( 'NONE',  ( -3.491481338843133355E-15, 1.224646799147353207E-16, -1.000000000000000000 ) ) ;
#264 = ORIENTED_EDGE ( 'NONE', *, *, #43, .F. ) ;
#265 = CARTESIAN_POINT ( 'NONE',  ( 4.189777606611760026E-14, 1.374999999999994671, 12.00000000000000000 ) ) ;
#266 = DIRECTION ( 'NONE',  ( 3.491481338843133355E-15, -1.224646799147353207E-16, 1.000000000000000000 ) ) ;
#267 = DIRECTION ( 'NONE',  ( 0.0000000000000000000, 1.000000000000000000, 0.0000000000000000000 ) ) ;
#268 = CARTESIAN_POINT ( 'NONE',  ( 1.008976255605069751E-13, -1.375000000000005995, 45.69999999999999574 ) ) ;
#269 = PERSON_AND_ORGANIZATION_ROLE ( 'creator' ) ;
#270 = CARTESIAN_POINT ( 'NONE',  ( 1.595606971851311880E-13, -5.596635872103403844E-15, 45.69999999999999574 ) ) ;
#271 = CARTESIAN_POINT ( 'NONE',  ( 4.189777606611760026E-14, -1.469576158976823947E-15, 12.00000000000000000 ) ) ;
#272 = ADVANCED_FACE ( 'NONE', ( #310 ), #191, .T. ) ;
#273 = DATE_AND_TIME ( #194, #69 ) ;
#274 = CC_DESIGN_PERSON_AND_ORGANIZATION_ASSIGNMENT ( #40, #269, ( #52 ) ) ;
#275 = AXIS2_PLACEMENT_3D ( 'NONE', #55, #105, #163 ) ;
#276 = CC_DESIGN_APPROVAL ( #17, ( #287 ) ) ;
#277 = CC_DESIGN_PERSON_AND_ORGANIZATION_ASSIGNMENT ( #63, #327, ( #287 ) ) ;
#278 = ORIENTED_EDGE ( 'NONE', *, *, #133, .F. ) ;
#279 = AXIS2_PLACEMENT_3D ( 'NONE', #245, #314, #53 ) ;
#280 = LOCAL_TIME ( 9, 49, 28.00000000000000000, #11 ) ;
#281 = EDGE_LOOP ( 'NONE', ( #77, #255, #236, #150 ) ) ;
#282 = EDGE_LOOP ( 'NONE', ( #211, #328, #311 ) ) ;
#283 = CARTESIAN_POINT ( 'NONE',  ( 1.602344386188531871E-13, -1.075000000000006173, 46.00000000000000000 ) ) ;
#284 = EDGE_LOOP ( 'NONE', ( #258, #16 ) ) ;
#285 = FACE_OUTER_BOUND ( 'NONE', #281, .T. ) ;
#286 = VECTOR ( 'NONE', #214, 1000.000000000000000 ) ;
#287 = SECURITY_CLASSIFICATION ( '', '', #252 ) ;
#288 = VERTEX_POINT ( 'NONE', #56 ) ;
#289 = DIRECTION ( 'NONE',  ( 0.0000000000000000000, 1.000000000000000000, 0.0000000000000000000 ) ) ;
#290 = CARTESIAN_POINT ( 'NONE',  ( 0.0000000000000000000, 0.0000000000000000000, 0.0000000000000000000 ) ) ;
#291 = CARTESIAN_POINT ( 'NONE',  ( 4.189777606611760026E-14, 1.031084850580022042E-32, 12.00000000000000000 ) ) ;
#292 = CYLINDRICAL_SURFACE ( 'NONE', #294, 1.374999999999998224 ) ;
#293 = APPLICATION_PROTOCOL_DEFINITION ( 'international standard', 'config_control_design', 1994, #187 ) ;
#294 = AXIS2_PLACEMENT_3D ( 'NONE', #244, #4, #107 ) ;
#295 = ADVANCED_FACE ( 'NONE', ( #285 ), #49, .T. ) ;
#296 = CYLINDRICAL_SURFACE ( 'NONE', #59, 1.374999999999998224 ) ;
#297 = CALENDAR_DATE ( 2021, 3, 9 ) ;
#298 = CARTESIAN_POINT ( 'NONE',  ( 1.606081415867841091E-13, 1.074999999999994849, 46.00000000000000000 ) ) ;
#299 = DIRECTION ( 'NONE',  ( -2.468850131082271655E-15, 0.7071067811865455743, -0.7071067811865493491 ) ) ;
#300 = CALENDAR_DATE ( 2021, 3, 9 ) ;
#301 = EDGE_CURVE ( 'NONE', #186, #50, #316, .T. ) ;
#302 = AXIS2_PLACEMENT_3D ( 'NONE', #332, #1, #208 ) ;
#303 = PERSON_AND_ORGANIZATION ( #82, #173 ) ;
#304 = APPLICATION_PROTOCOL_DEFINITION ( 'international standard', 'config_control_design', 1994, #112 ) ;
#305 = ADVANCED_FACE ( 'NONE', ( #101 ), #15, .T. ) ;
#306 = ADVANCED_FACE ( 'NONE', ( #24 ), #153, .T. ) ;
#307 = ORIENTED_EDGE ( 'NONE', *, *, #21, .T. ) ;
#308 = DIRECTION ( 'NONE',  ( -3.491481338843133355E-15, 1.224646799147353207E-16, -1.000000000000000000 ) ) ;
#309 = ORIENTED_EDGE ( 'NONE', *, *, #301, .T. ) ;
#310 = FACE_OUTER_BOUND ( 'NONE', #176, .T. ) ;
#311 = ORIENTED_EDGE ( 'NONE', *, *, #146, .T. ) ;
#312 = AXIS2_PLACEMENT_3D ( 'NONE', #130, #74, #259 ) ;
#313 = DIRECTION ( 'NONE',  ( -3.491481338843133355E-15, 1.224646799147353207E-16, -1.000000000000000000 ) ) ;
#314 = DIRECTION ( 'NONE',  ( 3.491481338843133355E-15, -1.224646799147353207E-16, 1.000000000000000000 ) ) ;
#315 = CARTESIAN_POINT ( 'NONE',  ( 2.884603753048152710E-15, -1.011782796510480697E-16, 0.8261833511629012028 ) ) ;
#316 = LINE ( 'NONE', #125, #167 ) ;
#317 = CARTESIAN_POINT ( 'NONE',  ( 2.884603753048152710E-15, -1.011782796510480697E-16, 0.8261833511629012028 ) ) ;
#318 = CLOSED_SHELL ( 'NONE', ( #272, #232, #257, #238, #322, #175 ) ) ;
#319 = CARTESIAN_POINT ( 'NONE',  ( 5.879268238108299911E-31, 1.374999999999995559, 1.683889348827605329E-16 ) ) ;
#320 = COORDINATED_UNIVERSAL_TIME_OFFSET ( 1, 0, .AHEAD. ) ;
#321 = DIRECTION ( 'NONE',  ( -2.382254525458723780E-15, -0.7071067811865453523, -0.7071067811865496822 ) ) ;
#322 = ADVANCED_FACE ( 'NONE', ( #237 ), #92, .T. ) ;
#323 = MECHANICAL_CONTEXT ( 'NONE', #187, 'mechanical' ) ;
#324 = APPROVAL_DATE_TIME ( #143, #179 ) ;
#325 = CIRCLE ( 'NONE', #275, 1.075000000000000400 ) ;
#326 = APPROVAL_PERSON_ORGANIZATION ( #303, #17, #168 ) ;
#327 = PERSON_AND_ORGANIZATION_ROLE ( 'classification_officer' ) ;
#328 = ORIENTED_EDGE ( 'NONE', *, *, #3, .T. ) ;
#329 = AXIS2_PLACEMENT_3D ( 'NONE', #131, #80, #83 ) ;
#330 = EDGE_CURVE ( 'NONE', #262, #336, #45, .T. ) ;
#331 = VERTEX_POINT ( 'NONE', #104 ) ;
#332 = CARTESIAN_POINT ( 'NONE',  ( 1.595606971851311880E-13, -5.596635872103403844E-15, 45.69999999999999574 ) ) ;
#333 = CC_DESIGN_SECURITY_CLASSIFICATION ( #287, ( #52 ) ) ;
#334 = ORIENTED_EDGE ( 'NONE', *, *, #108, .T. ) ;
#335 =( NAMED_UNIT ( * ) PLANE_ANGLE_UNIT ( ) SI_UNIT ( $, .RADIAN. ) );
#336 = VERTEX_POINT ( 'NONE', #283 ) ;
#337 = CARTESIAN_POINT ( 'NONE',  ( 1.606081415867841091E-13, -5.633375276077824704E-15, 46.00000000000000000 ) ) ;
ENDSEC;
END-ISO-10303-21;
