ISO-10303-21;
HEADER;
FILE_DESCRIPTION (( 'STEP AP203' ),
    '1' );
FILE_NAME ('54536.step',
    '2021-09-03T07:49:26',
    ( '' ),
    ( '' ),
    'SwSTEP 2.0',
    'SolidWorks 2019',
    '' );
FILE_SCHEMA (( 'CONFIG_CONTROL_DESIGN' ));
ENDSEC;

DATA;
#1 = CIRCLE ( 'NONE', #234, 1.324999999999999956 ) ;
#2 = CC_DESIGN_PERSON_AND_ORGANIZATION_ASSIGNMENT ( #38, #200, ( #151 ) ) ;
#3 = FACE_OUTER_BOUND ( 'NONE', #55, .T. ) ;
#4 = ORIENTED_EDGE ( 'NONE', *, *, #88, .T. ) ;
#5 = DIRECTION ( 'NONE',  ( -3.491481338843133355E-15, 1.224646799147353207E-16, -1.000000000000000000 ) ) ;
#6 = EDGE_CURVE ( 'NONE', #191, #261, #40, .T. ) ;
#7 = ORIENTED_EDGE ( 'NONE', *, *, #183, .F. ) ;
#8 = CARTESIAN_POINT ( 'NONE',  ( 1.501336975702547217E-13, -5.265981236333618470E-15, 43.00000000000000000 ) ) ;
#9 = CALENDAR_DATE ( 2021, 3, 9 ) ;
#10 = ORIENTED_EDGE ( 'NONE', *, *, #17, .T. ) ;
#11 = CARTESIAN_POINT ( 'NONE',  ( 1.490862531686017753E-13, -5.229241832359197610E-15, 42.69999999999999574 ) ) ;
#12 = DATE_AND_TIME ( #196, #41 ) ;
#13 = ORIENTED_EDGE ( 'NONE', *, *, #317, .T. ) ;
#14 = LINE ( 'NONE', #168, #165 ) ;
#15 = PERSON_AND_ORGANIZATION_ROLE ( 'creator' ) ;
#16 = APPLICATION_CONTEXT ( 'configuration controlled 3d designs of mechanical parts and assemblies' ) ;
#17 = EDGE_CURVE ( 'NONE', #217, #236, #48, .T. ) ;
#18 = CARTESIAN_POINT ( 'NONE',  ( 1.501336975702547217E-13, -5.265981236333618470E-15, 43.00000000000000000 ) ) ;
#19 = CARTESIAN_POINT ( 'NONE',  ( 1.622657008870235092E-16, -1.324999999999997957, -1.622657008870246186E-16 ) ) ;
#20 = DIRECTION ( 'NONE',  ( 4.275831445896958607E-31, 1.000000000000000000, 1.224646799147353207E-16 ) ) ;
#21 = CONICAL_SURFACE ( 'NONE', #107, 1.025000000000000133, 0.7853981633974453924 ) ;
#22 = ADVANCED_FACE ( 'NONE', ( #3 ), #52, .T. ) ;
#23 = EDGE_LOOP ( 'NONE', ( #285, #50, #26, #7 ) ) ;
#24 = ORIENTED_EDGE ( 'NONE', *, *, #306, .F. ) ;
#25 = DIRECTION ( 'NONE',  ( 0.0000000000000000000, 1.000000000000000000, 0.0000000000000000000 ) ) ;
#26 = ORIENTED_EDGE ( 'NONE', *, *, #306, .T. ) ;
#27 = DIRECTION ( 'NONE',  ( 0.0000000000000000000, 1.000000000000000000, 0.0000000000000000000 ) ) ;
#28 = EDGE_LOOP ( 'NONE', ( #158, #85, #292, #162 ) ) ;
#29 = CIRCLE ( 'NONE', #308, 1.025000000000000133 ) ;
#30 = CC_DESIGN_APPROVAL ( #44, ( #74 ) ) ;
#31 = PLANE ( 'NONE',  #287 ) ;
#32 = APPLICATION_PROTOCOL_DEFINITION ( 'international standard', 'config_control_design', 1994, #213 ) ;
#33 = EDGE_LOOP ( 'NONE', ( #244, #80, #295, #90 ) ) ;
#34 = CARTESIAN_POINT ( 'NONE',  ( 3.840629472727446691E-14, 9.935908560134758756E-33, 11.00000000000000000 ) ) ;
#35 = CALENDAR_DATE ( 2021, 3, 9 ) ;
#36 = EDGE_CURVE ( 'NONE', #156, #139, #29, .T. ) ;
#37 = DIRECTION ( 'NONE',  ( -3.491481338843133355E-15, 1.224646799147353207E-16, -1.000000000000000000 ) ) ;
#38 = PERSON_AND_ORGANIZATION ( #43, #235 ) ;
#39 = DIRECTION ( 'NONE',  ( 0.0000000000000000000, 1.000000000000000000, 0.0000000000000000000 ) ) ;
#40 = CIRCLE ( 'NONE', #283, 1.324999999999994849 ) ;
#41 = LOCAL_TIME ( 9, 49, 26.00000000000000000, #161 ) ;
#42 = DIRECTION ( 'NONE',  ( -3.491481338843133355E-15, 1.224646799147353207E-16, -1.000000000000000000 ) ) ;
#43 = PERSON ( 'UNSPECIFIED', 'UNSPECIFIED', 'UNSPECIFIED', ('UNSPECIFIED'), ('UNSPECIFIED'), ('UNSPECIFIED') ) ;
#44 = APPROVAL ( #138, 'UNSPECIFIED' ) ;
#45 = CARTESIAN_POINT ( 'NONE',  ( 0.0000000000000000000, 0.0000000000000000000, 0.0000000000000000000 ) ) ;
#46 = LINE ( 'NONE', #327, #108 ) ;
#47 = EDGE_CURVE ( 'NONE', #77, #261, #14, .T. ) ;
#48 = CIRCLE ( 'NONE', #331, 1.324999999999996181 ) ;
#49 = EDGE_CURVE ( 'NONE', #212, #77, #99, .T. ) ;
#50 = ORIENTED_EDGE ( 'NONE', *, *, #172, .T. ) ;
#51 = ORIENTED_EDGE ( 'NONE', *, *, #188, .F. ) ;
#52 = CONICAL_SURFACE ( 'NONE', #98, 1.324999999999994849, 1.029744258676649649 ) ;
#53 = CARTESIAN_POINT ( 'NONE',  ( 3.840629472727446691E-14, -1.347111479062088405E-15, 11.00000000000000000 ) ) ;
#54 = DESIGN_CONTEXT ( 'detailed design', #16, 'design' ) ;
#55 = EDGE_LOOP ( 'NONE', ( #237, #13, #187 ) ) ;
#56 = DIRECTION ( 'NONE',  ( -3.491481338843133355E-15, 1.224646799147353207E-16, -1.000000000000000000 ) ) ;
#57 = DATE_TIME_ROLE ( 'classification_date' ) ;
#58 = ORIENTED_EDGE ( 'NONE', *, *, #124, .T. ) ;
#59 = DIRECTION ( 'NONE',  ( -4.275831445896958607E-31, -1.000000000000000000, -1.224646799147353207E-16 ) ) ;
#60 = ORIENTED_EDGE ( 'NONE', *, *, #17, .F. ) ;
#61 = AXIS2_PLACEMENT_3D ( 'NONE', #238, #102, #25 ) ;
#62 = DIRECTION ( 'NONE',  ( 4.275831445896957731E-31, 1.000000000000000000, 1.224646799147352961E-16 ) ) ;
#63 = COORDINATED_UNIVERSAL_TIME_OFFSET ( 1, 0, .AHEAD. ) ;
#64 = ADVANCED_FACE ( 'NONE', ( #300 ), #185, .F. ) ;
#65 = CARTESIAN_POINT ( 'NONE',  ( 1.490862531686017753E-13, -5.229241832359197610E-15, 42.69999999999999574 ) ) ;
#66 = PERSON_AND_ORGANIZATION_ROLE ( 'design_owner' ) ;
#67 = DIRECTION ( 'NONE',  ( -3.491481338843133355E-15, 1.224646799147353207E-16, -1.000000000000000000 ) ) ;
#68 = DATE_AND_TIME ( #276, #303 ) ;
#69 = DIRECTION ( 'NONE',  ( -3.491481338843133355E-15, 1.224646799147353207E-16, -1.000000000000000000 ) ) ;
#70 = VECTOR ( 'NONE', #146, 1000.000000000000000 ) ;
#71 = CARTESIAN_POINT ( 'NONE',  ( 3.840629472727446691E-14, -1.347111479062088405E-15, 11.00000000000000000 ) ) ;
#72 = DIRECTION ( 'NONE',  ( -3.491481338843133355E-15, 1.224646799147353207E-16, -1.000000000000000000 ) ) ;
#73 = CARTESIAN_POINT ( 'NONE',  ( 2.779709071119129090E-15, -1.324999999999994849, 0.7961403202115229227 ) ) ;
#74 = PRODUCT_DEFINITION_FORMATION_WITH_SPECIFIED_SOURCE ( 'ANY', '', #260, .NOT_KNOWN. ) ;
#75 = ADVANCED_FACE ( 'NONE', ( #240 ), #31, .T. ) ;
#76 = APPROVAL_PERSON_ORGANIZATION ( #316, #93, #219 ) ;
#77 = VERTEX_POINT ( 'NONE', #195 ) ;
#78 = EDGE_LOOP ( 'NONE', ( #222, #320 ) ) ;
#79 = CARTESIAN_POINT ( 'NONE',  ( 1.497538713683280516E-13, -1.025000000000005240, 43.00000000000000000 ) ) ;
#80 = ORIENTED_EDGE ( 'NONE', *, *, #265, .T. ) ;
#81 = CC_DESIGN_PERSON_AND_ORGANIZATION_ASSIGNMENT ( #203, #15, ( #74 ) ) ;
#82 = CONICAL_SURFACE ( 'NONE', #154, 1.324999999999994849, 1.029744258676649649 ) ;
#83 = DIRECTION ( 'NONE',  ( 2.907064066999612739E-31, 1.000000000000000000, 8.182657905551009094E-17 ) ) ;
#84 = SECURITY_CLASSIFICATION_LEVEL ( 'unclassified' ) ;
#85 = ORIENTED_EDGE ( 'NONE', *, *, #334, .T. ) ;
#86 = FACE_OUTER_BOUND ( 'NONE', #33, .T. ) ;
#87 = DIRECTION ( 'NONE',  ( 3.491481338843133355E-15, -1.224646799147353207E-16, 1.000000000000000000 ) ) ;
#88 = EDGE_CURVE ( 'NONE', #184, #272, #216, .T. ) ;
#89 = MECHANICAL_CONTEXT ( 'NONE', #213, 'mechanical' ) ;
#90 = ORIENTED_EDGE ( 'NONE', *, *, #47, .F. ) ;
#91 = DIRECTION ( 'NONE',  ( 3.491481338843133355E-15, -1.224646799147353207E-16, 1.000000000000000000 ) ) ;
#92 = PERSON_AND_ORGANIZATION ( #43, #235 ) ;
#93 = APPROVAL ( #113, 'UNSPECIFIED' ) ;
#94 = DIRECTION ( 'NONE',  ( 2.907064066999612739E-31, 1.000000000000000000, 8.182657905551009094E-17 ) ) ;
#95 = AXIS2_PLACEMENT_3D ( 'NONE', #157, #142, #109 ) ;
#96 = CARTESIAN_POINT ( 'NONE',  ( 5.665476665813461527E-31, 1.324999999999997957, 1.622657008870240516E-16 ) ) ;
#97 = PRODUCT_DEFINITION ( 'UNKNOWN', '', #74, #54 ) ;
#98 = AXIS2_PLACEMENT_3D ( 'NONE', #223, #115, #189 ) ;
#99 = CIRCLE ( 'NONE', #61, 1.324999999999996181 ) ;
#100 = EDGE_LOOP ( 'NONE', ( #166, #194, #101, #309 ) ) ;
#101 = ORIENTED_EDGE ( 'NONE', *, *, #47, .T. ) ;
#102 = DIRECTION ( 'NONE',  ( -3.491481338843133355E-15, 1.224646799147353207E-16, -1.000000000000000000 ) ) ;
#103 = CC_DESIGN_PERSON_AND_ORGANIZATION_ASSIGNMENT ( #92, #66, ( #260 ) ) ;
#104 = EDGE_LOOP ( 'NONE', ( #323, #51 ) ) ;
#105 = DIRECTION ( 'NONE',  ( 0.0000000000000000000, 1.000000000000000000, 0.0000000000000000000 ) ) ;
#106 = ORIENTED_EDGE ( 'NONE', *, *, #257, .T. ) ;
#107 = AXIS2_PLACEMENT_3D ( 'NONE', #227, #230, #149 ) ;
#108 = VECTOR ( 'NONE', #251, 999.9999999999998863 ) ;
#109 = DIRECTION ( 'NONE',  ( 4.275831445896958607E-31, 1.000000000000000000, 1.224646799147353207E-16 ) ) ;
#110 = ORIENTED_EDGE ( 'NONE', *, *, #172, .F. ) ;
#111 = ADVANCED_FACE ( 'NONE', ( #247 ), #258, .T. ) ;
#112 = DIRECTION ( 'NONE',  ( -3.491481338843133355E-15, 1.224646799147353207E-16, -1.000000000000000000 ) ) ;
#113 = APPROVAL_STATUS ( 'not_yet_approved' ) ;
#114 = ORIENTED_EDGE ( 'NONE', *, *, #252, .T. ) ;
#115 = DIRECTION ( 'NONE',  ( 3.491481338843133355E-15, -1.224646799147353207E-16, 1.000000000000000000 ) ) ;
#116 = DATE_TIME_ROLE ( 'creation_date' ) ;
#117 = DIRECTION ( 'NONE',  ( -3.491481338843133355E-15, 1.224646799147353207E-16, -1.000000000000000000 ) ) ;
#118 = DIRECTION ( 'NONE',  ( -2.382254525458723780E-15, -0.7071067811865453523, -0.7071067811865496822 ) ) ;
#119 = DIRECTION ( 'NONE',  ( 0.0000000000000000000, 1.000000000000000000, 0.0000000000000000000 ) ) ;
#120 = CLOSED_SHELL ( 'NONE', ( #211, #178, #64, #232, #111, #129 ) ) ;
#121 = VECTOR ( 'NONE', #118, 1000.000000000000000 ) ;
#122 = CC_DESIGN_PERSON_AND_ORGANIZATION_ASSIGNMENT ( #271, #169, ( #74 ) ) ;
#123 = LINE ( 'NONE', #281, #332 ) ;
#124 = EDGE_CURVE ( 'NONE', #156, #184, #214, .T. ) ;
#125 = PRODUCT_DEFINITION_SHAPE ( 'NONE', 'NONE',  #97 ) ;
#126 = AXIS2_PLACEMENT_3D ( 'NONE', #34, #87, #59 ) ;
#127 = CIRCLE ( 'NONE', #167, 1.324999999999994849 ) ;
#128 = ORIENTED_EDGE ( 'NONE', *, *, #183, .T. ) ;
#129 = ADVANCED_FACE ( 'NONE', ( #243 ), #273, .F. ) ;
#130 = EDGE_LOOP ( 'NONE', ( #264, #284, #106 ) ) ;
#131 = CARTESIAN_POINT ( 'NONE',  ( 0.0000000000000000000, 0.0000000000000000000, 0.0000000000000000000 ) ) ;
#132 = DIRECTION ( 'NONE',  ( -3.491481338843133355E-15, 1.224646799147353207E-16, -1.000000000000000000 ) ) ;
#133 = APPROVAL_DATE_TIME ( #68, #44 ) ;
#134 = VERTEX_POINT ( 'NONE', #312 ) ;
#135 = AXIS2_PLACEMENT_3D ( 'NONE', #301, #67, #147 ) ;
#136 = CC_DESIGN_APPROVAL ( #93, ( #97 ) ) ;
#137 = DIRECTION ( 'NONE',  ( -2.907064066999612739E-31, -1.000000000000000000, -8.182657905551009094E-17 ) ) ;
#138 = APPROVAL_STATUS ( 'not_yet_approved' ) ;
#139 = VERTEX_POINT ( 'NONE', #79 ) ;
#140 = DIRECTION ( 'NONE',  ( -3.491481338843133355E-15, 1.224646799147353207E-16, -1.000000000000000000 ) ) ;
#141 = SHAPE_DEFINITION_REPRESENTATION ( #125, #181 ) ;
#142 = DIRECTION ( 'NONE',  ( -3.491481338843133355E-15, 1.224646799147353207E-16, -1.000000000000000000 ) ) ;
#143 = DIRECTION ( 'NONE',  ( -3.491481338843133355E-15, 1.224646799147353207E-16, -1.000000000000000000 ) ) ;
#144 = CC_DESIGN_PERSON_AND_ORGANIZATION_ASSIGNMENT ( #326, #319, ( #97 ) ) ;
#145 = PERSON_AND_ORGANIZATION ( #43, #235 ) ;
#146 = DIRECTION ( 'NONE',  ( 1.798245827342160317E-15, -0.8571673007021098911, 0.5150380749100582634 ) ) ;
#147 = DIRECTION ( 'NONE',  ( 4.275831445896958607E-31, 1.000000000000000000, 1.224646799147353207E-16 ) ) ;
#148 = ADVANCED_FACE ( 'NONE', ( #270 ), #266, .T. ) ;
#149 = DIRECTION ( 'NONE',  ( 0.0000000000000000000, 1.000000000000000000, 0.0000000000000000000 ) ) ;
#150 = AXIS2_PLACEMENT_3D ( 'NONE', #8, #163, #293 ) ;
#151 = SECURITY_CLASSIFICATION ( '', '', #84 ) ;
#152 = EDGE_LOOP ( 'NONE', ( #4, #114, #60, #24 ) ) ;
#153 = ADVANCED_FACE ( 'NONE', ( #86 ), #215, .T. ) ;
#154 = AXIS2_PLACEMENT_3D ( 'NONE', #267, #218, #137 ) ;
#155 = LOCAL_TIME ( 9, 49, 26.00000000000000000, #253 ) ;
#156 = VERTEX_POINT ( 'NONE', #192 ) ;
#157 = CARTESIAN_POINT ( 'NONE',  ( 1.501336975702547217E-13, 7.686268886141942238E-33, 43.00000000000000000 ) ) ;
#158 = ORIENTED_EDGE ( 'NONE', *, *, #36, .T. ) ;
#159 = FACE_OUTER_BOUND ( 'NONE', #130, .T. ) ;
#160 = ADVANCED_FACE ( 'NONE', ( #159 ), #82, .T. ) ;
#161 = COORDINATED_UNIVERSAL_TIME_OFFSET ( 1, 0, .AHEAD. ) ;
#162 = ORIENTED_EDGE ( 'NONE', *, *, #124, .F. ) ;
#163 = DIRECTION ( 'NONE',  ( -3.491481338843133355E-15, 1.224646799147353207E-16, -1.000000000000000000 ) ) ;
#164 = DIRECTION ( 'NONE',  ( 1.000000000000000000, 0.0000000000000000000, 0.0000000000000000000 ) ) ;
#165 = VECTOR ( 'NONE', #37, 1000.000000000000000 ) ;
#166 = ORIENTED_EDGE ( 'NONE', *, *, #265, .F. ) ;
#167 = AXIS2_PLACEMENT_3D ( 'NONE', #228, #69, #94 ) ;
#168 = CARTESIAN_POINT ( 'NONE',  ( 5.665476665813450141E-31, 1.324999999999995515, 1.622657008870237311E-16 ) ) ;
#169 = PERSON_AND_ORGANIZATION_ROLE ( 'design_supplier' ) ;
#170 = DIRECTION ( 'NONE',  ( -3.491481338843133355E-15, 1.224646799147353207E-16, -1.000000000000000000 ) ) ;
#171 = CALENDAR_DATE ( 2021, 3, 9 ) ;
#172 = EDGE_CURVE ( 'NONE', #272, #184, #1, .T. ) ;
#173 = CYLINDRICAL_SURFACE ( 'NONE', #135, 1.324999999999997957 ) ;
#174 = PERSON_AND_ORGANIZATION ( #43, #235 ) ;
#175 = VECTOR ( 'NONE', #143, 1000.000000000000000 ) ;
#176 = CARTESIAN_POINT ( 'NONE',  ( 3.840629472727446691E-14, -1.347111479062088405E-15, 11.00000000000000000 ) ) ;
#177 = LINE ( 'NONE', #73, #70 ) ;
#178 = ADVANCED_FACE ( 'NONE', ( #207 ), #208, .T. ) ;
#179 = DIRECTION ( 'NONE',  ( -3.491481338843133355E-15, 1.224646799147353207E-16, -1.000000000000000000 ) ) ;
#180 = CARTESIAN_POINT ( 'NONE',  ( 3.840629472727446691E-14, 1.324999999999994849, 11.00000000000000000 ) ) ;
#181 = ADVANCED_BREP_SHAPE_REPRESENTATION ( '54536', ( #245, #249, #325 ), #206 ) ;
#182 = AXIS2_PLACEMENT_3D ( 'NONE', #71, #277, #39 ) ;
#183 = EDGE_CURVE ( 'NONE', #236, #217, #278, .T. ) ;
#184 = VERTEX_POINT ( 'NONE', #209 ) ;
#185 = PLANE ( 'NONE',  #126 ) ;
#186 = UNCERTAINTY_MEASURE_WITH_UNIT (LENGTH_MEASURE( 1.000000000000000082E-05 ), #231, 'distance_accuracy_value', 'NONE');
#187 = ORIENTED_EDGE ( 'NONE', *, *, #6, .T. ) ;
#188 = EDGE_CURVE ( 'NONE', #139, #156, #262, .T. ) ;
#189 = DIRECTION ( 'NONE',  ( -2.907064066999612739E-31, -1.000000000000000000, -8.182657905551009094E-17 ) ) ;
#190 = APPROVAL_STATUS ( 'not_yet_approved' ) ;
#191 = VERTEX_POINT ( 'NONE', #304 ) ;
#192 = CARTESIAN_POINT ( 'NONE',  ( 1.501336975702547217E-13, 1.024999999999994804, 43.00000000000000000 ) ) ;
#193 = DATE_AND_TIME ( #35, #155 ) ;
#194 = ORIENTED_EDGE ( 'NONE', *, *, #49, .T. ) ;
#195 = CARTESIAN_POINT ( 'NONE',  ( 3.840629472727446691E-14, 1.324999999999994849, 11.00000000000000000 ) ) ;
#196 = CALENDAR_DATE ( 2021, 3, 9 ) ;
#197 = AXIS2_PLACEMENT_3D ( 'NONE', #314, #56, #62 ) ;
#198 = CARTESIAN_POINT ( 'NONE',  ( 2.779709071119129484E-15, -9.749906948191905323E-17, 0.7961403202115230338 ) ) ;
#199 = DIRECTION ( 'NONE',  ( -2.468850131082271655E-15, 0.7071067811865455743, -0.7071067811865493491 ) ) ;
#200 = PERSON_AND_ORGANIZATION_ROLE ( 'classification_officer' ) ;
#201 = CC_DESIGN_DATE_AND_TIME_ASSIGNMENT ( #291, #116, ( #97 ) ) ;
#202 = CARTESIAN_POINT ( 'NONE',  ( 2.075526760008380361E-14, -1.324999999999997291, 11.00000000000000000 ) ) ;
#203 = PERSON_AND_ORGANIZATION ( #43, #235 ) ;
#204 = CARTESIAN_POINT ( 'NONE',  ( 1.502592238671673309E-13, -1.025000000000005240, 43.00000000000000000 ) ) ;
#205 = AXIS2_PLACEMENT_3D ( 'NONE', #131, #5, #296 ) ;
#206 =( GEOMETRIC_REPRESENTATION_CONTEXT ( 3 ) GLOBAL_UNCERTAINTY_ASSIGNED_CONTEXT ( ( #186 ) ) GLOBAL_UNIT_ASSIGNED_CONTEXT ( ( #231, #225, #336 ) ) REPRESENTATION_CONTEXT ( 'NONE', 'WORKASPACE' ) );
#207 = FACE_OUTER_BOUND ( 'NONE', #152, .T. ) ;
#208 = CYLINDRICAL_SURFACE ( 'NONE', #337, 1.324999999999997957 ) ;
#209 = CARTESIAN_POINT ( 'NONE',  ( 1.490862531686017753E-13, 1.324999999999994849, 42.69999999999999574 ) ) ;
#210 = APPROVAL_PERSON_ORGANIZATION ( #174, #246, #274 ) ;
#211 = ADVANCED_FACE ( 'NONE', ( #279 ), #21, .T. ) ;
#212 = VERTEX_POINT ( 'NONE', #202 ) ;
#213 = APPLICATION_CONTEXT ( 'configuration controlled 3d designs of mechanical parts and assemblies' ) ;
#214 = LINE ( 'NONE', #288, #297 ) ;
#215 = CYLINDRICAL_SURFACE ( 'NONE', #197, 1.324999999999995515 ) ;
#216 = CIRCLE ( 'NONE', #241, 1.324999999999999956 ) ;
#217 = VERTEX_POINT ( 'NONE', #180 ) ;
#218 = DIRECTION ( 'NONE',  ( 3.491481338843133355E-15, -1.224646799147353207E-16, 1.000000000000000000 ) ) ;
#219 = APPROVAL_ROLE ( '' ) ;
#220 = DIRECTION ( 'NONE',  ( 0.0000000000000000000, 1.000000000000000000, 0.0000000000000000000 ) ) ;
#221 = DIRECTION ( 'NONE',  ( 0.0000000000000000000, 0.0000000000000000000, 1.000000000000000000 ) ) ;
#222 = ORIENTED_EDGE ( 'NONE', *, *, #286, .F. ) ;
#223 = CARTESIAN_POINT ( 'NONE',  ( 2.779709071119129484E-15, -9.749906948191905323E-17, 0.7961403202115230338 ) ) ;
#224 = AXIS2_PLACEMENT_3D ( 'NONE', #176, #117, #119 ) ;
#225 =( NAMED_UNIT ( * ) PLANE_ANGLE_UNIT ( ) SI_UNIT ( $, .RADIAN. ) );
#226 = APPROVAL_DATE_TIME ( #12, #93 ) ;
#227 = CARTESIAN_POINT ( 'NONE',  ( 1.501336975702547217E-13, -5.265981236333618470E-15, 43.00000000000000000 ) ) ;
#228 = CARTESIAN_POINT ( 'NONE',  ( 2.779709071119129484E-15, -9.749906948191905323E-17, 0.7961403202115230338 ) ) ;
#229 = CC_DESIGN_SECURITY_CLASSIFICATION ( #151, ( #74 ) ) ;
#230 = DIRECTION ( 'NONE',  ( -3.491481338843133355E-15, 1.224646799147353207E-16, -1.000000000000000000 ) ) ;
#231 =( LENGTH_UNIT ( ) NAMED_UNIT ( * ) SI_UNIT ( .MILLI., .METRE. ) );
#232 = ADVANCED_FACE ( 'NONE', ( #255 ), #173, .T. ) ;
#233 = LOCAL_TIME ( 9, 49, 26.00000000000000000, #268 ) ;
#234 = AXIS2_PLACEMENT_3D ( 'NONE', #11, #112, #220 ) ;
#235 = ORGANIZATION ( 'UNSPECIFIED', 'UNSPECIFIED', '' ) ;
#236 = VERTEX_POINT ( 'NONE', #330 ) ;
#237 = ORIENTED_EDGE ( 'NONE', *, *, #329, .F. ) ;
#238 = CARTESIAN_POINT ( 'NONE',  ( 3.840629472727446691E-14, -1.347111479062088405E-15, 11.00000000000000000 ) ) ;
#239 = EDGE_LOOP ( 'NONE', ( #10, #128 ) ) ;
#240 = FACE_OUTER_BOUND ( 'NONE', #78, .T. ) ;
#241 = AXIS2_PLACEMENT_3D ( 'NONE', #65, #170, #105 ) ;
#242 = VECTOR ( 'NONE', #72, 1000.000000000000000 ) ;
#243 = FACE_OUTER_BOUND ( 'NONE', #104, .T. ) ;
#244 = ORIENTED_EDGE ( 'NONE', *, *, #286, .T. ) ;
#245 = MANIFOLD_SOLID_BREP ( 'Corps-Déplacer/Copier1[1]', #120 ) ;
#246 = APPROVAL ( #190, 'UNSPECIFIED' ) ;
#247 = FACE_OUTER_BOUND ( 'NONE', #269, .T. ) ;
#248 = CARTESIAN_POINT ( 'NONE',  ( 0.0000000000000000000, 0.0000000000000000000, 0.0000000000000000000 ) ) ;
#249 = MANIFOLD_SOLID_BREP ( 'Corps-Déplacer/Copier1[2]', #282 ) ;
#250 = CARTESIAN_POINT ( 'NONE',  ( 9.390853964882498553E-14, -1.325000000000005285, 42.69999999999999574 ) ) ;
#251 = DIRECTION ( 'NONE',  ( 1.903218546456022717E-15, 0.8571673007021097801, 0.5150380749100585964 ) ) ;
#252 = EDGE_CURVE ( 'NONE', #272, #236, #254, .T. ) ;
#253 = COORDINATED_UNIVERSAL_TIME_OFFSET ( 1, 0, .AHEAD. ) ;
#254 = LINE ( 'NONE', #19, #242 ) ;
#255 = FACE_OUTER_BOUND ( 'NONE', #23, .T. ) ;
#256 = DIRECTION ( 'NONE',  ( 0.0000000000000000000, 1.000000000000000000, 0.0000000000000000000 ) ) ;
#257 = EDGE_CURVE ( 'NONE', #261, #191, #127, .T. ) ;
#258 = CONICAL_SURFACE ( 'NONE', #150, 1.025000000000000133, 0.7853981633974453924 ) ;
#259 = PRODUCT_RELATED_PRODUCT_CATEGORY ( 'detail', '', ( #260 ) ) ;
#260 = PRODUCT ( '54536', '54536', '', ( #89 ) ) ;
#261 = VERTEX_POINT ( 'NONE', #280 ) ;
#262 = CIRCLE ( 'NONE', #313, 1.025000000000000133 ) ;
#263 = CIRCLE ( 'NONE', #182, 1.324999999999996181 ) ;
#264 = ORIENTED_EDGE ( 'NONE', *, *, #317, .F. ) ;
#265 = EDGE_CURVE ( 'NONE', #212, #191, #123, .T. ) ;
#266 = CYLINDRICAL_SURFACE ( 'NONE', #205, 1.324999999999995515 ) ;
#267 = CARTESIAN_POINT ( 'NONE',  ( 2.779709071119129484E-15, -9.749906948191905323E-17, 0.7961403202115230338 ) ) ;
#268 = COORDINATED_UNIVERSAL_TIME_OFFSET ( 1, 0, .AHEAD. ) ;
#269 = EDGE_LOOP ( 'NONE', ( #311, #289, #58, #110 ) ) ;
#270 = FACE_OUTER_BOUND ( 'NONE', #100, .T. ) ;
#271 = PERSON_AND_ORGANIZATION ( #43, #235 ) ;
#272 = VERTEX_POINT ( 'NONE', #250 ) ;
#273 = PLANE ( 'NONE',  #95 ) ;
#274 = APPROVAL_ROLE ( '' ) ;
#275 = DIRECTION ( 'NONE',  ( 0.0000000000000000000, 1.000000000000000000, 0.0000000000000000000 ) ) ;
#276 = CALENDAR_DATE ( 2021, 3, 9 ) ;
#277 = DIRECTION ( 'NONE',  ( -3.491481338843133355E-15, 1.224646799147353207E-16, -1.000000000000000000 ) ) ;
#278 = CIRCLE ( 'NONE', #224, 1.324999999999996181 ) ;
#279 = FACE_OUTER_BOUND ( 'NONE', #28, .T. ) ;
#280 = CARTESIAN_POINT ( 'NONE',  ( 2.941974772006153635E-15, 1.324999999999994849, 0.7961403202115231448 ) ) ;
#281 = CARTESIAN_POINT ( 'NONE',  ( 1.622657008870231888E-16, -1.324999999999995515, -1.622657008870242981E-16 ) ) ;
#282 = CLOSED_SHELL ( 'NONE', ( #153, #160, #22, #148, #75 ) ) ;
#283 = AXIS2_PLACEMENT_3D ( 'NONE', #198, #140, #83 ) ;
#284 = ORIENTED_EDGE ( 'NONE', *, *, #329, .T. ) ;
#285 = ORIENTED_EDGE ( 'NONE', *, *, #252, .F. ) ;
#286 = EDGE_CURVE ( 'NONE', #77, #212, #263, .T. ) ;
#287 = AXIS2_PLACEMENT_3D ( 'NONE', #324, #91, #290 ) ;
#288 = CARTESIAN_POINT ( 'NONE',  ( 1.501336975702547217E-13, 1.024999999999994804, 43.00000000000000000 ) ) ;
#289 = ORIENTED_EDGE ( 'NONE', *, *, #188, .T. ) ;
#290 = DIRECTION ( 'NONE',  ( -4.275831445896958607E-31, -1.000000000000000000, -1.224646799147353207E-16 ) ) ;
#291 = DATE_AND_TIME ( #171, #298 ) ;
#292 = ORIENTED_EDGE ( 'NONE', *, *, #88, .F. ) ;
#293 = DIRECTION ( 'NONE',  ( 0.0000000000000000000, 1.000000000000000000, 0.0000000000000000000 ) ) ;
#294 = APPROVAL_DATE_TIME ( #193, #246 ) ;
#295 = ORIENTED_EDGE ( 'NONE', *, *, #257, .F. ) ;
#296 = DIRECTION ( 'NONE',  ( 4.275831445896957731E-31, 1.000000000000000000, 1.224646799147352961E-16 ) ) ;
#297 = VECTOR ( 'NONE', #199, 1000.000000000000114 ) ;
#298 = LOCAL_TIME ( 9, 49, 26.00000000000000000, #322 ) ;
#299 = APPROVAL_ROLE ( '' ) ;
#300 = FACE_OUTER_BOUND ( 'NONE', #239, .T. ) ;
#301 = CARTESIAN_POINT ( 'NONE',  ( 0.0000000000000000000, 0.0000000000000000000, 0.0000000000000000000 ) ) ;
#302 = DATE_AND_TIME ( #9, #233 ) ;
#303 = LOCAL_TIME ( 9, 49, 26.00000000000000000, #63 ) ;
#304 = CARTESIAN_POINT ( 'NONE',  ( 2.779709071119129090E-15, -1.324999999999994849, 0.7961403202115229227 ) ) ;
#305 = LINE ( 'NONE', #204, #121 ) ;
#306 = EDGE_CURVE ( 'NONE', #184, #217, #335, .T. ) ;
#307 = DIRECTION ( 'NONE',  ( -3.491481338843133355E-15, 1.224646799147353207E-16, -1.000000000000000000 ) ) ;
#308 = AXIS2_PLACEMENT_3D ( 'NONE', #321, #132, #275 ) ;
#309 = ORIENTED_EDGE ( 'NONE', *, *, #6, .F. ) ;
#310 = CC_DESIGN_DATE_AND_TIME_ASSIGNMENT ( #302, #57, ( #151 ) ) ;
#311 = ORIENTED_EDGE ( 'NONE', *, *, #334, .F. ) ;
#312 = CARTESIAN_POINT ( 'NONE',  ( 0.0000000000000000000, 0.0000000000000000000, 0.0000000000000000000 ) ) ;
#313 = AXIS2_PLACEMENT_3D ( 'NONE', #18, #42, #256 ) ;
#314 = CARTESIAN_POINT ( 'NONE',  ( 0.0000000000000000000, 0.0000000000000000000, 0.0000000000000000000 ) ) ;
#315 = CC_DESIGN_APPROVAL ( #246, ( #151 ) ) ;
#316 = PERSON_AND_ORGANIZATION ( #43, #235 ) ;
#317 = EDGE_CURVE ( 'NONE', #134, #191, #177, .T. ) ;
#318 = DIRECTION ( 'NONE',  ( -3.491481338843133355E-15, 1.224646799147353207E-16, -1.000000000000000000 ) ) ;
#319 = PERSON_AND_ORGANIZATION_ROLE ( 'creator' ) ;
#320 = ORIENTED_EDGE ( 'NONE', *, *, #49, .F. ) ;
#321 = CARTESIAN_POINT ( 'NONE',  ( 1.501336975702547217E-13, -5.265981236333618470E-15, 43.00000000000000000 ) ) ;
#322 = COORDINATED_UNIVERSAL_TIME_OFFSET ( 1, 0, .AHEAD. ) ;
#323 = ORIENTED_EDGE ( 'NONE', *, *, #36, .F. ) ;
#324 = CARTESIAN_POINT ( 'NONE',  ( 3.840629472727446691E-14, 9.935908560134758756E-33, 11.00000000000000000 ) ) ;
#325 = AXIS2_PLACEMENT_3D ( 'NONE', #248, #221, #164 ) ;
#326 = PERSON_AND_ORGANIZATION ( #43, #235 ) ;
#327 = CARTESIAN_POINT ( 'NONE',  ( 2.941974772006153635E-15, 1.324999999999994849, 0.7961403202115231448 ) ) ;
#328 = APPLICATION_PROTOCOL_DEFINITION ( 'international standard', 'config_control_design', 1994, #16 ) ;
#329 = EDGE_CURVE ( 'NONE', #134, #261, #46, .T. ) ;
#330 = CARTESIAN_POINT ( 'NONE',  ( 9.390853964882511175E-14, -1.324999999999997513, 11.00000000000000000 ) ) ;
#331 = AXIS2_PLACEMENT_3D ( 'NONE', #53, #318, #27 ) ;
#332 = VECTOR ( 'NONE', #307, 1000.000000000000000 ) ;
#333 = APPROVAL_PERSON_ORGANIZATION ( #145, #44, #299 ) ;
#334 = EDGE_CURVE ( 'NONE', #139, #272, #305, .T. ) ;
#335 = LINE ( 'NONE', #96, #175 ) ;
#336 =( NAMED_UNIT ( * ) SI_UNIT ( $, .STERADIAN. ) SOLID_ANGLE_UNIT ( ) );
#337 = AXIS2_PLACEMENT_3D ( 'NONE', #45, #179, #20 ) ;
ENDSEC;
END-ISO-10303-21;
