ISO-10303-21;
HEADER;
FILE_DESCRIPTION (( 'STEP AP203' ),
    '1' );
FILE_NAME ('54535.step',
    '2021-09-03T07:49:23',
    ( '' ),
    ( '' ),
    'SwSTEP 2.0',
    'SolidWorks 2019',
    '' );
FILE_SCHEMA (( 'CONFIG_CONTROL_DESIGN' ));
ENDSEC;

DATA;
#1 = ORIENTED_EDGE ( 'NONE', *, *, #291, .T. ) ;
#2 = PLANE ( 'NONE',  #81 ) ;
#3 = APPROVAL_ROLE ( '' ) ;
#4 = VERTEX_POINT ( 'NONE', #125 ) ;
#5 = DIRECTION ( 'NONE',  ( 1.798245827342160317E-15, -0.8571673007021098911, 0.5150380749100582634 ) ) ;
#6 = ADVANCED_FACE ( 'NONE', ( #227 ), #168, .T. ) ;
#7 = DATE_AND_TIME ( #154, #63 ) ;
#8 = DIRECTION ( 'NONE',  ( -3.491481338843133355E-15, 1.224646799147353207E-16, -1.000000000000000000 ) ) ;
#9 = DIRECTION ( 'NONE',  ( -3.491481338843133355E-15, 1.224646799147353207E-16, -1.000000000000000000 ) ) ;
#10 = ORIENTED_EDGE ( 'NONE', *, *, #69, .F. ) ;
#11 = DIRECTION ( 'NONE',  ( -3.491481338843133355E-15, 1.224646799147353207E-16, -1.000000000000000000 ) ) ;
#12 = ORIENTED_EDGE ( 'NONE', *, *, #326, .T. ) ;
#13 = AXIS2_PLACEMENT_3D ( 'NONE', #237, #315, #134 ) ;
#14 = CARTESIAN_POINT ( 'NONE',  ( 2.072598231260367917E-14, -1.299999999999997602, 11.00000000000000000 ) ) ;
#15 = EDGE_LOOP ( 'NONE', ( #262, #330, #198 ) ) ;
#16 = PRODUCT ( '54535', '54535', '', ( #165 ) ) ;
#17 = EDGE_CURVE ( 'NONE', #122, #278, #313, .T. ) ;
#18 = CARTESIAN_POINT ( 'NONE',  ( 2.886465814043772894E-15, 1.299999999999994715, 0.7811188047358339492 ) ) ;
#19 = CONICAL_SURFACE ( 'NONE', #61, 1.299999999999994715, 1.029744258676649649 ) ;
#20 = AXIS2_PLACEMENT_3D ( 'NONE', #242, #9, #144 ) ;
#21 = VERTEX_POINT ( 'NONE', #118 ) ;
#22 = DIRECTION ( 'NONE',  ( 4.275831445896958607E-31, 1.000000000000000000, 1.224646799147353207E-16 ) ) ;
#23 = AXIS2_PLACEMENT_3D ( 'NONE', #180, #303, #45 ) ;
#24 = CALENDAR_DATE ( 2021, 3, 9 ) ;
#25 = CALENDAR_DATE ( 2021, 3, 9 ) ;
#26 = LOCAL_TIME ( 9, 49, 23.00000000000000000, #111 ) ;
#27 = MANIFOLD_SOLID_BREP ( 'Corps-Déplacer/Copier1[2]', #49 ) ;
#28 = EDGE_LOOP ( 'NONE', ( #35, #12, #179, #327 ) ) ;
#29 = LINE ( 'NONE', #214, #102 ) ;
#30 = DATE_TIME_ROLE ( 'classification_date' ) ;
#31 = FACE_OUTER_BOUND ( 'NONE', #332, .T. ) ;
#32 = DIRECTION ( 'NONE',  ( 0.0000000000000000000, 0.0000000000000000000, 1.000000000000000000 ) ) ;
#33 = CARTESIAN_POINT ( 'NONE',  ( 1.501336975702547217E-13, -5.265981236333618470E-15, 43.00000000000000000 ) ) ;
#34 = DIRECTION ( 'NONE',  ( 4.275831445896958607E-31, 1.000000000000000000, 1.224646799147353207E-16 ) ) ;
#35 = ORIENTED_EDGE ( 'NONE', *, *, #298, .F. ) ;
#36 = CARTESIAN_POINT ( 'NONE',  ( 0.0000000000000000000, 0.0000000000000000000, 0.0000000000000000000 ) ) ;
#37 = LINE ( 'NONE', #151, #110 ) ;
#38 = APPROVAL ( #312, 'UNSPECIFIED' ) ;
#39 = DIRECTION ( 'NONE',  ( -2.962969145211144107E-31, -1.000000000000000000, -8.340016711426991034E-17 ) ) ;
#40 = FACE_OUTER_BOUND ( 'NONE', #15, .T. ) ;
#41 = PRODUCT_RELATED_PRODUCT_CATEGORY ( 'detail', '', ( #16 ) ) ;
#42 = ORIENTED_EDGE ( 'NONE', *, *, #65, .T. ) ;
#43 = DIRECTION ( 'NONE',  ( -2.962969145211144107E-31, -1.000000000000000000, -8.340016711426991034E-17 ) ) ;
#44 = AXIS2_PLACEMENT_3D ( 'NONE', #112, #272, #240 ) ;
#45 = DIRECTION ( 'NONE',  ( 2.962969145211144107E-31, 1.000000000000000000, 8.340016711426991034E-17 ) ) ;
#46 = CC_DESIGN_PERSON_AND_ORGANIZATION_ASSIGNMENT ( #336, #139, ( #16 ) ) ;
#47 = APPROVAL_ROLE ( '' ) ;
#48 = LINE ( 'NONE', #85, #323 ) ;
#49 = CLOSED_SHELL ( 'NONE', ( #243, #101, #6, #121, #229 ) ) ;
#50 = APPROVAL_DATE_TIME ( #7, #38 ) ;
#51 = APPROVAL_PERSON_ORGANIZATION ( #337, #38, #57 ) ;
#52 = ORIENTED_EDGE ( 'NONE', *, *, #264, .T. ) ;
#53 = FACE_OUTER_BOUND ( 'NONE', #62, .T. ) ;
#54 = APPROVAL_STATUS ( 'not_yet_approved' ) ;
#55 = FACE_OUTER_BOUND ( 'NONE', #94, .T. ) ;
#56 = CC_DESIGN_DATE_AND_TIME_ASSIGNMENT ( #289, #30, ( #119 ) ) ;
#57 = APPROVAL_ROLE ( '' ) ;
#58 = ORIENTED_EDGE ( 'NONE', *, *, #199, .T. ) ;
#59 = DIRECTION ( 'NONE',  ( 0.0000000000000000000, 1.000000000000000000, 0.0000000000000000000 ) ) ;
#60 = UNCERTAINTY_MEASURE_WITH_UNIT (LENGTH_MEASURE( 1.000000000000000082E-05 ), #141, 'distance_accuracy_value', 'NONE');
#61 = AXIS2_PLACEMENT_3D ( 'NONE', #202, #173, #39 ) ;
#62 = EDGE_LOOP ( 'NONE', ( #286, #58 ) ) ;
#63 = LOCAL_TIME ( 9, 49, 23.00000000000000000, #284 ) ;
#64 = CARTESIAN_POINT ( 'NONE',  ( 3.840629472727446691E-14, 1.299999999999994715, 11.00000000000000000 ) ) ;
#65 = EDGE_CURVE ( 'NONE', #219, #4, #92, .T. ) ;
#66 = VERTEX_POINT ( 'NONE', #14 ) ;
#67 = CARTESIAN_POINT ( 'NONE',  ( 0.0000000000000000000, 0.0000000000000000000, 0.0000000000000000000 ) ) ;
#68 = LINE ( 'NONE', #18, #230 ) ;
#69 = EDGE_CURVE ( 'NONE', #271, #223, #197, .T. ) ;
#70 = AXIS2_PLACEMENT_3D ( 'NONE', #248, #300, #123 ) ;
#71 = DIRECTION ( 'NONE',  ( -3.491481338843133355E-15, 1.224646799147353207E-16, -1.000000000000000000 ) ) ;
#72 = ORIENTED_EDGE ( 'NONE', *, *, #95, .T. ) ;
#73 = DIRECTION ( 'NONE',  ( 0.0000000000000000000, 1.000000000000000000, 0.0000000000000000000 ) ) ;
#74 = EDGE_CURVE ( 'NONE', #201, #21, #224, .T. ) ;
#75 = EDGE_CURVE ( 'NONE', #321, #122, #37, .T. ) ;
#76 = AXIS2_PLACEMENT_3D ( 'NONE', #250, #277, #43 ) ;
#77 = VECTOR ( 'NONE', #294, 1000.000000000000000 ) ;
#78 = COORDINATED_UNIVERSAL_TIME_OFFSET ( 1, 0, .AHEAD. ) ;
#79 = LINE ( 'NONE', #115, #77 ) ;
#80 = PERSON_AND_ORGANIZATION ( #107, #316 ) ;
#81 = AXIS2_PLACEMENT_3D ( 'NONE', #83, #105, #263 ) ;
#82 = ORIENTED_EDGE ( 'NONE', *, *, #264, .F. ) ;
#83 = CARTESIAN_POINT ( 'NONE',  ( 3.840629472727446691E-14, 9.748438587302025187E-33, 11.00000000000000000 ) ) ;
#84 = APPROVAL_DATE_TIME ( #129, #184 ) ;
#85 = CARTESIAN_POINT ( 'NONE',  ( 5.558580879666037956E-31, 1.299999999999998046, 1.592040838891556630E-16 ) ) ;
#86 = APPLICATION_PROTOCOL_DEFINITION ( 'international standard', 'config_control_design', 1994, #324 ) ;
#87 = CARTESIAN_POINT ( 'NONE',  ( 1.501336975702547217E-13, -5.265981236333618470E-15, 43.00000000000000000 ) ) ;
#88 = EDGE_CURVE ( 'NONE', #177, #122, #68, .T. ) ;
#89 = CIRCLE ( 'NONE', #23, 1.299999999999994715 ) ;
#90 = ORIENTED_EDGE ( 'NONE', *, *, #150, .T. ) ;
#91 = AXIS2_PLACEMENT_3D ( 'NONE', #311, #188, #34 ) ;
#92 = LINE ( 'NONE', #172, #334 ) ;
#93 = ORIENTED_EDGE ( 'NONE', *, *, #74, .F. ) ;
#94 = EDGE_LOOP ( 'NONE', ( #245, #90, #52, #187 ) ) ;
#95 = EDGE_CURVE ( 'NONE', #21, #223, #296, .T. ) ;
#96 = AXIS2_PLACEMENT_3D ( 'NONE', #171, #244, #186 ) ;
#97 = DIRECTION ( 'NONE',  ( 2.962969145211144107E-31, 1.000000000000000000, 8.340016711426991034E-17 ) ) ;
#98 = ORIENTED_EDGE ( 'NONE', *, *, #74, .T. ) ;
#99 = ADVANCED_FACE ( 'NONE', ( #328 ), #275, .T. ) ;
#100 = APPROVAL_PERSON_ORGANIZATION ( #307, #302, #47 ) ;
#101 = ADVANCED_FACE ( 'NONE', ( #40 ), #19, .T. ) ;
#102 = VECTOR ( 'NONE', #5, 1000.000000000000000 ) ;
#103 = COORDINATED_UNIVERSAL_TIME_OFFSET ( 1, 0, .AHEAD. ) ;
#104 = DATE_AND_TIME ( #25, #190 ) ;
#105 = DIRECTION ( 'NONE',  ( 3.491481338843133355E-15, -1.224646799147353207E-16, 1.000000000000000000 ) ) ;
#106 = ADVANCED_FACE ( 'NONE', ( #146 ), #279, .T. ) ;
#107 = PERSON ( 'UNSPECIFIED', 'UNSPECIFIED', 'UNSPECIFIED', ('UNSPECIFIED'), ('UNSPECIFIED'), ('UNSPECIFIED') ) ;
#108 = ORIENTED_EDGE ( 'NONE', *, *, #65, .F. ) ;
#109 = DIRECTION ( 'NONE',  ( 0.0000000000000000000, 1.000000000000000000, 0.0000000000000000000 ) ) ;
#110 = VECTOR ( 'NONE', #325, 1000.000000000000000 ) ;
#111 = COORDINATED_UNIVERSAL_TIME_OFFSET ( 1, 0, .AHEAD. ) ;
#112 = CARTESIAN_POINT ( 'NONE',  ( 3.840629472727446691E-14, -1.347111479062088405E-15, 11.00000000000000000 ) ) ;
#113 = DIRECTION ( 'NONE',  ( 1.000000000000000000, 0.0000000000000000000, 0.0000000000000000000 ) ) ;
#114 = EDGE_CURVE ( 'NONE', #278, #122, #89, .T. ) ;
#115 = CARTESIAN_POINT ( 'NONE',  ( 1.592040838891548002E-16, -1.299999999999995381, -1.592040838891559095E-16 ) ) ;
#116 = EDGE_LOOP ( 'NONE', ( #160, #98, #170, #108 ) ) ;
#117 = DIRECTION ( 'NONE',  ( 0.0000000000000000000, 1.000000000000000000, 0.0000000000000000000 ) ) ;
#118 = CARTESIAN_POINT ( 'NONE',  ( 9.390547803182709885E-14, -1.300000000000005373, 42.69999999999999574 ) ) ;
#119 = SECURITY_CLASSIFICATION ( '', '', #233 ) ;
#120 = ORIENTED_EDGE ( 'NONE', *, *, #17, .F. ) ;
#121 = ADVANCED_FACE ( 'NONE', ( #204 ), #152, .T. ) ;
#122 = VERTEX_POINT ( 'NONE', #126 ) ;
#123 = DIRECTION ( 'NONE',  ( 0.0000000000000000000, 1.000000000000000000, 0.0000000000000000000 ) ) ;
#124 = AXIS2_PLACEMENT_3D ( 'NONE', #228, #333, #73 ) ;
#125 = CARTESIAN_POINT ( 'NONE',  ( 1.490862531686017753E-13, 1.299999999999994715, 42.69999999999999574 ) ) ;
#126 = CARTESIAN_POINT ( 'NONE',  ( 2.886465814043772894E-15, 1.299999999999994715, 0.7811188047358339492 ) ) ;
#127 = CC_DESIGN_APPROVAL ( #38, ( #232 ) ) ;
#128 =( GEOMETRIC_REPRESENTATION_CONTEXT ( 3 ) GLOBAL_UNCERTAINTY_ASSIGNED_CONTEXT ( ( #60 ) ) GLOBAL_UNIT_ASSIGNED_CONTEXT ( ( #141, #209, #132 ) ) REPRESENTATION_CONTEXT ( 'NONE', 'WORKASPACE' ) );
#129 = DATE_AND_TIME ( #24, #26 ) ;
#130 = CLOSED_SHELL ( 'NONE', ( #106, #99, #308, #270, #174, #280 ) ) ;
#131 = CIRCLE ( 'NONE', #124, 1.300000000000000044 ) ;
#132 =( NAMED_UNIT ( * ) SI_UNIT ( $, .STERADIAN. ) SOLID_ANGLE_UNIT ( ) );
#133 = EDGE_LOOP ( 'NONE', ( #319, #274, #120, #293 ) ) ;
#134 = DIRECTION ( 'NONE',  ( 0.0000000000000000000, 1.000000000000000000, 0.0000000000000000000 ) ) ;
#135 = CC_DESIGN_PERSON_AND_ORGANIZATION_ASSIGNMENT ( #215, #155, ( #335 ) ) ;
#136 = SHAPE_DEFINITION_REPRESENTATION ( #282, #299 ) ;
#137 = ORIENTED_EDGE ( 'NONE', *, *, #206, .F. ) ;
#138 = CARTESIAN_POINT ( 'NONE',  ( 1.501336975702547217E-13, -5.265981236333618470E-15, 43.00000000000000000 ) ) ;
#139 = PERSON_AND_ORGANIZATION_ROLE ( 'design_owner' ) ;
#140 = CARTESIAN_POINT ( 'NONE',  ( 1.497508097513302028E-13, -1.000000000000005329, 43.00000000000000000 ) ) ;
#141 =( LENGTH_UNIT ( ) NAMED_UNIT ( * ) SI_UNIT ( .MILLI., .METRE. ) );
#142 = DIRECTION ( 'NONE',  ( -3.491481338843133355E-15, 1.224646799147353207E-16, -1.000000000000000000 ) ) ;
#143 = EDGE_LOOP ( 'NONE', ( #166, #238, #192 ) ) ;
#144 = DIRECTION ( 'NONE',  ( 0.0000000000000000000, 1.000000000000000000, 0.0000000000000000000 ) ) ;
#145 = DIRECTION ( 'NONE',  ( -2.468850131082271655E-15, 0.7071067811865455743, -0.7071067811865493491 ) ) ;
#146 = FACE_OUTER_BOUND ( 'NONE', #116, .T. ) ;
#147 = AXIS2_PLACEMENT_3D ( 'NONE', #157, #239, #211 ) ;
#148 = DIRECTION ( 'NONE',  ( 4.275831445896958607E-31, 1.000000000000000000, 1.224646799147353207E-16 ) ) ;
#149 = DIRECTION ( 'NONE',  ( 0.0000000000000000000, 1.000000000000000000, 0.0000000000000000000 ) ) ;
#150 = EDGE_CURVE ( 'NONE', #21, #4, #131, .T. ) ;
#151 = CARTESIAN_POINT ( 'NONE',  ( 5.558580879666026570E-31, 1.299999999999995381, 1.592040838891553425E-16 ) ) ;
#152 = CYLINDRICAL_SURFACE ( 'NONE', #283, 1.299999999999995381 ) ;
#153 = CONICAL_SURFACE ( 'NONE', #305, 1.000000000000000000, 0.7853981633974453924 ) ;
#154 = CALENDAR_DATE ( 2021, 3, 9 ) ;
#155 = PERSON_AND_ORGANIZATION_ROLE ( 'design_supplier' ) ;
#156 = EDGE_CURVE ( 'NONE', #177, #278, #29, .T. ) ;
#157 = CARTESIAN_POINT ( 'NONE',  ( 0.0000000000000000000, 0.0000000000000000000, 0.0000000000000000000 ) ) ;
#158 = AXIS2_PLACEMENT_3D ( 'NONE', #87, #290, #59 ) ;
#159 = CALENDAR_DATE ( 2021, 3, 9 ) ;
#160 = ORIENTED_EDGE ( 'NONE', *, *, #164, .T. ) ;
#161 = DIRECTION ( 'NONE',  ( -4.275831445896958607E-31, -1.000000000000000000, -1.224646799147353207E-16 ) ) ;
#162 = PERSON_AND_ORGANIZATION ( #107, #316 ) ;
#163 = CYLINDRICAL_SURFACE ( 'NONE', #147, 1.299999999999998046 ) ;
#164 = EDGE_CURVE ( 'NONE', #219, #201, #306, .T. ) ;
#165 = MECHANICAL_CONTEXT ( 'NONE', #304, 'mechanical' ) ;
#166 = ORIENTED_EDGE ( 'NONE', *, *, #88, .F. ) ;
#167 = FACE_OUTER_BOUND ( 'NONE', #222, .T. ) ;
#168 = CONICAL_SURFACE ( 'NONE', #76, 1.299999999999994715, 1.029744258676649649 ) ;
#169 = CIRCLE ( 'NONE', #20, 1.300000000000000044 ) ;
#170 = ORIENTED_EDGE ( 'NONE', *, *, #291, .F. ) ;
#171 = CARTESIAN_POINT ( 'NONE',  ( 3.840629472727446691E-14, -1.347111479062088405E-15, 11.00000000000000000 ) ) ;
#172 = CARTESIAN_POINT ( 'NONE',  ( 1.501336975702547217E-13, 0.9999999999999947820, 43.00000000000000000 ) ) ;
#173 = DIRECTION ( 'NONE',  ( 3.491481338843133355E-15, -1.224646799147353207E-16, 1.000000000000000000 ) ) ;
#174 = ADVANCED_FACE ( 'NONE', ( #31 ), #153, .T. ) ;
#175 = VECTOR ( 'NONE', #176, 1000.000000000000000 ) ;
#176 = DIRECTION ( 'NONE',  ( -3.491481338843133355E-15, 1.224646799147353207E-16, -1.000000000000000000 ) ) ;
#177 = VERTEX_POINT ( 'NONE', #267 ) ;
#178 = CC_DESIGN_PERSON_AND_ORGANIZATION_ASSIGNMENT ( #80, #195, ( #232 ) ) ;
#179 = ORIENTED_EDGE ( 'NONE', *, *, #75, .T. ) ;
#180 = CARTESIAN_POINT ( 'NONE',  ( 2.727261730154617280E-15, -9.565946439735452651E-17, 0.7811188047358338382 ) ) ;
#181 = CIRCLE ( 'NONE', #96, 1.299999999999996048 ) ;
#182 = CC_DESIGN_DATE_AND_TIME_ASSIGNMENT ( #235, #191, ( #232 ) ) ;
#183 = CC_DESIGN_SECURITY_CLASSIFICATION ( #119, ( #335 ) ) ;
#184 = APPROVAL ( #54, 'UNSPECIFIED' ) ;
#185 = APPROVAL_STATUS ( 'not_yet_approved' ) ;
#186 = DIRECTION ( 'NONE',  ( 0.0000000000000000000, 1.000000000000000000, 0.0000000000000000000 ) ) ;
#187 = ORIENTED_EDGE ( 'NONE', *, *, #199, .F. ) ;
#188 = DIRECTION ( 'NONE',  ( -3.491481338843133355E-15, 1.224646799147353207E-16, -1.000000000000000000 ) ) ;
#189 = VECTOR ( 'NONE', #297, 1000.000000000000000 ) ;
#190 = LOCAL_TIME ( 9, 49, 23.00000000000000000, #257 ) ;
#191 = DATE_TIME_ROLE ( 'creation_date' ) ;
#192 = ORIENTED_EDGE ( 'NONE', *, *, #114, .T. ) ;
#193 = FACE_OUTER_BOUND ( 'NONE', #133, .T. ) ;
#194 = DIRECTION ( 'NONE',  ( -3.491481338843133355E-15, 1.224646799147353207E-16, -1.000000000000000000 ) ) ;
#195 = PERSON_AND_ORGANIZATION_ROLE ( 'creator' ) ;
#196 = CARTESIAN_POINT ( 'NONE',  ( 3.840629472727446691E-14, 9.748438587302025187E-33, 11.00000000000000000 ) ) ;
#197 = CIRCLE ( 'NONE', #225, 1.299999999999996048 ) ;
#198 = ORIENTED_EDGE ( 'NONE', *, *, #17, .T. ) ;
#199 = EDGE_CURVE ( 'NONE', #223, #271, #231, .T. ) ;
#200 = CARTESIAN_POINT ( 'NONE',  ( 2.727261730154617280E-15, -9.565946439735452651E-17, 0.7811188047358338382 ) ) ;
#201 = VERTEX_POINT ( 'NONE', #140 ) ;
#202 = CARTESIAN_POINT ( 'NONE',  ( 2.727261730154617280E-15, -9.565946439735452651E-17, 0.7811188047358338382 ) ) ;
#203 = DIRECTION ( 'NONE',  ( -3.491481338843133355E-15, 1.224646799147353207E-16, -1.000000000000000000 ) ) ;
#204 = FACE_OUTER_BOUND ( 'NONE', #28, .T. ) ;
#205 = AXIS2_PLACEMENT_3D ( 'NONE', #138, #11, #117 ) ;
#206 = EDGE_CURVE ( 'NONE', #321, #66, #234, .T. ) ;
#207 = CC_DESIGN_PERSON_AND_ORGANIZATION_ASSIGNMENT ( #309, #317, ( #119 ) ) ;
#208 = AXIS2_PLACEMENT_3D ( 'NONE', #196, #287, #161 ) ;
#209 =( NAMED_UNIT ( * ) PLANE_ANGLE_UNIT ( ) SI_UNIT ( $, .RADIAN. ) );
#210 = APPROVAL_DATE_TIME ( #104, #302 ) ;
#211 = DIRECTION ( 'NONE',  ( 4.275831445896958607E-31, 1.000000000000000000, 1.224646799147353207E-16 ) ) ;
#212 = PERSON_AND_ORGANIZATION ( #107, #316 ) ;
#213 = ORIENTED_EDGE ( 'NONE', *, *, #150, .F. ) ;
#214 = CARTESIAN_POINT ( 'NONE',  ( 2.727261730154616885E-15, -1.299999999999994715, 0.7811188047358337272 ) ) ;
#215 = PERSON_AND_ORGANIZATION ( #107, #316 ) ;
#216 = FACE_OUTER_BOUND ( 'NONE', #241, .T. ) ;
#217 = EDGE_LOOP ( 'NONE', ( #1, #72, #10, #82 ) ) ;
#218 = CARTESIAN_POINT ( 'NONE',  ( 1.501336975702547217E-13, 0.9999999999999947820, 43.00000000000000000 ) ) ;
#219 = VERTEX_POINT ( 'NONE', #218 ) ;
#220 = CARTESIAN_POINT ( 'NONE',  ( 3.840629472727446691E-14, 1.299999999999994715, 11.00000000000000000 ) ) ;
#221 = AXIS2_PLACEMENT_3D ( 'NONE', #256, #32, #113 ) ;
#222 = EDGE_LOOP ( 'NONE', ( #258, #236 ) ) ;
#223 = VERTEX_POINT ( 'NONE', #285 ) ;
#224 = LINE ( 'NONE', #273, #189 ) ;
#225 = AXIS2_PLACEMENT_3D ( 'NONE', #295, #71, #149 ) ;
#226 = CARTESIAN_POINT ( 'NONE',  ( 1.592040838891551453E-16, -1.299999999999998046, -1.592040838891562300E-16 ) ) ;
#227 = FACE_OUTER_BOUND ( 'NONE', #143, .T. ) ;
#228 = CARTESIAN_POINT ( 'NONE',  ( 1.490862531686017753E-13, -5.229241832359197610E-15, 42.69999999999999574 ) ) ;
#229 = ADVANCED_FACE ( 'NONE', ( #216 ), #2, .T. ) ;
#230 = VECTOR ( 'NONE', #252, 999.9999999999998863 ) ;
#231 = CIRCLE ( 'NONE', #13, 1.299999999999996048 ) ;
#232 = PRODUCT_DEFINITION ( 'UNKNOWN', '', #335, #268 ) ;
#233 = SECURITY_CLASSIFICATION_LEVEL ( 'unclassified' ) ;
#234 = CIRCLE ( 'NONE', #44, 1.299999999999996048 ) ;
#235 = DATE_AND_TIME ( #159, #314 ) ;
#236 = ORIENTED_EDGE ( 'NONE', *, *, #276, .F. ) ;
#237 = CARTESIAN_POINT ( 'NONE',  ( 3.840629472727446691E-14, -1.347111479062088405E-15, 11.00000000000000000 ) ) ;
#238 = ORIENTED_EDGE ( 'NONE', *, *, #156, .T. ) ;
#239 = DIRECTION ( 'NONE',  ( -3.491481338843133355E-15, 1.224646799147353207E-16, -1.000000000000000000 ) ) ;
#240 = DIRECTION ( 'NONE',  ( 0.0000000000000000000, 1.000000000000000000, 0.0000000000000000000 ) ) ;
#241 = EDGE_LOOP ( 'NONE', ( #137, #301 ) ) ;
#242 = CARTESIAN_POINT ( 'NONE',  ( 1.490862531686017753E-13, -5.229241832359197610E-15, 42.69999999999999574 ) ) ;
#243 = ADVANCED_FACE ( 'NONE', ( #193 ), #318, .T. ) ;
#244 = DIRECTION ( 'NONE',  ( -3.491481338843133355E-15, 1.224646799147353207E-16, -1.000000000000000000 ) ) ;
#245 = ORIENTED_EDGE ( 'NONE', *, *, #95, .F. ) ;
#246 = MANIFOLD_SOLID_BREP ( 'Corps-Déplacer/Copier1[1]', #130 ) ;
#247 = LOCAL_TIME ( 9, 49, 23.00000000000000000, #78 ) ;
#248 = CARTESIAN_POINT ( 'NONE',  ( 1.501336975702547217E-13, -5.265981236333618470E-15, 43.00000000000000000 ) ) ;
#249 = DIRECTION ( 'NONE',  ( -3.491481338843133355E-15, 1.224646799147353207E-16, -1.000000000000000000 ) ) ;
#250 = CARTESIAN_POINT ( 'NONE',  ( 2.727261730154617280E-15, -9.565946439735452651E-17, 0.7811188047358338382 ) ) ;
#251 = APPROVAL_PERSON_ORGANIZATION ( #212, #184, #3 ) ;
#252 = DIRECTION ( 'NONE',  ( 1.903218546456022717E-15, 0.8571673007021097801, 0.5150380749100585964 ) ) ;
#253 = CARTESIAN_POINT ( 'NONE',  ( 0.0000000000000000000, 0.0000000000000000000, 0.0000000000000000000 ) ) ;
#254 = AXIS2_PLACEMENT_3D ( 'NONE', #200, #249, #97 ) ;
#255 = CIRCLE ( 'NONE', #158, 1.000000000000000000 ) ;
#256 = CARTESIAN_POINT ( 'NONE',  ( 0.0000000000000000000, 0.0000000000000000000, 0.0000000000000000000 ) ) ;
#257 = COORDINATED_UNIVERSAL_TIME_OFFSET ( 1, 0, .AHEAD. ) ;
#258 = ORIENTED_EDGE ( 'NONE', *, *, #164, .F. ) ;
#259 = CARTESIAN_POINT ( 'NONE',  ( 2.727261730154616885E-15, -1.299999999999994715, 0.7811188047358337272 ) ) ;
#260 = CC_DESIGN_APPROVAL ( #184, ( #335 ) ) ;
#261 = CALENDAR_DATE ( 2021, 3, 9 ) ;
#262 = ORIENTED_EDGE ( 'NONE', *, *, #156, .F. ) ;
#263 = DIRECTION ( 'NONE',  ( -4.275831445896958607E-31, -1.000000000000000000, -1.224646799147353207E-16 ) ) ;
#264 = EDGE_CURVE ( 'NONE', #4, #271, #48, .T. ) ;
#265 = APPLICATION_PROTOCOL_DEFINITION ( 'international standard', 'config_control_design', 1994, #304 ) ;
#266 = DIRECTION ( 'NONE',  ( 4.275831445896958607E-31, 1.000000000000000000, 1.224646799147353207E-16 ) ) ;
#267 = CARTESIAN_POINT ( 'NONE',  ( 0.0000000000000000000, 0.0000000000000000000, 0.0000000000000000000 ) ) ;
#268 = DESIGN_CONTEXT ( 'detailed design', #324, 'design' ) ;
#269 = AXIS2_PLACEMENT_3D ( 'NONE', #67, #203, #148 ) ;
#270 = ADVANCED_FACE ( 'NONE', ( #55 ), #163, .T. ) ;
#271 = VERTEX_POINT ( 'NONE', #220 ) ;
#272 = DIRECTION ( 'NONE',  ( -3.491481338843133355E-15, 1.224646799147353207E-16, -1.000000000000000000 ) ) ;
#273 = CARTESIAN_POINT ( 'NONE',  ( 1.502561622501694568E-13, -1.000000000000005329, 43.00000000000000000 ) ) ;
#274 = ORIENTED_EDGE ( 'NONE', *, *, #298, .T. ) ;
#275 = CYLINDRICAL_SURFACE ( 'NONE', #269, 1.299999999999998046 ) ;
#276 = EDGE_CURVE ( 'NONE', #201, #219, #255, .T. ) ;
#277 = DIRECTION ( 'NONE',  ( 3.491481338843133355E-15, -1.224646799147353207E-16, 1.000000000000000000 ) ) ;
#278 = VERTEX_POINT ( 'NONE', #259 ) ;
#279 = CONICAL_SURFACE ( 'NONE', #70, 1.000000000000000000, 0.7853981633974453924 ) ;
#280 = ADVANCED_FACE ( 'NONE', ( #167 ), #322, .F. ) ;
#281 = DIRECTION ( 'NONE',  ( -3.491481338843133355E-15, 1.224646799147353207E-16, -1.000000000000000000 ) ) ;
#282 = PRODUCT_DEFINITION_SHAPE ( 'NONE', 'NONE',  #232 ) ;
#283 = AXIS2_PLACEMENT_3D ( 'NONE', #253, #281, #22 ) ;
#284 = COORDINATED_UNIVERSAL_TIME_OFFSET ( 1, 0, .AHEAD. ) ;
#285 = CARTESIAN_POINT ( 'NONE',  ( 9.390547803182723769E-14, -1.299999999999997380, 11.00000000000000000 ) ) ;
#286 = ORIENTED_EDGE ( 'NONE', *, *, #69, .T. ) ;
#287 = DIRECTION ( 'NONE',  ( 3.491481338843133355E-15, -1.224646799147353207E-16, 1.000000000000000000 ) ) ;
#288 = CC_DESIGN_APPROVAL ( #302, ( #119 ) ) ;
#289 = DATE_AND_TIME ( #261, #247 ) ;
#290 = DIRECTION ( 'NONE',  ( -3.491481338843133355E-15, 1.224646799147353207E-16, -1.000000000000000000 ) ) ;
#291 = EDGE_CURVE ( 'NONE', #4, #21, #169, .T. ) ;
#292 = PERSON_AND_ORGANIZATION_ROLE ( 'creator' ) ;
#293 = ORIENTED_EDGE ( 'NONE', *, *, #75, .F. ) ;
#294 = DIRECTION ( 'NONE',  ( -3.491481338843133355E-15, 1.224646799147353207E-16, -1.000000000000000000 ) ) ;
#295 = CARTESIAN_POINT ( 'NONE',  ( 3.840629472727446691E-14, -1.347111479062088405E-15, 11.00000000000000000 ) ) ;
#296 = LINE ( 'NONE', #226, #175 ) ;
#297 = DIRECTION ( 'NONE',  ( -2.382254525458723780E-15, -0.7071067811865453523, -0.7071067811865496822 ) ) ;
#298 = EDGE_CURVE ( 'NONE', #66, #278, #79, .T. ) ;
#299 = ADVANCED_BREP_SHAPE_REPRESENTATION ( '54535', ( #246, #27, #221 ), #128 ) ;
#300 = DIRECTION ( 'NONE',  ( -3.491481338843133355E-15, 1.224646799147353207E-16, -1.000000000000000000 ) ) ;
#301 = ORIENTED_EDGE ( 'NONE', *, *, #326, .F. ) ;
#302 = APPROVAL ( #185, 'UNSPECIFIED' ) ;
#303 = DIRECTION ( 'NONE',  ( -3.491481338843133355E-15, 1.224646799147353207E-16, -1.000000000000000000 ) ) ;
#304 = APPLICATION_CONTEXT ( 'configuration controlled 3d designs of mechanical parts and assemblies' ) ;
#305 = AXIS2_PLACEMENT_3D ( 'NONE', #33, #142, #109 ) ;
#306 = CIRCLE ( 'NONE', #205, 1.000000000000000000 ) ;
#307 = PERSON_AND_ORGANIZATION ( #107, #316 ) ;
#308 = ADVANCED_FACE ( 'NONE', ( #53 ), #320, .F. ) ;
#309 = PERSON_AND_ORGANIZATION ( #107, #316 ) ;
#310 = ORIENTED_EDGE ( 'NONE', *, *, #276, .T. ) ;
#311 = CARTESIAN_POINT ( 'NONE',  ( 1.501336975702547217E-13, 7.498798913309210037E-33, 43.00000000000000000 ) ) ;
#312 = APPROVAL_STATUS ( 'not_yet_approved' ) ;
#313 = CIRCLE ( 'NONE', #254, 1.299999999999994715 ) ;
#314 = LOCAL_TIME ( 9, 49, 23.00000000000000000, #103 ) ;
#315 = DIRECTION ( 'NONE',  ( -3.491481338843133355E-15, 1.224646799147353207E-16, -1.000000000000000000 ) ) ;
#316 = ORGANIZATION ( 'UNSPECIFIED', 'UNSPECIFIED', '' ) ;
#317 = PERSON_AND_ORGANIZATION_ROLE ( 'classification_officer' ) ;
#318 = CYLINDRICAL_SURFACE ( 'NONE', #329, 1.299999999999995381 ) ;
#319 = ORIENTED_EDGE ( 'NONE', *, *, #206, .T. ) ;
#320 = PLANE ( 'NONE',  #208 ) ;
#321 = VERTEX_POINT ( 'NONE', #64 ) ;
#322 = PLANE ( 'NONE',  #91 ) ;
#323 = VECTOR ( 'NONE', #194, 1000.000000000000000 ) ;
#324 = APPLICATION_CONTEXT ( 'configuration controlled 3d designs of mechanical parts and assemblies' ) ;
#325 = DIRECTION ( 'NONE',  ( -3.491481338843133355E-15, 1.224646799147353207E-16, -1.000000000000000000 ) ) ;
#326 = EDGE_CURVE ( 'NONE', #66, #321, #181, .T. ) ;
#327 = ORIENTED_EDGE ( 'NONE', *, *, #114, .F. ) ;
#328 = FACE_OUTER_BOUND ( 'NONE', #217, .T. ) ;
#329 = AXIS2_PLACEMENT_3D ( 'NONE', #36, #8, #266 ) ;
#330 = ORIENTED_EDGE ( 'NONE', *, *, #88, .T. ) ;
#331 = CC_DESIGN_PERSON_AND_ORGANIZATION_ASSIGNMENT ( #162, #292, ( #335 ) ) ;
#332 = EDGE_LOOP ( 'NONE', ( #93, #310, #42, #213 ) ) ;
#333 = DIRECTION ( 'NONE',  ( -3.491481338843133355E-15, 1.224646799147353207E-16, -1.000000000000000000 ) ) ;
#334 = VECTOR ( 'NONE', #145, 1000.000000000000114 ) ;
#335 = PRODUCT_DEFINITION_FORMATION_WITH_SPECIFIED_SOURCE ( 'ANY', '', #16, .NOT_KNOWN. ) ;
#336 = PERSON_AND_ORGANIZATION ( #107, #316 ) ;
#337 = PERSON_AND_ORGANIZATION ( #107, #316 ) ;
ENDSEC;
END-ISO-10303-21;
