ISO-10303-21;
HEADER;
FILE_DESCRIPTION (( 'STEP AP203' ),
    '1' );
FILE_NAME ('54534.step',
    '2021-09-03T07:49:21',
    ( '' ),
    ( '' ),
    'SwSTEP 2.0',
    'SolidWorks 2019',
    '' );
FILE_SCHEMA (( 'CONFIG_CONTROL_DESIGN' ));
ENDSEC;

DATA;
#1 = PLANE ( 'NONE',  #203 ) ;
#2 = PERSON_AND_ORGANIZATION ( #337, #48 ) ;
#3 = CARTESIAN_POINT ( 'NONE',  ( 3.840629472727446691E-14, -1.347111479062088405E-15, 11.00000000000000000 ) ) ;
#4 = CALENDAR_DATE ( 2021, 3, 9 ) ;
#5 = EDGE_CURVE ( 'NONE', #46, #305, #212, .T. ) ;
#6 = CARTESIAN_POINT ( 'NONE',  ( 2.830956856081392547E-15, 1.274999999999994582, 0.7660972892601447537 ) ) ;
#7 = PERSON_AND_ORGANIZATION_ROLE ( 'classification_officer' ) ;
#8 = DIRECTION ( 'NONE',  ( -3.491481338843133355E-15, 1.224646799147353207E-16, -1.000000000000000000 ) ) ;
#9 = DIRECTION ( 'NONE',  ( -3.491481338843133355E-15, 1.224646799147353207E-16, -1.000000000000000000 ) ) ;
#10 = CALENDAR_DATE ( 2021, 3, 9 ) ;
#11 = ORIENTED_EDGE ( 'NONE', *, *, #49, .F. ) ;
#12 = APPLICATION_PROTOCOL_DEFINITION ( 'international standard', 'config_control_design', 1994, #97 ) ;
#13 = CARTESIAN_POINT ( 'NONE',  ( 0.0000000000000000000, 0.0000000000000000000, 0.0000000000000000000 ) ) ;
#14 = CARTESIAN_POINT ( 'NONE',  ( 1.490862531686017753E-13, -5.229241832359197610E-15, 42.69999999999999574 ) ) ;
#15 = ORIENTED_EDGE ( 'NONE', *, *, #211, .T. ) ;
#16 = CC_DESIGN_PERSON_AND_ORGANIZATION_ASSIGNMENT ( #162, #308, ( #317 ) ) ;
#17 = AXIS2_PLACEMENT_3D ( 'NONE', #169, #292, #325 ) ;
#18 = CARTESIAN_POINT ( 'NONE',  ( 3.840629472727446691E-14, 1.274999999999994582, 11.00000000000000000 ) ) ;
#19 = DIRECTION ( 'NONE',  ( 3.021066579430971115E-31, 1.000000000000000000, 8.503546450866737793E-17 ) ) ;
#20 = CARTESIAN_POINT ( 'NONE',  ( 3.840629472727446691E-14, -1.347111479062088405E-15, 11.00000000000000000 ) ) ;
#21 = EDGE_CURVE ( 'NONE', #303, #46, #326, .T. ) ;
#22 = ORIENTED_EDGE ( 'NONE', *, *, #49, .T. ) ;
#23 = DATE_AND_TIME ( #251, #96 ) ;
#24 = VERTEX_POINT ( 'NONE', #200 ) ;
#25 = VERTEX_POINT ( 'NONE', #173 ) ;
#26 = PRODUCT_DEFINITION_SHAPE ( 'NONE', 'NONE',  #317 ) ;
#27 = AXIS2_PLACEMENT_3D ( 'NONE', #3, #158, #57 ) ;
#28 = DIRECTION ( 'NONE',  ( 4.275831445896958607E-31, 1.000000000000000000, 1.224646799147353207E-16 ) ) ;
#29 = CARTESIAN_POINT ( 'NONE',  ( 0.0000000000000000000, 0.0000000000000000000, 0.0000000000000000000 ) ) ;
#30 = DATE_TIME_ROLE ( 'classification_date' ) ;
#31 = CARTESIAN_POINT ( 'NONE',  ( 1.501336975702547217E-13, -5.265981236333618470E-15, 43.00000000000000000 ) ) ;
#32 = CONICAL_SURFACE ( 'NONE', #240, 1.274999999999994582, 1.029744258676649649 ) ;
#33 = CARTESIAN_POINT ( 'NONE',  ( 3.840629472727446691E-14, 9.560968614469292986E-33, 11.00000000000000000 ) ) ;
#34 = APPROVAL_STATUS ( 'not_yet_approved' ) ;
#35 = CARTESIAN_POINT ( 'NONE',  ( 1.501336975702547217E-13, 0.9749999999999947597, 43.00000000000000000 ) ) ;
#36 = COORDINATED_UNIVERSAL_TIME_OFFSET ( 1, 0, .AHEAD. ) ;
#37 = VECTOR ( 'NONE', #92, 1000.000000000000000 ) ;
#38 = CARTESIAN_POINT ( 'NONE',  ( 1.501336975702547217E-13, 0.9749999999999947597, 43.00000000000000000 ) ) ;
#39 = DIRECTION ( 'NONE',  ( -4.275831445896958607E-31, -1.000000000000000000, -1.224646799147353207E-16 ) ) ;
#40 = DIRECTION ( 'NONE',  ( 0.0000000000000000000, 1.000000000000000000, 0.0000000000000000000 ) ) ;
#41 = ORIENTED_EDGE ( 'NONE', *, *, #329, .T. ) ;
#42 =( GEOMETRIC_REPRESENTATION_CONTEXT ( 3 ) GLOBAL_UNCERTAINTY_ASSIGNED_CONTEXT ( ( #59 ) ) GLOBAL_UNIT_ASSIGNED_CONTEXT ( ( #271, #110, #245 ) ) REPRESENTATION_CONTEXT ( 'NONE', 'WORKASPACE' ) );
#43 = EDGE_LOOP ( 'NONE', ( #198, #76 ) ) ;
#44 = ADVANCED_FACE ( 'NONE', ( #302 ), #32, .T. ) ;
#45 = ORIENTED_EDGE ( 'NONE', *, *, #71, .T. ) ;
#46 = VERTEX_POINT ( 'NONE', #156 ) ;
#47 = CIRCLE ( 'NONE', #295, 1.274999999999995914 ) ;
#48 = ORGANIZATION ( 'UNSPECIFIED', 'UNSPECIFIED', '' ) ;
#49 = EDGE_CURVE ( 'NONE', #25, #303, #288, .T. ) ;
#50 = CARTESIAN_POINT ( 'NONE',  ( 1.501336975702547217E-13, -5.265981236333618470E-15, 43.00000000000000000 ) ) ;
#51 = DATE_AND_TIME ( #159, #204 ) ;
#52 = CONICAL_SURFACE ( 'NONE', #301, 0.9750000000000000888, 0.7853981633974452814 ) ;
#53 = LINE ( 'NONE', #6, #184 ) ;
#54 = COORDINATED_UNIVERSAL_TIME_OFFSET ( 1, 0, .AHEAD. ) ;
#55 = DIRECTION ( 'NONE',  ( -3.491481338843133355E-15, 1.224646799147353207E-16, -1.000000000000000000 ) ) ;
#56 = COORDINATED_UNIVERSAL_TIME_OFFSET ( 1, 0, .AHEAD. ) ;
#57 = DIRECTION ( 'NONE',  ( 0.0000000000000000000, 1.000000000000000000, 0.0000000000000000000 ) ) ;
#58 = CALENDAR_DATE ( 2021, 3, 9 ) ;
#59 = UNCERTAINTY_MEASURE_WITH_UNIT (LENGTH_MEASURE( 1.000000000000000082E-05 ), #271, 'distance_accuracy_value', 'NONE');
#60 = CIRCLE ( 'NONE', #174, 0.9750000000000000888 ) ;
#61 = DIRECTION ( 'NONE',  ( 0.0000000000000000000, 1.000000000000000000, 0.0000000000000000000 ) ) ;
#62 = DIRECTION ( 'NONE',  ( -2.382254525458724175E-15, -0.7071067811865452413, -0.7071067811865497932 ) ) ;
#63 = ADVANCED_FACE ( 'NONE', ( #289 ), #124, .T. ) ;
#64 = CARTESIAN_POINT ( 'NONE',  ( 2.674814389190104681E-15, -1.274999999999994582, 0.7660972892601445317 ) ) ;
#65 = CIRCLE ( 'NONE', #152, 1.274999999999999911 ) ;
#66 = LINE ( 'NONE', #319, #315 ) ;
#67 = DIRECTION ( 'NONE',  ( -3.021066579430971115E-31, -1.000000000000000000, -8.503546450866737793E-17 ) ) ;
#68 = ORIENTED_EDGE ( 'NONE', *, *, #157, .T. ) ;
#69 = CARTESIAN_POINT ( 'NONE',  ( 2.674814389190104681E-15, -1.274999999999994582, 0.7660972892601445317 ) ) ;
#70 = ORIENTED_EDGE ( 'NONE', *, *, #130, .F. ) ;
#71 = EDGE_CURVE ( 'NONE', #179, #24, #80, .T. ) ;
#72 = CIRCLE ( 'NONE', #132, 0.9750000000000000888 ) ;
#73 = APPLICATION_PROTOCOL_DEFINITION ( 'international standard', 'config_control_design', 1994, #205 ) ;
#74 = CARTESIAN_POINT ( 'NONE',  ( 2.674814389190105075E-15, -9.381985931279001212E-17, 0.7660972892601446427 ) ) ;
#75 = ORIENTED_EDGE ( 'NONE', *, *, #183, .F. ) ;
#76 = ORIENTED_EDGE ( 'NONE', *, *, #181, .F. ) ;
#77 = ADVANCED_FACE ( 'NONE', ( #214 ), #282, .T. ) ;
#78 = CARTESIAN_POINT ( 'NONE',  ( 1.497477481343323287E-13, -0.9750000000000054179, 43.00000000000000000 ) ) ;
#79 = LOCAL_TIME ( 9, 49, 21.00000000000000000, #109 ) ;
#80 = LINE ( 'NONE', #131, #280 ) ;
#81 = PERSON_AND_ORGANIZATION ( #337, #48 ) ;
#82 = DIRECTION ( 'NONE',  ( -3.021066579430971115E-31, -1.000000000000000000, -8.503546450866737793E-17 ) ) ;
#83 = SHAPE_DEFINITION_REPRESENTATION ( #26, #220 ) ;
#84 = DIRECTION ( 'NONE',  ( -3.491481338843133355E-15, 1.224646799147353207E-16, -1.000000000000000000 ) ) ;
#85 = EDGE_CURVE ( 'NONE', #305, #46, #331, .T. ) ;
#86 = CARTESIAN_POINT ( 'NONE',  ( 1.490862531686017753E-13, 1.274999999999994582, 42.69999999999999574 ) ) ;
#87 = LINE ( 'NONE', #69, #192 ) ;
#88 = CLOSED_SHELL ( 'NONE', ( #63, #77, #232, #208, #257, #138 ) ) ;
#89 = CYLINDRICAL_SURFACE ( 'NONE', #196, 1.274999999999995248 ) ;
#90 = VERTEX_POINT ( 'NONE', #86 ) ;
#91 = DIRECTION ( 'NONE',  ( -3.491481338843133355E-15, 1.224646799147353207E-16, -1.000000000000000000 ) ) ;
#92 = DIRECTION ( 'NONE',  ( -3.491481338843133355E-15, 1.224646799147353207E-16, -1.000000000000000000 ) ) ;
#93 = CYLINDRICAL_SURFACE ( 'NONE', #17, 1.274999999999995248 ) ;
#94 = ORIENTED_EDGE ( 'NONE', *, *, #5, .F. ) ;
#95 = AXIS2_PLACEMENT_3D ( 'NONE', #316, #210, #189 ) ;
#96 = LOCAL_TIME ( 9, 49, 21.00000000000000000, #148 ) ;
#97 = APPLICATION_CONTEXT ( 'configuration controlled 3d designs of mechanical parts and assemblies' ) ;
#98 = ORIENTED_EDGE ( 'NONE', *, *, #142, .F. ) ;
#99 = ORIENTED_EDGE ( 'NONE', *, *, #291, .T. ) ;
#100 = CARTESIAN_POINT ( 'NONE',  ( 9.390241641482923741E-14, -1.275000000000005018, 42.69999999999999574 ) ) ;
#101 = CARTESIAN_POINT ( 'NONE',  ( 1.501336975702547217E-13, 7.311328940476477836E-33, 43.00000000000000000 ) ) ;
#102 = CLOSED_SHELL ( 'NONE', ( #276, #44, #293, #314, #177 ) ) ;
#103 = DIRECTION ( 'NONE',  ( -3.491481338843133355E-15, 1.224646799147353207E-16, -1.000000000000000000 ) ) ;
#104 = DATE_AND_TIME ( #58, #272 ) ;
#105 = APPROVAL ( #34, 'UNSPECIFIED' ) ;
#106 = DIRECTION ( 'NONE',  ( 0.0000000000000000000, 1.000000000000000000, 0.0000000000000000000 ) ) ;
#107 = DATE_TIME_ROLE ( 'creation_date' ) ;
#108 = DIRECTION ( 'NONE',  ( 4.275831445896958607E-31, 1.000000000000000000, 1.224646799147353207E-16 ) ) ;
#109 = COORDINATED_UNIVERSAL_TIME_OFFSET ( 1, 0, .AHEAD. ) ;
#110 =( NAMED_UNIT ( * ) PLANE_ANGLE_UNIT ( ) SI_UNIT ( $, .RADIAN. ) );
#111 = CC_DESIGN_PERSON_AND_ORGANIZATION_ASSIGNMENT ( #262, #286, ( #163 ) ) ;
#112 = ORIENTED_EDGE ( 'NONE', *, *, #211, .F. ) ;
#113 = MANIFOLD_SOLID_BREP ( 'Corps-Déplacer/Copier1[1]', #88 ) ;
#114 = DIRECTION ( 'NONE',  ( 3.491481338843133355E-15, -1.224646799147353207E-16, 1.000000000000000000 ) ) ;
#115 = EDGE_LOOP ( 'NONE', ( #98, #11 ) ) ;
#116 = CONICAL_SURFACE ( 'NONE', #306, 1.274999999999994582, 1.029744258676649649 ) ;
#117 = CARTESIAN_POINT ( 'NONE',  ( 0.0000000000000000000, 0.0000000000000000000, 0.0000000000000000000 ) ) ;
#118 = ORIENTED_EDGE ( 'NONE', *, *, #304, .F. ) ;
#119 = DIRECTION ( 'NONE',  ( -3.491481338843133355E-15, 1.224646799147353207E-16, -1.000000000000000000 ) ) ;
#120 = MANIFOLD_SOLID_BREP ( 'Corps-Déplacer/Copier1[2]', #102 ) ;
#121 = ORIENTED_EDGE ( 'NONE', *, *, #134, .F. ) ;
#122 = APPROVAL_DATE_TIME ( #23, #237 ) ;
#123 = ORIENTED_EDGE ( 'NONE', *, *, #134, .T. ) ;
#124 = CONICAL_SURFACE ( 'NONE', #167, 0.9750000000000000888, 0.7853981633974452814 ) ;
#125 = EDGE_LOOP ( 'NONE', ( #121, #41, #246 ) ) ;
#126 = AXIS2_PLACEMENT_3D ( 'NONE', #318, #224, #39 ) ;
#127 = CARTESIAN_POINT ( 'NONE',  ( 1.490862531686017753E-13, -5.229241832359197610E-15, 42.69999999999999574 ) ) ;
#128 = CARTESIAN_POINT ( 'NONE',  ( 2.674814389190105075E-15, -9.381985931279001212E-17, 0.7660972892601446427 ) ) ;
#129 = APPROVAL_DATE_TIME ( #104, #150 ) ;
#130 = EDGE_CURVE ( 'NONE', #25, #305, #264, .T. ) ;
#131 = CARTESIAN_POINT ( 'NONE',  ( 1.561424668912867568E-16, -1.274999999999997913, -1.561424668912878168E-16 ) ) ;
#132 = AXIS2_PLACEMENT_3D ( 'NONE', #50, #55, #164 ) ;
#133 = CC_DESIGN_APPROVAL ( #105, ( #163 ) ) ;
#134 = EDGE_CURVE ( 'NONE', #275, #46, #53, .T. ) ;
#135 = CARTESIAN_POINT ( 'NONE',  ( 1.561424668912864363E-16, -1.274999999999995248, -1.561424668912874963E-16 ) ) ;
#136 = APPROVAL_ROLE ( '' ) ;
#137 = DIRECTION ( 'NONE',  ( -2.468850131082272443E-15, 0.7071067811865454633, -0.7071067811865495711 ) ) ;
#138 = ADVANCED_FACE ( 'NONE', ( #238 ), #311, .F. ) ;
#139 = SECURITY_CLASSIFICATION ( '', '', #216 ) ;
#140 = DIRECTION ( 'NONE',  ( 1.798245827342160317E-15, -0.8571673007021098911, 0.5150380749100582634 ) ) ;
#141 = EDGE_LOOP ( 'NONE', ( #290, #123, #172 ) ) ;
#142 = EDGE_CURVE ( 'NONE', #303, #25, #47, .T. ) ;
#143 = FACE_OUTER_BOUND ( 'NONE', #300, .T. ) ;
#144 = ORIENTED_EDGE ( 'NONE', *, *, #21, .T. ) ;
#145 = CIRCLE ( 'NONE', #263, 1.274999999999995914 ) ;
#146 = CARTESIAN_POINT ( 'NONE',  ( 1.501336975702547217E-13, -5.265981236333618470E-15, 43.00000000000000000 ) ) ;
#147 = ORIENTED_EDGE ( 'NONE', *, *, #130, .T. ) ;
#148 = COORDINATED_UNIVERSAL_TIME_OFFSET ( 1, 0, .AHEAD. ) ;
#149 = CARTESIAN_POINT ( 'NONE',  ( 5.451685093518602123E-31, 1.274999999999995248, 1.561424668912869540E-16 ) ) ;
#150 = APPROVAL ( #265, 'UNSPECIFIED' ) ;
#151 = CARTESIAN_POINT ( 'NONE',  ( 2.674814389190105075E-15, -9.381985931279001212E-17, 0.7660972892601446427 ) ) ;
#152 = AXIS2_PLACEMENT_3D ( 'NONE', #127, #236, #307 ) ;
#153 = VECTOR ( 'NONE', #62, 1000.000000000000000 ) ;
#154 = FACE_OUTER_BOUND ( 'NONE', #178, .T. ) ;
#155 = APPROVAL_ROLE ( '' ) ;
#156 = CARTESIAN_POINT ( 'NONE',  ( 2.830956856081392547E-15, 1.274999999999994582, 0.7660972892601447537 ) ) ;
#157 = EDGE_CURVE ( 'NONE', #252, #223, #72, .T. ) ;
#158 = DIRECTION ( 'NONE',  ( -3.491481338843133355E-15, 1.224646799147353207E-16, -1.000000000000000000 ) ) ;
#159 = CALENDAR_DATE ( 2021, 3, 9 ) ;
#160 = DIRECTION ( 'NONE',  ( 3.021066579430971115E-31, 1.000000000000000000, 8.503546450866737793E-17 ) ) ;
#161 = CIRCLE ( 'NONE', #336, 1.274999999999999911 ) ;
#162 = PERSON_AND_ORGANIZATION ( #337, #48 ) ;
#163 = PRODUCT_DEFINITION_FORMATION_WITH_SPECIFIED_SOURCE ( 'ANY', '', #320, .NOT_KNOWN. ) ;
#164 = DIRECTION ( 'NONE',  ( 0.0000000000000000000, 1.000000000000000000, 0.0000000000000000000 ) ) ;
#165 = ORIENTED_EDGE ( 'NONE', *, *, #291, .F. ) ;
#166 = CARTESIAN_POINT ( 'NONE',  ( 3.840629472727446691E-14, 1.274999999999994582, 11.00000000000000000 ) ) ;
#167 = AXIS2_PLACEMENT_3D ( 'NONE', #31, #103, #243 ) ;
#168 = APPROVAL_PERSON_ORGANIZATION ( #283, #150, #155 ) ;
#169 = CARTESIAN_POINT ( 'NONE',  ( 0.0000000000000000000, 0.0000000000000000000, 0.0000000000000000000 ) ) ;
#170 = EDGE_CURVE ( 'NONE', #24, #333, #321, .T. ) ;
#171 = FACE_OUTER_BOUND ( 'NONE', #125, .T. ) ;
#172 = ORIENTED_EDGE ( 'NONE', *, *, #5, .T. ) ;
#173 = CARTESIAN_POINT ( 'NONE',  ( 2.069669702512355473E-14, -1.274999999999997469, 11.00000000000000000 ) ) ;
#174 = AXIS2_PLACEMENT_3D ( 'NONE', #191, #261, #61 ) ;
#175 = APPROVAL_ROLE ( '' ) ;
#176 = ORIENTED_EDGE ( 'NONE', *, *, #71, .F. ) ;
#177 = ADVANCED_FACE ( 'NONE', ( #188 ), #1, .T. ) ;
#178 = EDGE_LOOP ( 'NONE', ( #176, #15, #202, #297 ) ) ;
#179 = VERTEX_POINT ( 'NONE', #100 ) ;
#180 = VECTOR ( 'NONE', #137, 1000.000000000000000 ) ;
#181 = EDGE_CURVE ( 'NONE', #223, #252, #60, .T. ) ;
#182 = CC_DESIGN_PERSON_AND_ORGANIZATION_ASSIGNMENT ( #228, #330, ( #320 ) ) ;
#183 = EDGE_CURVE ( 'NONE', #252, #90, #266, .T. ) ;
#184 = VECTOR ( 'NONE', #313, 999.9999999999998863 ) ;
#185 = FACE_OUTER_BOUND ( 'NONE', #206, .T. ) ;
#186 = CC_DESIGN_APPROVAL ( #150, ( #139 ) ) ;
#187 = PERSON_AND_ORGANIZATION ( #337, #48 ) ;
#188 = FACE_OUTER_BOUND ( 'NONE', #115, .T. ) ;
#189 = DIRECTION ( 'NONE',  ( 0.0000000000000000000, 1.000000000000000000, 0.0000000000000000000 ) ) ;
#190 = DATE_AND_TIME ( #4, #79 ) ;
#191 = CARTESIAN_POINT ( 'NONE',  ( 1.501336975702547217E-13, -5.265981236333618470E-15, 43.00000000000000000 ) ) ;
#192 = VECTOR ( 'NONE', #140, 1000.000000000000000 ) ;
#193 = DIRECTION ( 'NONE',  ( -3.491481338843133355E-15, 1.224646799147353207E-16, -1.000000000000000000 ) ) ;
#194 = PLANE ( 'NONE',  #126 ) ;
#195 = DIRECTION ( 'NONE',  ( 1.000000000000000000, 0.0000000000000000000, 0.0000000000000000000 ) ) ;
#196 = AXIS2_PLACEMENT_3D ( 'NONE', #117, #199, #298 ) ;
#197 = CARTESIAN_POINT ( 'NONE',  ( 1.502531006331716080E-13, -0.9750000000000054179, 43.00000000000000000 ) ) ;
#198 = ORIENTED_EDGE ( 'NONE', *, *, #157, .F. ) ;
#199 = DIRECTION ( 'NONE',  ( -3.491481338843133355E-15, 1.224646799147353207E-16, -1.000000000000000000 ) ) ;
#200 = CARTESIAN_POINT ( 'NONE',  ( 9.390241641482936363E-14, -1.274999999999997247, 11.00000000000000000 ) ) ;
#201 = APPROVAL_STATUS ( 'not_yet_approved' ) ;
#202 = ORIENTED_EDGE ( 'NONE', *, *, #299, .T. ) ;
#203 = AXIS2_PLACEMENT_3D ( 'NONE', #33, #215, #310 ) ;
#204 = LOCAL_TIME ( 9, 49, 21.00000000000000000, #54 ) ;
#205 = APPLICATION_CONTEXT ( 'configuration controlled 3d designs of mechanical parts and assemblies' ) ;
#206 = EDGE_LOOP ( 'NONE', ( #229, #231 ) ) ;
#207 = ORIENTED_EDGE ( 'NONE', *, *, #85, .F. ) ;
#208 = ADVANCED_FACE ( 'NONE', ( #154 ), #244, .T. ) ;
#209 = VECTOR ( 'NONE', #193, 1000.000000000000000 ) ;
#210 = DIRECTION ( 'NONE',  ( -3.491481338843133355E-15, 1.224646799147353207E-16, -1.000000000000000000 ) ) ;
#211 = EDGE_CURVE ( 'NONE', #179, #90, #65, .T. ) ;
#212 = CIRCLE ( 'NONE', #294, 1.274999999999994582 ) ;
#213 = DIRECTION ( 'NONE',  ( -3.491481338843133355E-15, 1.224646799147353207E-16, -1.000000000000000000 ) ) ;
#214 = FACE_OUTER_BOUND ( 'NONE', #277, .T. ) ;
#215 = DIRECTION ( 'NONE',  ( 3.491481338843133355E-15, -1.224646799147353207E-16, 1.000000000000000000 ) ) ;
#216 = SECURITY_CLASSIFICATION_LEVEL ( 'unclassified' ) ;
#217 = DIRECTION ( 'NONE',  ( 3.491481338843133355E-15, -1.224646799147353207E-16, 1.000000000000000000 ) ) ;
#218 = MECHANICAL_CONTEXT ( 'NONE', #97, 'mechanical' ) ;
#219 = DIRECTION ( 'NONE',  ( 0.0000000000000000000, 0.0000000000000000000, 1.000000000000000000 ) ) ;
#220 = ADVANCED_BREP_SHAPE_REPRESENTATION ( '54534', ( #113, #120, #255 ), #42 ) ;
#221 = LINE ( 'NONE', #197, #153 ) ;
#222 = AXIS2_PLACEMENT_3D ( 'NONE', #29, #9, #28 ) ;
#223 = VERTEX_POINT ( 'NONE', #78 ) ;
#224 = DIRECTION ( 'NONE',  ( 3.491481338843133355E-15, -1.224646799147353207E-16, 1.000000000000000000 ) ) ;
#225 = ORIENTED_EDGE ( 'NONE', *, *, #183, .T. ) ;
#226 = FACE_OUTER_BOUND ( 'NONE', #250, .T. ) ;
#227 = ORIENTED_EDGE ( 'NONE', *, *, #299, .F. ) ;
#228 = PERSON_AND_ORGANIZATION ( #337, #48 ) ;
#229 = ORIENTED_EDGE ( 'NONE', *, *, #254, .T. ) ;
#230 = LOCAL_TIME ( 9, 49, 21.00000000000000000, #56 ) ;
#231 = ORIENTED_EDGE ( 'NONE', *, *, #170, .T. ) ;
#232 = ADVANCED_FACE ( 'NONE', ( #185 ), #194, .F. ) ;
#233 = PRODUCT_RELATED_PRODUCT_CATEGORY ( 'detail', '', ( #320 ) ) ;
#234 = AXIS2_PLACEMENT_3D ( 'NONE', #101, #8, #258 ) ;
#235 = APPROVAL_PERSON_ORGANIZATION ( #274, #237, #175 ) ;
#236 = DIRECTION ( 'NONE',  ( -3.491481338843133355E-15, 1.224646799147353207E-16, -1.000000000000000000 ) ) ;
#237 = APPROVAL ( #201, 'UNSPECIFIED' ) ;
#238 = FACE_OUTER_BOUND ( 'NONE', #43, .T. ) ;
#239 = DATE_AND_TIME ( #10, #230 ) ;
#240 = AXIS2_PLACEMENT_3D ( 'NONE', #74, #217, #82 ) ;
#241 = DIRECTION ( 'NONE',  ( -3.491481338843133355E-15, 1.224646799147353207E-16, -1.000000000000000000 ) ) ;
#242 = PERSON_AND_ORGANIZATION_ROLE ( 'creator' ) ;
#243 = DIRECTION ( 'NONE',  ( 0.0000000000000000000, 1.000000000000000000, 0.0000000000000000000 ) ) ;
#244 = CYLINDRICAL_SURFACE ( 'NONE', #222, 1.274999999999997913 ) ;
#245 =( NAMED_UNIT ( * ) SI_UNIT ( $, .STERADIAN. ) SOLID_ANGLE_UNIT ( ) );
#246 = ORIENTED_EDGE ( 'NONE', *, *, #85, .T. ) ;
#247 = CARTESIAN_POINT ( 'NONE',  ( 0.0000000000000000000, 0.0000000000000000000, 0.0000000000000000000 ) ) ;
#248 = DIRECTION ( 'NONE',  ( -3.491481338843133355E-15, 1.224646799147353207E-16, -1.000000000000000000 ) ) ;
#249 = DIRECTION ( 'NONE',  ( 0.0000000000000000000, 1.000000000000000000, 0.0000000000000000000 ) ) ;
#250 = EDGE_LOOP ( 'NONE', ( #165, #253, #225, #112 ) ) ;
#251 = CALENDAR_DATE ( 2021, 3, 9 ) ;
#252 = VERTEX_POINT ( 'NONE', #38 ) ;
#253 = ORIENTED_EDGE ( 'NONE', *, *, #181, .T. ) ;
#254 = EDGE_CURVE ( 'NONE', #333, #24, #145, .T. ) ;
#255 = AXIS2_PLACEMENT_3D ( 'NONE', #13, #219, #195 ) ;
#256 = CC_DESIGN_DATE_AND_TIME_ASSIGNMENT ( #239, #107, ( #317 ) ) ;
#257 = ADVANCED_FACE ( 'NONE', ( #226 ), #52, .T. ) ;
#258 = DIRECTION ( 'NONE',  ( 4.275831445896958607E-31, 1.000000000000000000, 1.224646799147353207E-16 ) ) ;
#259 = CARTESIAN_POINT ( 'NONE',  ( 3.840629472727446691E-14, -1.347111479062088405E-15, 11.00000000000000000 ) ) ;
#260 = APPROVAL_DATE_TIME ( #51, #105 ) ;
#261 = DIRECTION ( 'NONE',  ( -3.491481338843133355E-15, 1.224646799147353207E-16, -1.000000000000000000 ) ) ;
#262 = PERSON_AND_ORGANIZATION ( #337, #48 ) ;
#263 = AXIS2_PLACEMENT_3D ( 'NONE', #20, #268, #249 ) ;
#264 = LINE ( 'NONE', #135, #209 ) ;
#265 = APPROVAL_STATUS ( 'not_yet_approved' ) ;
#266 = LINE ( 'NONE', #35, #180 ) ;
#267 = CC_DESIGN_DATE_AND_TIME_ASSIGNMENT ( #190, #30, ( #139 ) ) ;
#268 = DIRECTION ( 'NONE',  ( -3.491481338843133355E-15, 1.224646799147353207E-16, -1.000000000000000000 ) ) ;
#269 = DIRECTION ( 'NONE',  ( 0.0000000000000000000, 1.000000000000000000, 0.0000000000000000000 ) ) ;
#270 = ORIENTED_EDGE ( 'NONE', *, *, #304, .T. ) ;
#271 =( LENGTH_UNIT ( ) NAMED_UNIT ( * ) SI_UNIT ( .MILLI., .METRE. ) );
#272 = LOCAL_TIME ( 9, 49, 21.00000000000000000, #36 ) ;
#273 = ORIENTED_EDGE ( 'NONE', *, *, #142, .T. ) ;
#274 = PERSON_AND_ORGANIZATION ( #337, #48 ) ;
#275 = VERTEX_POINT ( 'NONE', #247 ) ;
#276 = ADVANCED_FACE ( 'NONE', ( #327 ), #93, .T. ) ;
#277 = EDGE_LOOP ( 'NONE', ( #270, #45, #328, #227 ) ) ;
#278 = AXIS2_PLACEMENT_3D ( 'NONE', #285, #284, #108 ) ;
#279 = ORIENTED_EDGE ( 'NONE', *, *, #21, .F. ) ;
#280 = VECTOR ( 'NONE', #241, 1000.000000000000000 ) ;
#281 = APPROVAL_PERSON_ORGANIZATION ( #2, #105, #136 ) ;
#282 = CYLINDRICAL_SURFACE ( 'NONE', #278, 1.274999999999997913 ) ;
#283 = PERSON_AND_ORGANIZATION ( #337, #48 ) ;
#284 = DIRECTION ( 'NONE',  ( -3.491481338843133355E-15, 1.224646799147353207E-16, -1.000000000000000000 ) ) ;
#285 = CARTESIAN_POINT ( 'NONE',  ( 0.0000000000000000000, 0.0000000000000000000, 0.0000000000000000000 ) ) ;
#286 = PERSON_AND_ORGANIZATION_ROLE ( 'design_supplier' ) ;
#287 = CC_DESIGN_PERSON_AND_ORGANIZATION_ASSIGNMENT ( #81, #242, ( #163 ) ) ;
#288 = CIRCLE ( 'NONE', #95, 1.274999999999995914 ) ;
#289 = FACE_OUTER_BOUND ( 'NONE', #335, .T. ) ;
#290 = ORIENTED_EDGE ( 'NONE', *, *, #329, .F. ) ;
#291 = EDGE_CURVE ( 'NONE', #223, #179, #221, .T. ) ;
#292 = DIRECTION ( 'NONE',  ( -3.491481338843133355E-15, 1.224646799147353207E-16, -1.000000000000000000 ) ) ;
#293 = ADVANCED_FACE ( 'NONE', ( #171 ), #116, .T. ) ;
#294 = AXIS2_PLACEMENT_3D ( 'NONE', #151, #248, #19 ) ;
#295 = AXIS2_PLACEMENT_3D ( 'NONE', #259, #84, #106 ) ;
#296 = CARTESIAN_POINT ( 'NONE',  ( 2.674814389190105075E-15, -9.381985931279001212E-17, 0.7660972892601446427 ) ) ;
#297 = ORIENTED_EDGE ( 'NONE', *, *, #170, .F. ) ;
#298 = DIRECTION ( 'NONE',  ( 4.275831445896958607E-31, 1.000000000000000000, 1.224646799147353207E-16 ) ) ;
#299 = EDGE_CURVE ( 'NONE', #90, #333, #66, .T. ) ;
#300 = EDGE_LOOP ( 'NONE', ( #70, #22, #144, #207 ) ) ;
#301 = AXIS2_PLACEMENT_3D ( 'NONE', #146, #119, #40 ) ;
#302 = FACE_OUTER_BOUND ( 'NONE', #141, .T. ) ;
#303 = VERTEX_POINT ( 'NONE', #18 ) ;
#304 = EDGE_CURVE ( 'NONE', #90, #179, #161, .T. ) ;
#305 = VERTEX_POINT ( 'NONE', #64 ) ;
#306 = AXIS2_PLACEMENT_3D ( 'NONE', #296, #114, #67 ) ;
#307 = DIRECTION ( 'NONE',  ( 0.0000000000000000000, 1.000000000000000000, 0.0000000000000000000 ) ) ;
#308 = PERSON_AND_ORGANIZATION_ROLE ( 'creator' ) ;
#309 = AXIS2_PLACEMENT_3D ( 'NONE', #128, #213, #160 ) ;
#310 = DIRECTION ( 'NONE',  ( -4.275831445896958607E-31, -1.000000000000000000, -1.224646799147353207E-16 ) ) ;
#311 = PLANE ( 'NONE',  #234 ) ;
#312 = DESIGN_CONTEXT ( 'detailed design', #205, 'design' ) ;
#313 = DIRECTION ( 'NONE',  ( 1.903218546456022717E-15, 0.8571673007021097801, 0.5150380749100585964 ) ) ;
#314 = ADVANCED_FACE ( 'NONE', ( #143 ), #89, .T. ) ;
#315 = VECTOR ( 'NONE', #322, 1000.000000000000000 ) ;
#316 = CARTESIAN_POINT ( 'NONE',  ( 3.840629472727446691E-14, -1.347111479062088405E-15, 11.00000000000000000 ) ) ;
#317 = PRODUCT_DEFINITION ( 'UNKNOWN', '', #163, #312 ) ;
#318 = CARTESIAN_POINT ( 'NONE',  ( 3.840629472727446691E-14, 9.560968614469292986E-33, 11.00000000000000000 ) ) ;
#319 = CARTESIAN_POINT ( 'NONE',  ( 5.451685093518613509E-31, 1.274999999999997913, 1.561424668912872745E-16 ) ) ;
#320 = PRODUCT ( '54534', '54534', '', ( #218 ) ) ;
#321 = CIRCLE ( 'NONE', #27, 1.274999999999995914 ) ;
#322 = DIRECTION ( 'NONE',  ( -3.491481338843133355E-15, 1.224646799147353207E-16, -1.000000000000000000 ) ) ;
#323 = CC_DESIGN_SECURITY_CLASSIFICATION ( #139, ( #163 ) ) ;
#324 = EDGE_LOOP ( 'NONE', ( #273, #147, #94, #279 ) ) ;
#325 = DIRECTION ( 'NONE',  ( 4.275831445896958607E-31, 1.000000000000000000, 1.224646799147353207E-16 ) ) ;
#326 = LINE ( 'NONE', #149, #37 ) ;
#327 = FACE_OUTER_BOUND ( 'NONE', #324, .T. ) ;
#328 = ORIENTED_EDGE ( 'NONE', *, *, #254, .F. ) ;
#329 = EDGE_CURVE ( 'NONE', #275, #305, #87, .T. ) ;
#330 = PERSON_AND_ORGANIZATION_ROLE ( 'design_owner' ) ;
#331 = CIRCLE ( 'NONE', #309, 1.274999999999994582 ) ;
#332 = CC_DESIGN_APPROVAL ( #237, ( #317 ) ) ;
#333 = VERTEX_POINT ( 'NONE', #166 ) ;
#334 = CC_DESIGN_PERSON_AND_ORGANIZATION_ASSIGNMENT ( #187, #7, ( #139 ) ) ;
#335 = EDGE_LOOP ( 'NONE', ( #68, #99, #118, #75 ) ) ;
#336 = AXIS2_PLACEMENT_3D ( 'NONE', #14, #91, #269 ) ;
#337 = PERSON ( 'UNSPECIFIED', 'UNSPECIFIED', 'UNSPECIFIED', ('UNSPECIFIED'), ('UNSPECIFIED'), ('UNSPECIFIED') ) ;
ENDSEC;
END-ISO-10303-21;
