ISO-10303-21;
HEADER;
FILE_DESCRIPTION (( 'STEP AP203' ),
    '1' );
FILE_NAME ('54533.step',
    '2021-09-03T07:49:19',
    ( '' ),
    ( '' ),
    'SwSTEP 2.0',
    'SolidWorks 2019',
    '' );
FILE_SCHEMA (( 'CONFIG_CONTROL_DESIGN' ));
ENDSEC;

DATA;
#1 = APPROVAL_DATE_TIME ( #242, #17 ) ;
#2 = ORIENTED_EDGE ( 'NONE', *, *, #112, .F. ) ;
#3 = COORDINATED_UNIVERSAL_TIME_OFFSET ( 1, 0, .AHEAD. ) ;
#4 = MANIFOLD_SOLID_BREP ( 'Corps-Déplacer/Copier1[2]', #159 ) ;
#5 = AXIS2_PLACEMENT_3D ( 'NONE', #63, #64, #175 ) ;
#6 = ORIENTED_EDGE ( 'NONE', *, *, #133, .F. ) ;
#7 = VECTOR ( 'NONE', #57, 999.9999999999998863 ) ;
#8 = DIRECTION ( 'NONE',  ( 0.0000000000000000000, 0.0000000000000000000, 1.000000000000000000 ) ) ;
#9 = CARTESIAN_POINT ( 'NONE',  ( 1.530808498934180724E-16, -1.249999999999995559, -1.530808498934191324E-16 ) ) ;
#10 = ADVANCED_FACE ( 'NONE', ( #323 ), #12, .F. ) ;
#11 =( LENGTH_UNIT ( ) NAMED_UNIT ( * ) SI_UNIT ( .MILLI., .METRE. ) );
#12 = PLANE ( 'NONE',  #267 ) ;
#13 = PRODUCT_DEFINITION_SHAPE ( 'NONE', 'NONE',  #206 ) ;
#14 = APPROVAL_ROLE ( '' ) ;
#15 = ORIENTED_EDGE ( 'NONE', *, *, #176, .F. ) ;
#16 = LOCAL_TIME ( 9, 49, 19.00000000000000000, #93 ) ;
#17 = APPROVAL ( #197, 'UNSPECIFIED' ) ;
#18 = ORIENTED_EDGE ( 'NONE', *, *, #257, .F. ) ;
#19 = VERTEX_POINT ( 'NONE', #33 ) ;
#20 = DIRECTION ( 'NONE',  ( -3.491481338843133355E-15, 1.224646799147353207E-16, -1.000000000000000000 ) ) ;
#21 = CARTESIAN_POINT ( 'NONE',  ( 1.490862531686017753E-13, -5.229241832359197610E-15, 42.69999999999999574 ) ) ;
#22 = DIRECTION ( 'NONE',  ( 4.275831445896958607E-31, 1.000000000000000000, 1.224646799147353207E-16 ) ) ;
#23 = FACE_OUTER_BOUND ( 'NONE', #114, .T. ) ;
#24 = AXIS2_PLACEMENT_3D ( 'NONE', #130, #25, #333 ) ;
#25 = DIRECTION ( 'NONE',  ( -3.491481338843133355E-15, 1.224646799147353207E-16, -1.000000000000000000 ) ) ;
#26 = ORIENTED_EDGE ( 'NONE', *, *, #335, .F. ) ;
#27 = CALENDAR_DATE ( 2021, 3, 9 ) ;
#28 = SECURITY_CLASSIFICATION_LEVEL ( 'unclassified' ) ;
#29 = CARTESIAN_POINT ( 'NONE',  ( 0.0000000000000000000, 0.0000000000000000000, 0.0000000000000000000 ) ) ;
#30 = VERTEX_POINT ( 'NONE', #122 ) ;
#31 = AXIS2_PLACEMENT_3D ( 'NONE', #180, #279, #22 ) ;
#32 = EDGE_CURVE ( 'NONE', #166, #52, #278, .T. ) ;
#33 = CARTESIAN_POINT ( 'NONE',  ( 3.840629472727446691E-14, 1.249999999999994893, 11.00000000000000000 ) ) ;
#34 = APPLICATION_PROTOCOL_DEFINITION ( 'international standard', 'config_control_design', 1994, #156 ) ;
#35 = ORIENTED_EDGE ( 'NONE', *, *, #53, .F. ) ;
#36 = FACE_OUTER_BOUND ( 'NONE', #228, .T. ) ;
#37 = AXIS2_PLACEMENT_3D ( 'NONE', #282, #155, #76 ) ;
#38 = DATE_TIME_ROLE ( 'classification_date' ) ;
#39 = CARTESIAN_POINT ( 'NONE',  ( 1.501336975702547217E-13, -5.265981236333618470E-15, 43.00000000000000000 ) ) ;
#40 = DIRECTION ( 'NONE',  ( 4.275831445896957731E-31, 1.000000000000000000, 1.224646799147352961E-16 ) ) ;
#41 = CARTESIAN_POINT ( 'NONE',  ( 0.0000000000000000000, 0.0000000000000000000, 0.0000000000000000000 ) ) ;
#42 = APPROVAL ( #62, 'UNSPECIFIED' ) ;
#43 = CIRCLE ( 'NONE', #322, 0.9500000000000001776 ) ;
#44 = PERSON_AND_ORGANIZATION ( #81, #201 ) ;
#45 = VECTOR ( 'NONE', #281, 1000.000000000000000 ) ;
#46 = DIRECTION ( 'NONE',  ( -3.491481338843133355E-15, 1.224646799147353207E-16, -1.000000000000000000 ) ) ;
#47 = DIRECTION ( 'NONE',  ( -3.081487911019590064E-31, -1.000000000000000000, -8.673617379884071217E-17 ) ) ;
#48 = ADVANCED_FACE ( 'NONE', ( #231 ), #219, .T. ) ;
#49 = CARTESIAN_POINT ( 'NONE',  ( 3.840629472727446691E-14, 1.249999999999994893, 11.00000000000000000 ) ) ;
#50 = PRODUCT_DEFINITION_FORMATION_WITH_SPECIFIED_SOURCE ( 'ANY', '', #234, .NOT_KNOWN. ) ;
#51 = ORIENTED_EDGE ( 'NONE', *, *, #133, .T. ) ;
#52 = VERTEX_POINT ( 'NONE', #272 ) ;
#53 = EDGE_CURVE ( 'NONE', #261, #52, #71, .T. ) ;
#54 = PERSON_AND_ORGANIZATION ( #81, #201 ) ;
#55 = APPROVAL_STATUS ( 'not_yet_approved' ) ;
#56 = EDGE_LOOP ( 'NONE', ( #15, #174 ) ) ;
#57 = DIRECTION ( 'NONE',  ( 1.903218546456022717E-15, 0.8571673007021097801, 0.5150380749100585964 ) ) ;
#58 = DESIGN_CONTEXT ( 'detailed design', #74, 'design' ) ;
#59 = ORIENTED_EDGE ( 'NONE', *, *, #266, .T. ) ;
#60 = LOCAL_TIME ( 9, 49, 19.00000000000000000, #251 ) ;
#61 = ORIENTED_EDGE ( 'NONE', *, *, #266, .F. ) ;
#62 = APPROVAL_STATUS ( 'not_yet_approved' ) ;
#63 = CARTESIAN_POINT ( 'NONE',  ( 2.622367048225593660E-15, -9.198025422822551005E-17, 0.7510757737844555582 ) ) ;
#64 = DIRECTION ( 'NONE',  ( -3.491481338843133355E-15, 1.224646799147353207E-16, -1.000000000000000000 ) ) ;
#65 = VECTOR ( 'NONE', #152, 1000.000000000000000 ) ;
#66 = DIRECTION ( 'NONE',  ( -3.491481338843133355E-15, 1.224646799147353207E-16, -1.000000000000000000 ) ) ;
#67 = CALENDAR_DATE ( 2021, 3, 9 ) ;
#68 = CC_DESIGN_PERSON_AND_ORGANIZATION_ASSIGNMENT ( #274, #297, ( #232 ) ) ;
#69 = DIRECTION ( 'NONE',  ( 3.491481338843133355E-15, -1.224646799147353207E-16, 1.000000000000000000 ) ) ;
#70 = CARTESIAN_POINT ( 'NONE',  ( 3.840629472727446691E-14, -1.347111479062088405E-15, 11.00000000000000000 ) ) ;
#71 = CIRCLE ( 'NONE', #5, 1.249999999999994893 ) ;
#72 = AXIS2_PLACEMENT_3D ( 'NONE', #331, #69, #306 ) ;
#73 = DIRECTION ( 'NONE',  ( 0.0000000000000000000, 1.000000000000000000, 0.0000000000000000000 ) ) ;
#74 = APPLICATION_CONTEXT ( 'configuration controlled 3d designs of mechanical parts and assemblies' ) ;
#75 = ADVANCED_FACE ( 'NONE', ( #36 ), #148, .T. ) ;
#76 = DIRECTION ( 'NONE',  ( 0.0000000000000000000, 1.000000000000000000, 0.0000000000000000000 ) ) ;
#77 = PLANE ( 'NONE',  #104 ) ;
#78 = CLOSED_SHELL ( 'NONE', ( #183, #102, #125, #161, #330, #10 ) ) ;
#79 = APPROVAL_PERSON_ORGANIZATION ( #44, #42, #123 ) ;
#80 = ORIENTED_EDGE ( 'NONE', *, *, #53, .T. ) ;
#81 = PERSON ( 'UNSPECIFIED', 'UNSPECIFIED', 'UNSPECIFIED', ('UNSPECIFIED'), ('UNSPECIFIED'), ('UNSPECIFIED') ) ;
#82 = ORIENTED_EDGE ( 'NONE', *, *, #137, .F. ) ;
#83 = DATE_AND_TIME ( #269, #141 ) ;
#84 = APPROVAL_PERSON_ORGANIZATION ( #319, #253, #195 ) ;
#85 = ORIENTED_EDGE ( 'NONE', *, *, #309, .F. ) ;
#86 = EDGE_CURVE ( 'NONE', #296, #311, #169, .T. ) ;
#87 = VERTEX_POINT ( 'NONE', #249 ) ;
#88 = DIRECTION ( 'NONE',  ( -2.468850131082272443E-15, 0.7071067811865454633, -0.7071067811865495711 ) ) ;
#89 = CARTESIAN_POINT ( 'NONE',  ( 1.501336975702547217E-13, 7.123858967643745635E-33, 43.00000000000000000 ) ) ;
#90 = VECTOR ( 'NONE', #88, 1000.000000000000000 ) ;
#91 = DIRECTION ( 'NONE',  ( -3.491481338843133355E-15, 1.224646799147353207E-16, -1.000000000000000000 ) ) ;
#92 = AXIS2_PLACEMENT_3D ( 'NONE', #334, #187, #47 ) ;
#93 = COORDINATED_UNIVERSAL_TIME_OFFSET ( 1, 0, .AHEAD. ) ;
#94 = DIRECTION ( 'NONE',  ( 3.491481338843133355E-15, -1.224646799147353207E-16, 1.000000000000000000 ) ) ;
#95 = DIRECTION ( 'NONE',  ( -3.491481338843133355E-15, 1.224646799147353207E-16, -1.000000000000000000 ) ) ;
#96 = EDGE_LOOP ( 'NONE', ( #26, #216, #193 ) ) ;
#97 = CONICAL_SURFACE ( 'NONE', #299, 0.9500000000000001776, 0.7853981633974452814 ) ;
#98 = EDGE_CURVE ( 'NONE', #30, #52, #324, .T. ) ;
#99 = CARTESIAN_POINT ( 'NONE',  ( 1.501336975702547217E-13, -5.265981236333618470E-15, 43.00000000000000000 ) ) ;
#100 = PLANE ( 'NONE',  #72 ) ;
#101 = CARTESIAN_POINT ( 'NONE',  ( 1.530808498934183929E-16, -1.249999999999998002, -1.530808498934194282E-16 ) ) ;
#102 = ADVANCED_FACE ( 'NONE', ( #295 ), #177, .T. ) ;
#103 = VECTOR ( 'NONE', #66, 1000.000000000000000 ) ;
#104 = AXIS2_PLACEMENT_3D ( 'NONE', #288, #256, #105 ) ;
#105 = DIRECTION ( 'NONE',  ( -4.275831445896958607E-31, -1.000000000000000000, -1.224646799147353207E-16 ) ) ;
#106 = CARTESIAN_POINT ( 'NONE',  ( 9.389935479783136335E-14, -1.250000000000005329, 42.69999999999999574 ) ) ;
#107 = AXIS2_PLACEMENT_3D ( 'NONE', #308, #233, #327 ) ;
#108 = CC_DESIGN_PERSON_AND_ORGANIZATION_ASSIGNMENT ( #54, #265, ( #50 ) ) ;
#109 = ORIENTED_EDGE ( 'NONE', *, *, #86, .T. ) ;
#110 = CARTESIAN_POINT ( 'NONE',  ( 1.490862531686017753E-13, 1.249999999999994893, 42.69999999999999574 ) ) ;
#111 = ORIENTED_EDGE ( 'NONE', *, *, #215, .F. ) ;
#112 = EDGE_CURVE ( 'NONE', #87, #190, #43, .T. ) ;
#113 = LINE ( 'NONE', #315, #90 ) ;
#114 = EDGE_LOOP ( 'NONE', ( #326, #224, #51, #318 ) ) ;
#115 = MECHANICAL_CONTEXT ( 'NONE', #156, 'mechanical' ) ;
#116 = ORIENTED_EDGE ( 'NONE', *, *, #112, .T. ) ;
#117 = PERSON_AND_ORGANIZATION ( #81, #201 ) ;
#118 = DIRECTION ( 'NONE',  ( -3.491481338843133355E-15, 1.224646799147353207E-16, -1.000000000000000000 ) ) ;
#119 = PERSON_AND_ORGANIZATION_ROLE ( 'creator' ) ;
#120 = EDGE_CURVE ( 'NONE', #30, #214, #182, .T. ) ;
#121 = EDGE_LOOP ( 'NONE', ( #312, #109, #286, #82 ) ) ;
#122 = CARTESIAN_POINT ( 'NONE',  ( 2.066741173764342713E-14, -1.249999999999997335, 11.00000000000000000 ) ) ;
#123 = APPROVAL_ROLE ( '' ) ;
#124 = ORIENTED_EDGE ( 'NONE', *, *, #172, .F. ) ;
#125 = ADVANCED_FACE ( 'NONE', ( #158 ), #100, .F. ) ;
#126 = CARTESIAN_POINT ( 'NONE',  ( 1.501336975702547217E-13, 0.9499999999999948486, 43.00000000000000000 ) ) ;
#127 = CIRCLE ( 'NONE', #37, 1.249999999999996225 ) ;
#128 = DIRECTION ( 'NONE',  ( 0.0000000000000000000, 1.000000000000000000, 0.0000000000000000000 ) ) ;
#129 = CARTESIAN_POINT ( 'NONE',  ( 2.622367048225593660E-15, -9.198025422822551005E-17, 0.7510757737844555582 ) ) ;
#130 = CARTESIAN_POINT ( 'NONE',  ( 3.840629472727446691E-14, -1.347111479062088405E-15, 11.00000000000000000 ) ) ;
#131 = CC_DESIGN_APPROVAL ( #253, ( #206 ) ) ;
#132 = FACE_OUTER_BOUND ( 'NONE', #96, .T. ) ;
#133 = EDGE_CURVE ( 'NONE', #214, #261, #239, .T. ) ;
#134 = AXIS2_PLACEMENT_3D ( 'NONE', #143, #118, #277 ) ;
#135 = EDGE_LOOP ( 'NONE', ( #337, #162, #61, #18 ) ) ;
#136 = CALENDAR_DATE ( 2021, 3, 9 ) ;
#137 = EDGE_CURVE ( 'NONE', #167, #19, #310, .T. ) ;
#138 = ORIENTED_EDGE ( 'NONE', *, *, #309, .T. ) ;
#139 = LINE ( 'NONE', #221, #7 ) ;
#140 =( NAMED_UNIT ( * ) PLANE_ANGLE_UNIT ( ) SI_UNIT ( $, .RADIAN. ) );
#141 = LOCAL_TIME ( 9, 49, 19.00000000000000000, #3 ) ;
#142 = APPROVAL_DATE_TIME ( #83, #253 ) ;
#143 = CARTESIAN_POINT ( 'NONE',  ( 0.0000000000000000000, 0.0000000000000000000, 0.0000000000000000000 ) ) ;
#144 = CC_DESIGN_DATE_AND_TIME_ASSIGNMENT ( #203, #38, ( #232 ) ) ;
#145 = PERSON_AND_ORGANIZATION ( #81, #201 ) ;
#146 = EDGE_LOOP ( 'NONE', ( #138, #218, #111, #194 ) ) ;
#147 = AXIS2_PLACEMENT_3D ( 'NONE', #217, #271, #264 ) ;
#148 = CYLINDRICAL_SURFACE ( 'NONE', #263, 1.249999999999995559 ) ;
#149 = ADVANCED_FACE ( 'NONE', ( #151 ), #77, .T. ) ;
#150 = DIRECTION ( 'NONE',  ( -3.491481338843133355E-15, 1.224646799147353207E-16, -1.000000000000000000 ) ) ;
#151 = FACE_OUTER_BOUND ( 'NONE', #56, .T. ) ;
#152 = DIRECTION ( 'NONE',  ( -2.382254525458724175E-15, -0.7071067811865452413, -0.7071067811865497932 ) ) ;
#153 = AXIS2_PLACEMENT_3D ( 'NONE', #293, #229, #301 ) ;
#154 =( GEOMETRIC_REPRESENTATION_CONTEXT ( 3 ) GLOBAL_UNCERTAINTY_ASSIGNED_CONTEXT ( ( #317 ) ) GLOBAL_UNIT_ASSIGNED_CONTEXT ( ( #11, #140, #223 ) ) REPRESENTATION_CONTEXT ( 'NONE', 'WORKASPACE' ) );
#155 = DIRECTION ( 'NONE',  ( -3.491481338843133355E-15, 1.224646799147353207E-16, -1.000000000000000000 ) ) ;
#156 = APPLICATION_CONTEXT ( 'configuration controlled 3d designs of mechanical parts and assemblies' ) ;
#157 = CYLINDRICAL_SURFACE ( 'NONE', #31, 1.249999999999998002 ) ;
#158 = FACE_OUTER_BOUND ( 'NONE', #275, .T. ) ;
#159 = CLOSED_SHELL ( 'NONE', ( #75, #48, #291, #300, #149 ) ) ;
#160 = CIRCLE ( 'NONE', #305, 1.250000000000000000 ) ;
#161 = ADVANCED_FACE ( 'NONE', ( #207 ), #157, .T. ) ;
#162 = ORIENTED_EDGE ( 'NONE', *, *, #199, .T. ) ;
#163 = AXIS2_PLACEMENT_3D ( 'NONE', #29, #8, #173 ) ;
#164 = COORDINATED_UNIVERSAL_TIME_OFFSET ( 1, 0, .AHEAD. ) ;
#165 = DATE_TIME_ROLE ( 'creation_date' ) ;
#166 = VERTEX_POINT ( 'NONE', #41 ) ;
#167 = VERTEX_POINT ( 'NONE', #235 ) ;
#168 = APPLICATION_PROTOCOL_DEFINITION ( 'international standard', 'config_control_design', 1994, #74 ) ;
#169 = CIRCLE ( 'NONE', #153, 1.250000000000000000 ) ;
#170 = VECTOR ( 'NONE', #46, 1000.000000000000000 ) ;
#171 = DIRECTION ( 'NONE',  ( 4.275831445896958607E-31, 1.000000000000000000, 1.224646799147353207E-16 ) ) ;
#172 = EDGE_CURVE ( 'NONE', #87, #296, #181, .T. ) ;
#173 = DIRECTION ( 'NONE',  ( 1.000000000000000000, 0.0000000000000000000, 0.0000000000000000000 ) ) ;
#174 = ORIENTED_EDGE ( 'NONE', *, *, #120, .F. ) ;
#175 = DIRECTION ( 'NONE',  ( 3.081487911019590064E-31, 1.000000000000000000, 8.673617379884071217E-17 ) ) ;
#176 = EDGE_CURVE ( 'NONE', #214, #30, #260, .T. ) ;
#177 = CYLINDRICAL_SURFACE ( 'NONE', #134, 1.249999999999998002 ) ;
#178 = APPROVAL_DATE_TIME ( #328, #42 ) ;
#179 = ORIENTED_EDGE ( 'NONE', *, *, #137, .T. ) ;
#180 = CARTESIAN_POINT ( 'NONE',  ( 0.0000000000000000000, 0.0000000000000000000, 0.0000000000000000000 ) ) ;
#181 = LINE ( 'NONE', #302, #65 ) ;
#182 = CIRCLE ( 'NONE', #220, 1.249999999999996225 ) ;
#183 = ADVANCED_FACE ( 'NONE', ( #185 ), #97, .T. ) ;
#184 = DIRECTION ( 'NONE',  ( 0.0000000000000000000, 1.000000000000000000, 0.0000000000000000000 ) ) ;
#185 = FACE_OUTER_BOUND ( 'NONE', #146, .T. ) ;
#186 = EDGE_CURVE ( 'NONE', #52, #261, #268, .T. ) ;
#187 = DIRECTION ( 'NONE',  ( 3.491481338843133355E-15, -1.224646799147353207E-16, 1.000000000000000000 ) ) ;
#188 = CC_DESIGN_APPROVAL ( #17, ( #50 ) ) ;
#189 = EDGE_LOOP ( 'NONE', ( #246, #250, #80 ) ) ;
#190 = VERTEX_POINT ( 'NONE', #126 ) ;
#191 = VECTOR ( 'NONE', #237, 1000.000000000000000 ) ;
#192 = PERSON_AND_ORGANIZATION_ROLE ( 'creator' ) ;
#193 = ORIENTED_EDGE ( 'NONE', *, *, #186, .T. ) ;
#194 = ORIENTED_EDGE ( 'NONE', *, *, #320, .F. ) ;
#195 = APPROVAL_ROLE ( '' ) ;
#196 = DIRECTION ( 'NONE',  ( -3.491481338843133355E-15, 1.224646799147353207E-16, -1.000000000000000000 ) ) ;
#197 = APPROVAL_STATUS ( 'not_yet_approved' ) ;
#198 = DIRECTION ( 'NONE',  ( -3.081487911019590064E-31, -1.000000000000000000, -8.673617379884071217E-17 ) ) ;
#199 = EDGE_CURVE ( 'NONE', #296, #167, #236, .T. ) ;
#200 = CARTESIAN_POINT ( 'NONE',  ( 2.622367048225593265E-15, -1.249999999999994893, 0.7510757737844554471 ) ) ;
#201 = ORGANIZATION ( 'UNSPECIFIED', 'UNSPECIFIED', '' ) ;
#202 = CARTESIAN_POINT ( 'NONE',  ( 0.0000000000000000000, 0.0000000000000000000, 0.0000000000000000000 ) ) ;
#203 = DATE_AND_TIME ( #303, #209 ) ;
#204 = DIRECTION ( 'NONE',  ( -3.491481338843133355E-15, 1.224646799147353207E-16, -1.000000000000000000 ) ) ;
#205 = SHAPE_DEFINITION_REPRESENTATION ( #13, #227 ) ;
#206 = PRODUCT_DEFINITION ( 'UNKNOWN', '', #50, #58 ) ;
#207 = FACE_OUTER_BOUND ( 'NONE', #121, .T. ) ;
#208 = CARTESIAN_POINT ( 'NONE',  ( 5.344789307371189938E-31, 1.249999999999998002, 1.530808498934189105E-16 ) ) ;
#209 = LOCAL_TIME ( 9, 49, 19.00000000000000000, #230 ) ;
#210 = DIRECTION ( 'NONE',  ( -3.491481338843133355E-15, 1.224646799147353207E-16, -1.000000000000000000 ) ) ;
#211 = CYLINDRICAL_SURFACE ( 'NONE', #107, 1.249999999999995559 ) ;
#212 = AXIS2_PLACEMENT_3D ( 'NONE', #270, #94, #198 ) ;
#213 = AXIS2_PLACEMENT_3D ( 'NONE', #129, #255, #283 ) ;
#214 = VERTEX_POINT ( 'NONE', #49 ) ;
#215 = EDGE_CURVE ( 'NONE', #311, #296, #160, .T. ) ;
#216 = ORIENTED_EDGE ( 'NONE', *, *, #32, .T. ) ;
#217 = CARTESIAN_POINT ( 'NONE',  ( 1.501336975702547217E-13, -5.265981236333618470E-15, 43.00000000000000000 ) ) ;
#218 = ORIENTED_EDGE ( 'NONE', *, *, #172, .T. ) ;
#219 = CONICAL_SURFACE ( 'NONE', #212, 1.249999999999994893, 1.029744258676649649 ) ;
#220 = AXIS2_PLACEMENT_3D ( 'NONE', #245, #196, #184 ) ;
#221 = CARTESIAN_POINT ( 'NONE',  ( 2.775447898119012595E-15, 1.249999999999994893, 0.7510757737844556692 ) ) ;
#222 = PRODUCT_RELATED_PRODUCT_CATEGORY ( 'detail', '', ( #234 ) ) ;
#223 =( NAMED_UNIT ( * ) SI_UNIT ( $, .STERADIAN. ) SOLID_ANGLE_UNIT ( ) );
#224 = ORIENTED_EDGE ( 'NONE', *, *, #120, .T. ) ;
#225 = DIRECTION ( 'NONE',  ( 0.0000000000000000000, 1.000000000000000000, 0.0000000000000000000 ) ) ;
#226 = FACE_OUTER_BOUND ( 'NONE', #289, .T. ) ;
#227 = ADVANCED_BREP_SHAPE_REPRESENTATION ( '54533', ( #241, #4, #163 ), #154 ) ;
#228 = EDGE_LOOP ( 'NONE', ( #321, #248, #35, #6 ) ) ;
#229 = DIRECTION ( 'NONE',  ( -3.491481338843133355E-15, 1.224646799147353207E-16, -1.000000000000000000 ) ) ;
#230 = COORDINATED_UNIVERSAL_TIME_OFFSET ( 1, 0, .AHEAD. ) ;
#231 = FACE_OUTER_BOUND ( 'NONE', #189, .T. ) ;
#232 = SECURITY_CLASSIFICATION ( '', '', #28 ) ;
#233 = DIRECTION ( 'NONE',  ( -3.491481338843133355E-15, 1.224646799147353207E-16, -1.000000000000000000 ) ) ;
#234 = PRODUCT ( '54533', '54533', '', ( #115 ) ) ;
#235 = CARTESIAN_POINT ( 'NONE',  ( 9.389935479783148957E-14, -1.249999999999997335, 11.00000000000000000 ) ) ;
#236 = LINE ( 'NONE', #101, #45 ) ;
#237 = DIRECTION ( 'NONE',  ( -3.491481338843133355E-15, 1.224646799147353207E-16, -1.000000000000000000 ) ) ;
#238 = AXIS2_PLACEMENT_3D ( 'NONE', #99, #204, #244 ) ;
#239 = LINE ( 'NONE', #252, #191 ) ;
#240 = ORIENTED_EDGE ( 'NONE', *, *, #86, .F. ) ;
#241 = MANIFOLD_SOLID_BREP ( 'Corps-Déplacer/Copier1[1]', #78 ) ;
#242 = DATE_AND_TIME ( #136, #314 ) ;
#243 = APPROVAL_PERSON_ORGANIZATION ( #247, #17, #14 ) ;
#244 = DIRECTION ( 'NONE',  ( 0.0000000000000000000, 1.000000000000000000, 0.0000000000000000000 ) ) ;
#245 = CARTESIAN_POINT ( 'NONE',  ( 3.840629472727446691E-14, -1.347111479062088405E-15, 11.00000000000000000 ) ) ;
#246 = ORIENTED_EDGE ( 'NONE', *, *, #32, .F. ) ;
#247 = PERSON_AND_ORGANIZATION ( #81, #201 ) ;
#248 = ORIENTED_EDGE ( 'NONE', *, *, #98, .T. ) ;
#249 = CARTESIAN_POINT ( 'NONE',  ( 1.497446865173344546E-13, -0.9500000000000055067, 43.00000000000000000 ) ) ;
#250 = ORIENTED_EDGE ( 'NONE', *, *, #335, .T. ) ;
#251 = COORDINATED_UNIVERSAL_TIME_OFFSET ( 1, 0, .AHEAD. ) ;
#252 = CARTESIAN_POINT ( 'NONE',  ( 5.344789307371178552E-31, 1.249999999999995559, 1.530808498934185901E-16 ) ) ;
#253 = APPROVAL ( #55, 'UNSPECIFIED' ) ;
#254 = CC_DESIGN_APPROVAL ( #42, ( #232 ) ) ;
#255 = DIRECTION ( 'NONE',  ( -3.491481338843133355E-15, 1.224646799147353207E-16, -1.000000000000000000 ) ) ;
#256 = DIRECTION ( 'NONE',  ( 3.491481338843133355E-15, -1.224646799147353207E-16, 1.000000000000000000 ) ) ;
#257 = EDGE_CURVE ( 'NONE', #311, #19, #304, .T. ) ;
#258 = DIRECTION ( 'NONE',  ( 0.0000000000000000000, 1.000000000000000000, 0.0000000000000000000 ) ) ;
#259 = CARTESIAN_POINT ( 'NONE',  ( 1.501336975702547217E-13, -5.265981236333618470E-15, 43.00000000000000000 ) ) ;
#260 = CIRCLE ( 'NONE', #332, 1.249999999999996225 ) ;
#261 = VERTEX_POINT ( 'NONE', #329 ) ;
#262 = CC_DESIGN_PERSON_AND_ORGANIZATION_ASSIGNMENT ( #145, #292, ( #234 ) ) ;
#263 = AXIS2_PLACEMENT_3D ( 'NONE', #202, #91, #40 ) ;
#264 = DIRECTION ( 'NONE',  ( 0.0000000000000000000, 1.000000000000000000, 0.0000000000000000000 ) ) ;
#265 = PERSON_AND_ORGANIZATION_ROLE ( 'design_supplier' ) ;
#266 = EDGE_CURVE ( 'NONE', #19, #167, #127, .T. ) ;
#267 = AXIS2_PLACEMENT_3D ( 'NONE', #89, #95, #171 ) ;
#268 = CIRCLE ( 'NONE', #213, 1.249999999999994893 ) ;
#269 = CALENDAR_DATE ( 2021, 3, 9 ) ;
#270 = CARTESIAN_POINT ( 'NONE',  ( 2.622367048225593660E-15, -9.198025422822551005E-17, 0.7510757737844555582 ) ) ;
#271 = DIRECTION ( 'NONE',  ( -3.491481338843133355E-15, 1.224646799147353207E-16, -1.000000000000000000 ) ) ;
#272 = CARTESIAN_POINT ( 'NONE',  ( 2.622367048225593265E-15, -1.249999999999994893, 0.7510757737844554471 ) ) ;
#273 = CC_DESIGN_PERSON_AND_ORGANIZATION_ASSIGNMENT ( #313, #192, ( #50 ) ) ;
#274 = PERSON_AND_ORGANIZATION ( #81, #201 ) ;
#275 = EDGE_LOOP ( 'NONE', ( #59, #179 ) ) ;
#276 = CONICAL_SURFACE ( 'NONE', #147, 0.9500000000000001776, 0.7853981633974452814 ) ;
#277 = DIRECTION ( 'NONE',  ( 4.275831445896958607E-31, 1.000000000000000000, 1.224646799147353207E-16 ) ) ;
#278 = LINE ( 'NONE', #200, #280 ) ;
#279 = DIRECTION ( 'NONE',  ( -3.491481338843133355E-15, 1.224646799147353207E-16, -1.000000000000000000 ) ) ;
#280 = VECTOR ( 'NONE', #298, 1000.000000000000000 ) ;
#281 = DIRECTION ( 'NONE',  ( -3.491481338843133355E-15, 1.224646799147353207E-16, -1.000000000000000000 ) ) ;
#282 = CARTESIAN_POINT ( 'NONE',  ( 3.840629472727446691E-14, -1.347111479062088405E-15, 11.00000000000000000 ) ) ;
#283 = DIRECTION ( 'NONE',  ( 3.081487911019590064E-31, 1.000000000000000000, 8.673617379884071217E-17 ) ) ;
#284 = CIRCLE ( 'NONE', #238, 0.9500000000000001776 ) ;
#285 = CC_DESIGN_DATE_AND_TIME_ASSIGNMENT ( #294, #165, ( #206 ) ) ;
#286 = ORIENTED_EDGE ( 'NONE', *, *, #257, .T. ) ;
#287 = ORIENTED_EDGE ( 'NONE', *, *, #320, .T. ) ;
#288 = CARTESIAN_POINT ( 'NONE',  ( 3.840629472727446691E-14, 9.373498641636562153E-33, 11.00000000000000000 ) ) ;
#289 = EDGE_LOOP ( 'NONE', ( #124, #116, #287, #240 ) ) ;
#290 = CONICAL_SURFACE ( 'NONE', #92, 1.249999999999994893, 1.029744258676649649 ) ;
#291 = ADVANCED_FACE ( 'NONE', ( #132 ), #290, .T. ) ;
#292 = PERSON_AND_ORGANIZATION_ROLE ( 'design_owner' ) ;
#293 = CARTESIAN_POINT ( 'NONE',  ( 1.490862531686017753E-13, -5.229241832359197610E-15, 42.69999999999999574 ) ) ;
#294 = DATE_AND_TIME ( #27, #16 ) ;
#295 = FACE_OUTER_BOUND ( 'NONE', #135, .T. ) ;
#296 = VERTEX_POINT ( 'NONE', #106 ) ;
#297 = PERSON_AND_ORGANIZATION_ROLE ( 'classification_officer' ) ;
#298 = DIRECTION ( 'NONE',  ( 1.798245827342160317E-15, -0.8571673007021098911, 0.5150380749100582634 ) ) ;
#299 = AXIS2_PLACEMENT_3D ( 'NONE', #259, #210, #128 ) ;
#300 = ADVANCED_FACE ( 'NONE', ( #23 ), #211, .T. ) ;
#301 = DIRECTION ( 'NONE',  ( 0.0000000000000000000, 1.000000000000000000, 0.0000000000000000000 ) ) ;
#302 = CARTESIAN_POINT ( 'NONE',  ( 1.502500390161737087E-13, -0.9500000000000055067, 43.00000000000000000 ) ) ;
#303 = CALENDAR_DATE ( 2021, 3, 9 ) ;
#304 = LINE ( 'NONE', #208, #170 ) ;
#305 = AXIS2_PLACEMENT_3D ( 'NONE', #21, #307, #258 ) ;
#306 = DIRECTION ( 'NONE',  ( -4.275831445896958607E-31, -1.000000000000000000, -1.224646799147353207E-16 ) ) ;
#307 = DIRECTION ( 'NONE',  ( -3.491481338843133355E-15, 1.224646799147353207E-16, -1.000000000000000000 ) ) ;
#308 = CARTESIAN_POINT ( 'NONE',  ( 0.0000000000000000000, 0.0000000000000000000, 0.0000000000000000000 ) ) ;
#309 = EDGE_CURVE ( 'NONE', #190, #87, #284, .T. ) ;
#310 = CIRCLE ( 'NONE', #24, 1.249999999999996225 ) ;
#311 = VERTEX_POINT ( 'NONE', #110 ) ;
#312 = ORIENTED_EDGE ( 'NONE', *, *, #199, .F. ) ;
#313 = PERSON_AND_ORGANIZATION ( #81, #201 ) ;
#314 = LOCAL_TIME ( 9, 49, 19.00000000000000000, #164 ) ;
#315 = CARTESIAN_POINT ( 'NONE',  ( 1.501336975702547217E-13, 0.9499999999999948486, 43.00000000000000000 ) ) ;
#316 = EDGE_LOOP ( 'NONE', ( #85, #2 ) ) ;
#317 = UNCERTAINTY_MEASURE_WITH_UNIT (LENGTH_MEASURE( 1.000000000000000082E-05 ), #11, 'distance_accuracy_value', 'NONE');
#318 = ORIENTED_EDGE ( 'NONE', *, *, #186, .F. ) ;
#319 = PERSON_AND_ORGANIZATION ( #81, #201 ) ;
#320 = EDGE_CURVE ( 'NONE', #190, #311, #113, .T. ) ;
#321 = ORIENTED_EDGE ( 'NONE', *, *, #176, .T. ) ;
#322 = AXIS2_PLACEMENT_3D ( 'NONE', #39, #150, #225 ) ;
#323 = FACE_OUTER_BOUND ( 'NONE', #316, .T. ) ;
#324 = LINE ( 'NONE', #9, #103 ) ;
#325 = CC_DESIGN_PERSON_AND_ORGANIZATION_ASSIGNMENT ( #117, #119, ( #206 ) ) ;
#326 = ORIENTED_EDGE ( 'NONE', *, *, #98, .F. ) ;
#327 = DIRECTION ( 'NONE',  ( 4.275831445896957731E-31, 1.000000000000000000, 1.224646799147352961E-16 ) ) ;
#328 = DATE_AND_TIME ( #67, #60 ) ;
#329 = CARTESIAN_POINT ( 'NONE',  ( 2.775447898119012595E-15, 1.249999999999994893, 0.7510757737844556692 ) ) ;
#330 = ADVANCED_FACE ( 'NONE', ( #226 ), #276, .T. ) ;
#331 = CARTESIAN_POINT ( 'NONE',  ( 3.840629472727446691E-14, 9.373498641636562153E-33, 11.00000000000000000 ) ) ;
#332 = AXIS2_PLACEMENT_3D ( 'NONE', #70, #20, #73 ) ;
#333 = DIRECTION ( 'NONE',  ( 0.0000000000000000000, 1.000000000000000000, 0.0000000000000000000 ) ) ;
#334 = CARTESIAN_POINT ( 'NONE',  ( 2.622367048225593660E-15, -9.198025422822551005E-17, 0.7510757737844555582 ) ) ;
#335 = EDGE_CURVE ( 'NONE', #166, #261, #139, .T. ) ;
#336 = CC_DESIGN_SECURITY_CLASSIFICATION ( #232, ( #50 ) ) ;
#337 = ORIENTED_EDGE ( 'NONE', *, *, #215, .T. ) ;
ENDSEC;
END-ISO-10303-21;
